ISO-10303-21;
HEADER;
FILE_DESCRIPTION((''),'1');
FILE_NAME('V:/90_\X2\53D65F9730C730FC30BF\X0\/00_\X2\6DE18DEF30C730FC30BF\X0\/ALL/MGT/MGT12-AU7_16-8.stp','2017-10-13T05:08:33',(''),(''),'Spatial Interop R21 SP3','Kubotek KeyCreator 2011 V10.0.2 (22737)',' ');
FILE_SCHEMA(('automotive_design'));
ENDSEC;
DATA;
#1=MECHANICAL_DESIGN_GEOMETRIC_PRESENTATION_REPRESENTATION(' ',(#10,#11,#12,#13,#14,#15,#16,#17,#18,#19,#20,#21,#22,#23,#24,#25,#26,#27,#28,#29,#30,#31,#32,#33,#34,#35,#36,#37),#6);
#2=PRODUCT_DEFINITION_CONTEXT('',#38,'design');
#3=APPLICATION_PROTOCOL_DEFINITION('INTERNATIONAL STANDARD','automotive_design',1994,#38);
#4=PRODUCT_CATEGORY_RELATIONSHIP('NONE','NONE',#39,#40);
#5=SHAPE_DEFINITION_REPRESENTATION(#41,#42);
#6= (GEOMETRIC_REPRESENTATION_CONTEXT(3)GLOBAL_UNCERTAINTY_ASSIGNED_CONTEXT((#45))GLOBAL_UNIT_ASSIGNED_CONTEXT((#47,#48,#49))REPRESENTATION_CONTEXT('NONE','WORKSPACE'));
#10=STYLED_ITEM('',(#51,#52),#53);
#11=STYLED_ITEM('',(#54,#55),#56);
#12=STYLED_ITEM('',(#57,#58),#59);
#13=STYLED_ITEM('',(#60),#61);
#14=STYLED_ITEM('',(#62,#63),#64);
#15=STYLED_ITEM('',(#65,#66),#67);
#16=STYLED_ITEM('',(#68),#69);
#17=STYLED_ITEM('',(#70),#71);
#18=STYLED_ITEM('',(#72,#73),#74);
#19=STYLED_ITEM('',(#75),#76);
#20=STYLED_ITEM('',(#77,#78),#79);
#21=STYLED_ITEM('',(#80),#81);
#22=STYLED_ITEM('',(#82,#83),#84);
#23=STYLED_ITEM('',(#85,#86),#87);
#24=STYLED_ITEM('',(#88),#89);
#25=STYLED_ITEM('',(#90,#91),#92);
#26=STYLED_ITEM('',(#93),#94);
#27=STYLED_ITEM('',(#95,#96),#97);
#28=STYLED_ITEM('',(#98,#99),#100);
#29=STYLED_ITEM('',(#101),#102);
#30=STYLED_ITEM('',(#103,#104),#105);
#31=STYLED_ITEM('',(#106),#107);
#32=STYLED_ITEM('',(#108,#109),#110);
#33=STYLED_ITEM('',(#111,#112),#113);
#34=STYLED_ITEM('',(#114),#115);
#35=STYLED_ITEM('',(#116),#117);
#36=STYLED_ITEM('',(#118),#119);
#37=STYLED_ITEM('',(#120),#121);
#38=APPLICATION_CONTEXT(' ');
#39=PRODUCT_CATEGORY('part','NONE');
#40=PRODUCT_RELATED_PRODUCT_CATEGORY('detail',' ',(#122));
#41=PRODUCT_DEFINITION_SHAPE('NONE','NONE',#123);
#42=ADVANCED_BREP_SHAPE_REPRESENTATION('Unnamed[1]',(#92,#124),#6);
#45=UNCERTAINTY_MEASURE_WITH_UNIT(LENGTH_MEASURE(1.0E-006),#47,'','');
#47= (CONVERSION_BASED_UNIT('MILLIMETRE',#127)LENGTH_UNIT()NAMED_UNIT(#130));
#48= (NAMED_UNIT(#132)PLANE_ANGLE_UNIT()SI_UNIT($,.RADIAN.));
#49= (NAMED_UNIT(#132)SOLID_ANGLE_UNIT()SI_UNIT($,.STERADIAN.));
#51=PRESENTATION_STYLE_ASSIGNMENT((#138));
#52=PRESENTATION_STYLE_ASSIGNMENT((#139));
#53=ADVANCED_FACE('Unnamed[1]',(#140,#141),#142,.T.);
#54=PRESENTATION_STYLE_ASSIGNMENT((#143));
#55=PRESENTATION_STYLE_ASSIGNMENT((#144));
#56=ADVANCED_FACE('Unnamed[1]',(#145,#146),#147,.T.);
#57=PRESENTATION_STYLE_ASSIGNMENT((#148));
#58=PRESENTATION_STYLE_ASSIGNMENT((#149));
#59=ADVANCED_FACE('Unnamed[1]',(#150,#151),#152,.T.);
#60=PRESENTATION_STYLE_ASSIGNMENT((#153));
#61=EDGE_CURVE('Unnamed[1]',#154,#154,#155,.T.);
#62=PRESENTATION_STYLE_ASSIGNMENT((#156));
#63=PRESENTATION_STYLE_ASSIGNMENT((#157));
#64=ADVANCED_FACE('Unnamed[1]',(#158,#159),#160,.T.);
#65=PRESENTATION_STYLE_ASSIGNMENT((#161));
#66=PRESENTATION_STYLE_ASSIGNMENT((#162));
#67=ADVANCED_FACE('Unnamed[1]',(#163),#164,.T.);
#68=PRESENTATION_STYLE_ASSIGNMENT((#165));
#69=EDGE_CURVE('Unnamed[1]',#166,#166,#167,.T.);
#70=PRESENTATION_STYLE_ASSIGNMENT((#168));
#71=EDGE_CURVE('Unnamed[1]',#169,#169,#170,.T.);
#72=PRESENTATION_STYLE_ASSIGNMENT((#171));
#73=PRESENTATION_STYLE_ASSIGNMENT((#172));
#74=ADVANCED_FACE('Unnamed[1]',(#173,#174),#175,.T.);
#75=PRESENTATION_STYLE_ASSIGNMENT((#176));
#76=EDGE_CURVE('Unnamed[1]',#177,#177,#178,.T.);
#77=PRESENTATION_STYLE_ASSIGNMENT((#179));
#78=PRESENTATION_STYLE_ASSIGNMENT((#180));
#79=ADVANCED_FACE('Unnamed[1]',(#181,#182),#183,.T.);
#80=PRESENTATION_STYLE_ASSIGNMENT((#184));
#81=EDGE_CURVE('Unnamed[1]',#185,#185,#186,.T.);
#82=PRESENTATION_STYLE_ASSIGNMENT((#187));
#83=PRESENTATION_STYLE_ASSIGNMENT((#188));
#84=ADVANCED_FACE('Unnamed[1]',(#189,#190),#191,.T.);
#85=PRESENTATION_STYLE_ASSIGNMENT((#192));
#86=PRESENTATION_STYLE_ASSIGNMENT((#193));
#87=ADVANCED_FACE('Unnamed[1]',(#194),#195,.T.);
#88=PRESENTATION_STYLE_ASSIGNMENT((#196));
#89=EDGE_CURVE('Unnamed[1]',#197,#197,#198,.T.);
#90=PRESENTATION_STYLE_ASSIGNMENT((#199));
#91=PRESENTATION_STYLE_ASSIGNMENT((#200));
#92=MANIFOLD_SOLID_BREP('Unnamed[1]',#201);
#93=PRESENTATION_STYLE_ASSIGNMENT((#202));
#94=EDGE_CURVE('Unnamed[1]',#203,#203,#204,.T.);
#95=PRESENTATION_STYLE_ASSIGNMENT((#205));
#96=PRESENTATION_STYLE_ASSIGNMENT((#206));
#97=ADVANCED_FACE('Unnamed[1]',(#207,#208),#209,.T.);
#98=PRESENTATION_STYLE_ASSIGNMENT((#210));
#99=PRESENTATION_STYLE_ASSIGNMENT((#211));
#100=ADVANCED_FACE('Unnamed[1]',(#212,#213),#214,.T.);
#101=PRESENTATION_STYLE_ASSIGNMENT((#215));
#102=EDGE_CURVE('Unnamed[1]',#216,#216,#217,.T.);
#103=PRESENTATION_STYLE_ASSIGNMENT((#218));
#104=PRESENTATION_STYLE_ASSIGNMENT((#219));
#105=ADVANCED_FACE('Unnamed[1]',(#220,#221),#222,.T.);
#106=PRESENTATION_STYLE_ASSIGNMENT((#223));
#107=EDGE_CURVE('Unnamed[1]',#224,#224,#225,.T.);
#108=PRESENTATION_STYLE_ASSIGNMENT((#226));
#109=PRESENTATION_STYLE_ASSIGNMENT((#227));
#110=ADVANCED_FACE('Unnamed[1]',(#228,#229),#230,.T.);
#111=PRESENTATION_STYLE_ASSIGNMENT((#231));
#112=PRESENTATION_STYLE_ASSIGNMENT((#232));
#113=ADVANCED_FACE('Unnamed[1]',(#233,#234),#235,.T.);
#114=PRESENTATION_STYLE_ASSIGNMENT((#236));
#115=EDGE_CURVE('Unnamed[1]',#237,#237,#238,.T.);
#116=PRESENTATION_STYLE_ASSIGNMENT((#239));
#117=EDGE_CURVE('Unnamed[1]',#240,#240,#241,.T.);
#118=PRESENTATION_STYLE_ASSIGNMENT((#242));
#119=EDGE_CURVE('Unnamed[1]',#243,#243,#244,.T.);
#120=PRESENTATION_STYLE_ASSIGNMENT((#245));
#121=EDGE_CURVE('Unnamed[1]',#246,#246,#247,.T.);
#122=PRODUCT('Unnamed[1]','Unnamed[1]','PART-Unnamed[1]-DESC',(#248));
#123=PRODUCT_DEFINITION('NONE','NONE',#249,#2);
#124=AXIS2_PLACEMENT_3D('',#250,#251,#252);
#127=LENGTH_MEASURE_WITH_UNIT(LENGTH_MEASURE(1.0),#253);
#130=DIMENSIONAL_EXPONENTS(1.0,0.0,0.0,0.0,0.0,0.0,0.0);
#132=DIMENSIONAL_EXPONENTS(0.0,0.0,0.0,0.0,0.0,0.0,0.0);
#138=SURFACE_STYLE_USAGE(.BOTH.,#254);
#139=CURVE_STYLE('',#255,POSITIVE_LENGTH_MEASURE(1000.0),#256);
#140=FACE_BOUND('',#257,.T.);
#141=FACE_BOUND('',#258,.T.);
#142=CYLINDRICAL_SURFACE('',#259,8.2);
#143=SURFACE_STYLE_USAGE(.BOTH.,#260);
#144=CURVE_STYLE('',#261,POSITIVE_LENGTH_MEASURE(1000.0),#262);
#145=FACE_OUTER_BOUND('',#263,.T.);
#146=FACE_BOUND('',#264,.T.);
#147=PLANE('',#265);
#148=SURFACE_STYLE_USAGE(.BOTH.,#266);
#149=CURVE_STYLE('',#267,POSITIVE_LENGTH_MEASURE(1000.0),#268);
#150=FACE_BOUND('',#269,.T.);
#151=FACE_BOUND('',#270,.T.);
#152=CYLINDRICAL_SURFACE('',#271,13.5);
#153=CURVE_STYLE('',#272,POSITIVE_LENGTH_MEASURE(1000.0),#273);
#154=VERTEX_POINT('',#274);
#155=CIRCLE('',#275,10.0);
#156=SURFACE_STYLE_USAGE(.BOTH.,#276);
#157=CURVE_STYLE('',#277,POSITIVE_LENGTH_MEASURE(1000.0),#278);
#158=FACE_BOUND('',#279,.T.);
#159=FACE_BOUND('',#280,.T.);
#160=CYLINDRICAL_SURFACE('',#281,10.0);
#161=SURFACE_STYLE_USAGE(.BOTH.,#282);
#162=CURVE_STYLE('',#283,POSITIVE_LENGTH_MEASURE(1000.0),#284);
#163=FACE_OUTER_BOUND('',#285,.T.);
#164=PLANE('',#286);
#165=CURVE_STYLE('',#287,POSITIVE_LENGTH_MEASURE(1000.0),#288);
#166=VERTEX_POINT('',#289);
#167=CIRCLE('',#290,10.0);
#168=CURVE_STYLE('',#291,POSITIVE_LENGTH_MEASURE(1000.0),#292);
#169=VERTEX_POINT('',#293);
#170=CIRCLE('',#294,13.5);
#171=SURFACE_STYLE_USAGE(.BOTH.,#295);
#172=CURVE_STYLE('',#296,POSITIVE_LENGTH_MEASURE(1000.0),#297);
#173=FACE_BOUND('',#298,.T.);
#174=FACE_BOUND('',#299,.T.);
#175=CYLINDRICAL_SURFACE('',#300,10.0);
#176=CURVE_STYLE('',#301,POSITIVE_LENGTH_MEASURE(1000.0),#302);
#177=VERTEX_POINT('',#303);
#178=CIRCLE('',#304,10.0);
#179=SURFACE_STYLE_USAGE(.BOTH.,#305);
#180=CURVE_STYLE('',#306,POSITIVE_LENGTH_MEASURE(1000.0),#307);
#181=FACE_BOUND('',#308,.T.);
#182=FACE_BOUND('',#309,.T.);
#183=CYLINDRICAL_SURFACE('',#310,10.0);
#184=CURVE_STYLE('',#311,POSITIVE_LENGTH_MEASURE(1000.0),#312);
#185=VERTEX_POINT('',#313);
#186=CIRCLE('',#314,10.0);
#187=SURFACE_STYLE_USAGE(.BOTH.,#315);
#188=CURVE_STYLE('',#316,POSITIVE_LENGTH_MEASURE(1000.0),#317);
#189=FACE_BOUND('',#318,.T.);
#190=FACE_BOUND('',#319,.T.);
#191=CYLINDRICAL_SURFACE('',#320,10.15);
#192=SURFACE_STYLE_USAGE(.BOTH.,#321);
#193=CURVE_STYLE('',#322,POSITIVE_LENGTH_MEASURE(1000.0),#323);
#194=FACE_OUTER_BOUND('',#324,.T.);
#195=PLANE('',#325);
#196=CURVE_STYLE('',#326,POSITIVE_LENGTH_MEASURE(1000.0),#327);
#197=VERTEX_POINT('',#328);
#198=CIRCLE('',#329,8.2);
#199=SURFACE_STYLE_USAGE(.BOTH.,#330);
#200=CURVE_STYLE('',#331,POSITIVE_LENGTH_MEASURE(1000.0),#332);
#201=CLOSED_SHELL('',(#67,#79,#56,#100,#59,#97,#64,#105,#53,#110,#84,#113,#74,#87));
#202=CURVE_STYLE('',#333,POSITIVE_LENGTH_MEASURE(1000.0),#334);
#203=VERTEX_POINT('',#335);
#204=CIRCLE('',#336,13.0);
#205=SURFACE_STYLE_USAGE(.BOTH.,#337);
#206=CURVE_STYLE('',#338,POSITIVE_LENGTH_MEASURE(1000.0),#339);
#207=FACE_BOUND('',#340,.T.);
#208=FACE_BOUND('',#341,.T.);
#209=CONICAL_SURFACE('',#342,11.75,1.11745279227556);
#210=SURFACE_STYLE_USAGE(.BOTH.,#343);
#211=CURVE_STYLE('',#344,POSITIVE_LENGTH_MEASURE(1000.0),#345);
#212=FACE_BOUND('',#346,.T.);
#213=FACE_BOUND('',#347,.T.);
#214=CONICAL_SURFACE('',#348,13.25,0.349065845655957);
#215=CURVE_STYLE('',#349,POSITIVE_LENGTH_MEASURE(1000.0),#350);
#216=VERTEX_POINT('',#351);
#217=CIRCLE('',#352,10.0);
#218=SURFACE_STYLE_USAGE(.BOTH.,#353);
#219=CURVE_STYLE('',#354,POSITIVE_LENGTH_MEASURE(1000.0),#355);
#220=FACE_BOUND('',#356,.T.);
#221=FACE_OUTER_BOUND('',#357,.T.);
#222=PLANE('',#358);
#223=CURVE_STYLE('',#359,POSITIVE_LENGTH_MEASURE(1000.0),#360);
#224=VERTEX_POINT('',#361);
#225=CIRCLE('',#362,10.15);
#226=SURFACE_STYLE_USAGE(.BOTH.,#363);
#227=CURVE_STYLE('',#364,POSITIVE_LENGTH_MEASURE(1000.0),#365);
#228=FACE_OUTER_BOUND('',#366,.T.);
#229=FACE_BOUND('',#367,.T.);
#230=PLANE('',#368);
#231=SURFACE_STYLE_USAGE(.BOTH.,#369);
#232=CURVE_STYLE('',#370,POSITIVE_LENGTH_MEASURE(1000.0),#371);
#233=FACE_BOUND('',#372,.T.);
#234=FACE_BOUND('',#373,.T.);
#235=CONICAL_SURFACE('',#374,10.075,0.523598777490513);
#236=CURVE_STYLE('',#375,POSITIVE_LENGTH_MEASURE(1000.0),#376);
#237=VERTEX_POINT('',#377);
#238=CIRCLE('',#378,13.5);
#239=CURVE_STYLE('',#379,POSITIVE_LENGTH_MEASURE(1000.0),#380);
#240=VERTEX_POINT('',#381);
#241=CIRCLE('',#382,10.0);
#242=CURVE_STYLE('',#383,POSITIVE_LENGTH_MEASURE(1000.0),#384);
#243=VERTEX_POINT('',#385);
#244=CIRCLE('',#386,10.15);
#245=CURVE_STYLE('',#387,POSITIVE_LENGTH_MEASURE(1000.0),#388);
#246=VERTEX_POINT('',#389);
#247=CIRCLE('',#390,8.2);
#248=PRODUCT_CONTEXT('',#38,'mechanical');
#249=PRODUCT_DEFINITION_FORMATION_WITH_SPECIFIED_SOURCE(' ','NONE',#122,.NOT_KNOWN.);
#250=CARTESIAN_POINT('',(0.0,0.0,0.0));
#251=DIRECTION('',(0.0,0.0,1.0));
#252=DIRECTION('',(1.0,0.0,0.0));
#253= (NAMED_UNIT(#130)LENGTH_UNIT()SI_UNIT(.MILLI.,.METRE.));
#254=SURFACE_SIDE_STYLE('',(#392));
#255=DRAUGHTING_PRE_DEFINED_CURVE_FONT('continuous');
#256=COLOUR_RGB('',0.0,1.0,0.0);
#257=EDGE_LOOP('',(#393));
#258=EDGE_LOOP('',(#394));
#259=AXIS2_PLACEMENT_3D('',#395,#396,#397);
#260=SURFACE_SIDE_STYLE('',(#398));
#261=DRAUGHTING_PRE_DEFINED_CURVE_FONT('continuous');
#262=COLOUR_RGB('',0.0,1.0,0.0);
#263=EDGE_LOOP('',(#399));
#264=EDGE_LOOP('',(#400));
#265=AXIS2_PLACEMENT_3D('',#401,#402,#403);
#266=SURFACE_SIDE_STYLE('',(#404));
#267=DRAUGHTING_PRE_DEFINED_CURVE_FONT('continuous');
#268=COLOUR_RGB('',0.0,1.0,0.0);
#269=EDGE_LOOP('',(#405));
#270=EDGE_LOOP('',(#406));
#271=AXIS2_PLACEMENT_3D('',#407,#408,#409);
#272=DRAUGHTING_PRE_DEFINED_CURVE_FONT('continuous');
#273=COLOUR_RGB('',0.0,1.0,0.0);
#274=CARTESIAN_POINT('',(-1.284042168906E-014,9.99999999999998,209.7));
#275=AXIS2_PLACEMENT_3D('',#410,#411,#412);
#276=SURFACE_SIDE_STYLE('',(#413));
#277=DRAUGHTING_PRE_DEFINED_CURVE_FONT('continuous');
#278=COLOUR_RGB('',0.0,1.0,0.0);
#279=EDGE_LOOP('',(#414));
#280=EDGE_LOOP('',(#415));
#281=AXIS2_PLACEMENT_3D('',#416,#417,#418);
#282=SURFACE_SIDE_STYLE('',(#419));
#283=DRAUGHTING_PRE_DEFINED_CURVE_FONT('continuous');
#284=COLOUR_RGB('',0.0,1.0,0.0);
#285=EDGE_LOOP('',(#420));
#286=AXIS2_PLACEMENT_3D('',#421,#422,#423);
#287=DRAUGHTING_PRE_DEFINED_CURVE_FONT('continuous');
#288=COLOUR_RGB('',0.0,1.0,0.0);
#289=CARTESIAN_POINT('',(-1.34711147906209E-015,10.0,22.0));
#290=AXIS2_PLACEMENT_3D('',#424,#425,#426);
#291=DRAUGHTING_PRE_DEFINED_CURVE_FONT('continuous');
#292=COLOUR_RGB('',0.0,1.0,0.0);
#293=CARTESIAN_POINT('',(-1.27563044527444E-014,13.5,208.32626128));
#294=AXIS2_PLACEMENT_3D('',#427,#428,#429);
#295=SURFACE_SIDE_STYLE('',(#430));
#296=DRAUGHTING_PRE_DEFINED_CURVE_FONT('continuous');
#297=COLOUR_RGB('',0.0,1.0,0.0);
#298=EDGE_LOOP('',(#431));
#299=EDGE_LOOP('',(#432));
#300=AXIS2_PLACEMENT_3D('',#433,#434,#435);
#301=DRAUGHTING_PRE_DEFINED_CURVE_FONT('continuous');
#302=COLOUR_RGB('',0.0,1.0,0.0);
#303=CARTESIAN_POINT('',(-1.2338001206294E-014,9.99999999999998,201.49485084));
#304=AXIS2_PLACEMENT_3D('',#436,#437,#438);
#305=SURFACE_SIDE_STYLE('',(#439));
#306=DRAUGHTING_PRE_DEFINED_CURVE_FONT('continuous');
#307=COLOUR_RGB('',0.0,1.0,0.0);
#308=EDGE_LOOP('',(#440));
#309=EDGE_LOOP('',(#441));
#310=AXIS2_PLACEMENT_3D('',#442,#443,#444);
#311=DRAUGHTING_PRE_DEFINED_CURVE_FONT('continuous');
#312=COLOUR_RGB('',0.0,1.0,0.0);
#313=CARTESIAN_POINT('',(-1.14750583067863E-015,10.0,18.74019238));
#314=AXIS2_PLACEMENT_3D('',#445,#446,#447);
#315=SURFACE_SIDE_STYLE('',(#448));
#316=DRAUGHTING_PRE_DEFINED_CURVE_FONT('continuous');
#317=COLOUR_RGB('',0.0,1.0,0.0);
#318=EDGE_LOOP('',(#449));
#319=EDGE_LOOP('',(#450));
#320=AXIS2_PLACEMENT_3D('',#451,#452,#453);
#321=SURFACE_SIDE_STYLE('',(#454));
#322=DRAUGHTING_PRE_DEFINED_CURVE_FONT('continuous');
#323=COLOUR_RGB('',0.0,1.0,0.0);
#324=EDGE_LOOP('',(#455));
#325=AXIS2_PLACEMENT_3D('',#456,#457,#458);
#326=DRAUGHTING_PRE_DEFINED_CURVE_FONT('continuous');
#327=COLOUR_RGB('',0.0,1.0,0.0);
#328=CARTESIAN_POINT('',(-1.28587913910472E-015,8.2,21.0));
#329=AXIS2_PLACEMENT_3D('',#459,#460,#461);
#330=SURFACE_SIDE_STYLE('',(#462));
#331=DRAUGHTING_PRE_DEFINED_CURVE_FONT('continuous');
#332=COLOUR_RGB('',0.0,1.0,0.0);
#333=DRAUGHTING_PRE_DEFINED_CURVE_FONT('continuous');
#334=COLOUR_RGB('',0.0,1.0,0.0);
#335=CARTESIAN_POINT('',(-1.28404216896723E-014,13.0,209.70000001));
#336=AXIS2_PLACEMENT_3D('',#463,#464,#465);
#337=SURFACE_SIDE_STYLE('',(#466));
#338=DRAUGHTING_PRE_DEFINED_CURVE_FONT('continuous');
#339=COLOUR_RGB('',0.0,1.0,0.0);
#340=EDGE_LOOP('',(#467));
#341=EDGE_LOOP('',(#468));
#342=AXIS2_PLACEMENT_3D('',#469,#470,#471);
#343=SURFACE_SIDE_STYLE('',(#472));
#344=DRAUGHTING_PRE_DEFINED_CURVE_FONT('continuous');
#345=COLOUR_RGB('',0.0,1.0,0.0);
#346=EDGE_LOOP('',(#473));
#347=EDGE_LOOP('',(#474));
#348=AXIS2_PLACEMENT_3D('',#475,#476,#477);
#349=DRAUGHTING_PRE_DEFINED_CURVE_FONT('continuous');
#350=COLOUR_RGB('',0.0,1.0,0.0);
#351=CARTESIAN_POINT('',(-1.55652608171629E-014,9.99999999999997,254.2));
#352=AXIS2_PLACEMENT_3D('',#478,#479,#480);
#353=SURFACE_SIDE_STYLE('',(#481));
#354=DRAUGHTING_PRE_DEFINED_CURVE_FONT('continuous');
#355=COLOUR_RGB('',0.0,1.0,0.0);
#356=EDGE_LOOP('',(#482));
#357=EDGE_LOOP('',(#483));
#358=AXIS2_PLACEMENT_3D('',#484,#485,#486);
#359=DRAUGHTING_PRE_DEFINED_CURVE_FONT('continuous');
#360=COLOUR_RGB('',0.0,1.0,0.0);
#361=CARTESIAN_POINT('',(-1.16341445918999E-015,10.15,19.0));
#362=AXIS2_PLACEMENT_3D('',#487,#488,#489);
#363=SURFACE_SIDE_STYLE('',(#490));
#364=DRAUGHTING_PRE_DEFINED_CURVE_FONT('continuous');
#365=COLOUR_RGB('',0.0,1.0,0.0);
#366=EDGE_LOOP('',(#491));
#367=EDGE_LOOP('',(#492));
#368=AXIS2_PLACEMENT_3D('',#493,#494,#495);
#369=SURFACE_SIDE_STYLE('',(#496));
#370=DRAUGHTING_PRE_DEFINED_CURVE_FONT('continuous');
#371=COLOUR_RGB('',0.0,1.0,0.0);
#372=EDGE_LOOP('',(#497));
#373=EDGE_LOOP('',(#498));
#374=AXIS2_PLACEMENT_3D('',#499,#500,#501);
#375=DRAUGHTING_PRE_DEFINED_CURVE_FONT('continuous');
#376=COLOUR_RGB('',0.0,1.0,0.0);
#377=CARTESIAN_POINT('',(-1.24424114793371E-014,13.5,203.2));
#378=AXIS2_PLACEMENT_3D('',#502,#503,#504);
#379=DRAUGHTING_PRE_DEFINED_CURVE_FONT('continuous');
#380=COLOUR_RGB('',0.0,1.0,0.0);
#381=CARTESIAN_POINT('',(0.0,10.0,0.0));
#382=AXIS2_PLACEMENT_3D('',#505,#506,#507);
#383=DRAUGHTING_PRE_DEFINED_CURVE_FONT('continuous');
#384=COLOUR_RGB('',0.0,1.0,0.0);
#385=CARTESIAN_POINT('',(-1.28587913910472E-015,10.15,21.0));
#386=AXIS2_PLACEMENT_3D('',#508,#509,#510);
#387=DRAUGHTING_PRE_DEFINED_CURVE_FONT('continuous');
#388=COLOUR_RGB('',0.0,1.0,0.0);
#389=CARTESIAN_POINT('',(-1.34711147906209E-015,8.19999999999999,22.0));
#390=AXIS2_PLACEMENT_3D('',#511,#512,#513);
#392=SURFACE_STYLE_FILL_AREA(#514);
#393=ORIENTED_EDGE('',*,*,#89,.F.);
#394=ORIENTED_EDGE('',*,*,#121,.T.);
#395=CARTESIAN_POINT('',(-1.3164953090834E-015,-2.63299061816681E-015,21.5));
#396=DIRECTION('',(6.12323399573677E-017,1.22464679914735E-016,-1.0));
#397=DIRECTION('',(-1.23259516440783E-032,1.0,1.22464679914735E-016));
#398=SURFACE_STYLE_FILL_AREA(#515);
#399=ORIENTED_EDGE('',*,*,#94,.F.);
#400=ORIENTED_EDGE('',*,*,#61,.T.);
#401=CARTESIAN_POINT('',(-1.28404216893662E-014,11.5,209.700000005));
#402=DIRECTION('',(-6.12323399573677E-017,-3.3333331394803E-009,1.0));
#403=DIRECTION('',(2.0410779281497E-025,-1.0,-3.3333331394803E-009));
#404=SURFACE_STYLE_FILL_AREA(#516);
#405=ORIENTED_EDGE('',*,*,#115,.F.);
#406=ORIENTED_EDGE('',*,*,#71,.T.);
#407=CARTESIAN_POINT('',(-1.25993579660407E-014,-2.51987159320815E-014,205.76313064));
#408=DIRECTION('',(6.12323399573677E-017,1.22464679914735E-016,-1.0));
#409=DIRECTION('',(-1.23259516440783E-032,1.0,1.22464679914735E-016));
#410=CARTESIAN_POINT('',(-1.284042168906E-014,-2.568084337812E-014,209.7));
#411=DIRECTION('',(6.12323399573677E-017,1.22464679914735E-016,-1.0));
#412=DIRECTION('',(-1.23259516440783E-032,1.0,1.22464679914735E-016));
#413=SURFACE_STYLE_FILL_AREA(#517);
#414=ORIENTED_EDGE('',*,*,#69,.F.);
#415=ORIENTED_EDGE('',*,*,#76,.T.);
#416=CARTESIAN_POINT('',(-6.84255634267803E-015,-1.36851126853561E-014,111.74742542));
#417=DIRECTION('',(6.12323399573677E-017,1.22464679914735E-016,-1.0));
#418=DIRECTION('',(-1.23259516440783E-032,1.0,1.22464679914735E-016));
#419=SURFACE_STYLE_FILL_AREA(#518);
#420=ORIENTED_EDGE('',*,*,#102,.F.);
#421=CARTESIAN_POINT('',(-1.55652608171629E-014,4.99999999999997,254.2));
#422=DIRECTION('',(-6.12323399573677E-017,-1.22464679914735E-016,1.0));
#423=DIRECTION('',(1.23259516440783E-032,-1.0,-1.22464679914735E-016));
#424=CARTESIAN_POINT('',(-1.34711147906209E-015,-2.69422295812418E-015,22.0));
#425=DIRECTION('',(6.12323399573677E-017,1.22464679914735E-016,-1.0));
#426=DIRECTION('',(-1.23259516440783E-032,1.0,1.22464679914735E-016));
#427=CARTESIAN_POINT('',(-1.27563044527444E-014,-2.55126089054887E-014,208.32626128));
#428=DIRECTION('',(6.12323399573677E-017,1.22464679914735E-016,-1.0));
#429=DIRECTION('',(-1.23259516440783E-032,1.0,1.22464679914735E-016));
#430=SURFACE_STYLE_FILL_AREA(#519);
#431=ORIENTED_EDGE('',*,*,#117,.F.);
#432=ORIENTED_EDGE('',*,*,#81,.T.);
#433=CARTESIAN_POINT('',(-5.73752915339316E-016,-1.14750583067863E-015,9.37009619));
#434=DIRECTION('',(6.12323399573677E-017,1.22464679914735E-016,-1.0));
#435=DIRECTION('',(-1.23259516440783E-032,1.0,1.22464679914735E-016));
#436=CARTESIAN_POINT('',(-1.2338001206294E-014,-2.46760024125879E-014,201.49485084));
#437=DIRECTION('',(6.12323399573677E-017,1.22464679914735E-016,-1.0));
#438=DIRECTION('',(-1.23259516440783E-032,1.0,1.22464679914735E-016));
#439=SURFACE_STYLE_FILL_AREA(#520);
#440=ORIENTED_EDGE('',*,*,#61,.F.);
#441=ORIENTED_EDGE('',*,*,#102,.T.);
#442=CARTESIAN_POINT('',(-1.42028412531114E-014,-2.84056825062229E-014,231.95));
#443=DIRECTION('',(6.12323399573677E-017,1.22464679914735E-016,-1.0));
#444=DIRECTION('',(-1.23259516440783E-032,1.0,1.22464679914735E-016));
#445=CARTESIAN_POINT('',(-1.14750583067863E-015,-2.29501166135726E-015,18.74019238));
#446=DIRECTION('',(6.12323399573677E-017,1.22464679914735E-016,-1.0));
#447=DIRECTION('',(-1.23259516440783E-032,1.0,1.22464679914735E-016));
#448=SURFACE_STYLE_FILL_AREA(#521);
#449=ORIENTED_EDGE('',*,*,#107,.F.);
#450=ORIENTED_EDGE('',*,*,#119,.T.);
#451=CARTESIAN_POINT('',(-1.22464679914735E-015,-2.44929359829471E-015,20.0));
#452=DIRECTION('',(6.12323399573677E-017,1.22464679914735E-016,-1.0));
#453=DIRECTION('',(-1.23259516440783E-032,1.0,1.22464679914735E-016));
#454=SURFACE_STYLE_FILL_AREA(#522);
#455=ORIENTED_EDGE('',*,*,#117,.T.);
#456=CARTESIAN_POINT('',(0.0,5.0,0.0));
#457=DIRECTION('',(6.12323399573677E-017,1.22464679914735E-016,-1.0));
#458=DIRECTION('',(-1.23259516440783E-032,1.0,1.22464679914735E-016));
#459=CARTESIAN_POINT('',(-1.28587913910472E-015,-2.57175827820944E-015,21.0));
#460=DIRECTION('',(6.12323399573677E-017,1.22464679914735E-016,-1.0));
#461=DIRECTION('',(-1.23259516440783E-032,1.0,1.22464679914735E-016));
#462=SURFACE_STYLE_FILL_AREA(#523);
#463=CARTESIAN_POINT('',(-1.28404216896723E-014,-2.56808433793446E-014,209.70000001));
#464=DIRECTION('',(6.12323399573677E-017,1.22464679914735E-016,-1.0));
#465=DIRECTION('',(-1.23259516440783E-032,1.0,1.22464679914735E-016));
#466=SURFACE_STYLE_FILL_AREA(#524);
#467=ORIENTED_EDGE('',*,*,#76,.F.);
#468=ORIENTED_EDGE('',*,*,#115,.T.);
#469=CARTESIAN_POINT('',(-1.23902063428155E-014,-2.47804126856311E-014,202.34742542));
#470=DIRECTION('',(-6.12323399573677E-017,-1.22464679914735E-016,1.0));
#471=DIRECTION('',(-1.23259516440783E-032,1.0,1.22464679914735E-016));
#472=SURFACE_STYLE_FILL_AREA(#525);
#473=ORIENTED_EDGE('',*,*,#71,.F.);
#474=ORIENTED_EDGE('',*,*,#94,.T.);
#475=CARTESIAN_POINT('',(-1.27983630712083E-014,-2.55967261424167E-014,209.013130645));
#476=DIRECTION('',(6.12323399573677E-017,1.22464679914735E-016,-1.0));
#477=DIRECTION('',(-1.23259516440783E-032,1.0,1.22464679914735E-016));
#478=CARTESIAN_POINT('',(-1.55652608171629E-014,-3.11305216343257E-014,254.2));
#479=DIRECTION('',(6.12323399573677E-017,1.22464679914735E-016,-1.0));
#480=DIRECTION('',(-1.23259516440783E-032,1.0,1.22464679914735E-016));
#481=SURFACE_STYLE_FILL_AREA(#526);
#482=ORIENTED_EDGE('',*,*,#121,.F.);
#483=ORIENTED_EDGE('',*,*,#69,.T.);
#484=CARTESIAN_POINT('',(-1.34711147906209E-015,9.09999999999999,22.0));
#485=DIRECTION('',(6.12323399573677E-017,1.22464679914735E-016,-1.0));
#486=DIRECTION('',(-1.23259516440783E-032,1.0,1.22464679914735E-016));
#487=CARTESIAN_POINT('',(-1.16341445918999E-015,-2.32682891837997E-015,19.0));
#488=DIRECTION('',(6.12323399573677E-017,1.22464679914735E-016,-1.0));
#489=DIRECTION('',(-1.23259516440783E-032,1.0,1.22464679914735E-016));
#490=SURFACE_STYLE_FILL_AREA(#527);
#491=ORIENTED_EDGE('',*,*,#119,.F.);
#492=ORIENTED_EDGE('',*,*,#89,.T.);
#493=CARTESIAN_POINT('',(-1.28587913910472E-015,9.175,21.0));
#494=DIRECTION('',(-6.12323399573677E-017,-1.22464679914735E-016,1.0));
#495=DIRECTION('',(1.23259516440783E-032,-1.0,-1.22464679914735E-016));
#496=SURFACE_STYLE_FILL_AREA(#528);
#497=ORIENTED_EDGE('',*,*,#81,.F.);
#498=ORIENTED_EDGE('',*,*,#107,.T.);
#499=CARTESIAN_POINT('',(-1.15546014493431E-015,-2.31092028986862E-015,18.87009619));
#500=DIRECTION('',(-6.12323399573677E-017,-1.22464679914735E-016,1.0));
#501=DIRECTION('',(-1.23259516440783E-032,1.0,1.22464679914735E-016));
#502=CARTESIAN_POINT('',(-1.24424114793371E-014,-2.48848229586742E-014,203.2));
#503=DIRECTION('',(6.12323399573677E-017,1.22464679914735E-016,-1.0));
#504=DIRECTION('',(-1.23259516440783E-032,1.0,1.22464679914735E-016));
#505=CARTESIAN_POINT('',(0.0,0.0,0.0));
#506=DIRECTION('',(6.12323399573677E-017,1.22464679914735E-016,-1.0));
#507=DIRECTION('',(-1.23259516440783E-032,1.0,1.22464679914735E-016));
#508=CARTESIAN_POINT('',(-1.28587913910472E-015,-2.57175827820944E-015,21.0));
#509=DIRECTION('',(6.12323399573677E-017,1.22464679914735E-016,-1.0));
#510=DIRECTION('',(-1.23259516440783E-032,1.0,1.22464679914735E-016));
#511=CARTESIAN_POINT('',(-1.34711147906209E-015,-2.69422295812418E-015,22.0));
#512=DIRECTION('',(6.12323399573677E-017,1.22464679914735E-016,-1.0));
#513=DIRECTION('',(-1.23259516440783E-032,1.0,1.22464679914735E-016));
#514=FILL_AREA_STYLE('',(#529));
#515=FILL_AREA_STYLE('',(#530));
#516=FILL_AREA_STYLE('',(#531));
#517=FILL_AREA_STYLE('',(#532));
#518=FILL_AREA_STYLE('',(#533));
#519=FILL_AREA_STYLE('',(#534));
#520=FILL_AREA_STYLE('',(#535));
#521=FILL_AREA_STYLE('',(#536));
#522=FILL_AREA_STYLE('',(#537));
#523=FILL_AREA_STYLE('',(#538));
#524=FILL_AREA_STYLE('',(#539));
#525=FILL_AREA_STYLE('',(#540));
#526=FILL_AREA_STYLE('',(#541));
#527=FILL_AREA_STYLE('',(#542));
#528=FILL_AREA_STYLE('',(#543));
#529=FILL_AREA_STYLE_COLOUR('',#544);
#530=FILL_AREA_STYLE_COLOUR('',#545);
#531=FILL_AREA_STYLE_COLOUR('',#546);
#532=FILL_AREA_STYLE_COLOUR('',#547);
#533=FILL_AREA_STYLE_COLOUR('',#548);
#534=FILL_AREA_STYLE_COLOUR('',#549);
#535=FILL_AREA_STYLE_COLOUR('',#550);
#536=FILL_AREA_STYLE_COLOUR('',#551);
#537=FILL_AREA_STYLE_COLOUR('',#552);
#538=FILL_AREA_STYLE_COLOUR('',#553);
#539=FILL_AREA_STYLE_COLOUR('',#554);
#540=FILL_AREA_STYLE_COLOUR('',#555);
#541=FILL_AREA_STYLE_COLOUR('',#556);
#542=FILL_AREA_STYLE_COLOUR('',#557);
#543=FILL_AREA_STYLE_COLOUR('',#558);
#544=COLOUR_RGB('',0.0,1.0,0.0);
#545=COLOUR_RGB('',0.0,1.0,0.0);
#546=COLOUR_RGB('',0.0,1.0,0.0);
#547=COLOUR_RGB('',0.0,1.0,0.0);
#548=COLOUR_RGB('',0.0,1.0,0.0);
#549=COLOUR_RGB('',0.0,1.0,0.0);
#550=COLOUR_RGB('',0.0,1.0,0.0);
#551=COLOUR_RGB('',0.0,1.0,0.0);
#552=COLOUR_RGB('',0.0,1.0,0.0);
#553=COLOUR_RGB('',0.0,1.0,0.0);
#554=COLOUR_RGB('',0.0,1.0,0.0);
#555=COLOUR_RGB('',0.0,1.0,0.0);
#556=COLOUR_RGB('',0.0,1.0,0.0);
#557=COLOUR_RGB('',0.0,1.0,0.0);
#558=COLOUR_RGB('',0.0,1.0,0.0);
ENDSEC;
END-ISO-10303-21;
