ISO-10303-21;
HEADER;
FILE_DESCRIPTION((''),'1');
FILE_NAME('V:/90_\X2\53D65F9730C730FC30BF\X0\/00_\X2\6DE18DEF30C730FC30BF\X0\/ALL/MGT/MGT12-AU7_16-6.stp','2017-10-13T05:05:42',(''),(''),'Spatial Interop R21 SP3','Kubotek KeyCreator 2011 V10.0.2 (22737)',' ');
FILE_SCHEMA(('automotive_design'));
ENDSEC;
DATA;
#1=MECHANICAL_DESIGN_GEOMETRIC_PRESENTATION_REPRESENTATION(' ',(#10,#11,#12,#13,#14,#15,#16,#17,#18,#19,#20,#21,#22,#23,#24,#25,#26,#27,#28,#29,#30,#31,#32,#33,#34,#35,#36,#37),#6);
#2=PRODUCT_DEFINITION_CONTEXT('',#38,'design');
#3=APPLICATION_PROTOCOL_DEFINITION('INTERNATIONAL STANDARD','automotive_design',1994,#38);
#4=PRODUCT_CATEGORY_RELATIONSHIP('NONE','NONE',#39,#40);
#5=SHAPE_DEFINITION_REPRESENTATION(#41,#42);
#6= (GEOMETRIC_REPRESENTATION_CONTEXT(3)GLOBAL_UNCERTAINTY_ASSIGNED_CONTEXT((#45))GLOBAL_UNIT_ASSIGNED_CONTEXT((#47,#48,#49))REPRESENTATION_CONTEXT('NONE','WORKSPACE'));
#10=STYLED_ITEM('',(#51),#52);
#11=STYLED_ITEM('',(#53,#54),#55);
#12=STYLED_ITEM('',(#56,#57),#58);
#13=STYLED_ITEM('',(#59,#60),#61);
#14=STYLED_ITEM('',(#62),#63);
#15=STYLED_ITEM('',(#64,#65),#66);
#16=STYLED_ITEM('',(#67),#68);
#17=STYLED_ITEM('',(#69,#70),#71);
#18=STYLED_ITEM('',(#72),#73);
#19=STYLED_ITEM('',(#74),#75);
#20=STYLED_ITEM('',(#76),#77);
#21=STYLED_ITEM('',(#78,#79),#80);
#22=STYLED_ITEM('',(#81,#82),#83);
#23=STYLED_ITEM('',(#84),#85);
#24=STYLED_ITEM('',(#86),#87);
#25=STYLED_ITEM('',(#88,#89),#90);
#26=STYLED_ITEM('',(#91,#92),#93);
#27=STYLED_ITEM('',(#94),#95);
#28=STYLED_ITEM('',(#96),#97);
#29=STYLED_ITEM('',(#98),#99);
#30=STYLED_ITEM('',(#100,#101),#102);
#31=STYLED_ITEM('',(#103,#104),#105);
#32=STYLED_ITEM('',(#106),#107);
#33=STYLED_ITEM('',(#108,#109),#110);
#34=STYLED_ITEM('',(#111),#112);
#35=STYLED_ITEM('',(#113,#114),#115);
#36=STYLED_ITEM('',(#116,#117),#118);
#37=STYLED_ITEM('',(#119,#120),#121);
#38=APPLICATION_CONTEXT(' ');
#39=PRODUCT_CATEGORY('part','NONE');
#40=PRODUCT_RELATED_PRODUCT_CATEGORY('detail',' ',(#122));
#41=PRODUCT_DEFINITION_SHAPE('NONE','NONE',#123);
#42=ADVANCED_BREP_SHAPE_REPRESENTATION('Unnamed[1]',(#55,#124),#6);
#45=UNCERTAINTY_MEASURE_WITH_UNIT(LENGTH_MEASURE(1.0E-006),#47,'','');
#47= (CONVERSION_BASED_UNIT('MILLIMETRE',#127)LENGTH_UNIT()NAMED_UNIT(#130));
#48= (NAMED_UNIT(#132)PLANE_ANGLE_UNIT()SI_UNIT($,.RADIAN.));
#49= (NAMED_UNIT(#132)SOLID_ANGLE_UNIT()SI_UNIT($,.STERADIAN.));
#51=PRESENTATION_STYLE_ASSIGNMENT((#138));
#52=EDGE_CURVE('Unnamed[1]',#139,#139,#140,.T.);
#53=PRESENTATION_STYLE_ASSIGNMENT((#141));
#54=PRESENTATION_STYLE_ASSIGNMENT((#142));
#55=MANIFOLD_SOLID_BREP('Unnamed[1]',#143);
#56=PRESENTATION_STYLE_ASSIGNMENT((#144));
#57=PRESENTATION_STYLE_ASSIGNMENT((#145));
#58=ADVANCED_FACE('Unnamed[1]',(#146,#147),#148,.T.);
#59=PRESENTATION_STYLE_ASSIGNMENT((#149));
#60=PRESENTATION_STYLE_ASSIGNMENT((#150));
#61=ADVANCED_FACE('Unnamed[1]',(#151,#152),#153,.T.);
#62=PRESENTATION_STYLE_ASSIGNMENT((#154));
#63=EDGE_CURVE('Unnamed[1]',#155,#155,#156,.T.);
#64=PRESENTATION_STYLE_ASSIGNMENT((#157));
#65=PRESENTATION_STYLE_ASSIGNMENT((#158));
#66=ADVANCED_FACE('Unnamed[1]',(#159,#160),#161,.T.);
#67=PRESENTATION_STYLE_ASSIGNMENT((#162));
#68=EDGE_CURVE('Unnamed[1]',#163,#163,#164,.T.);
#69=PRESENTATION_STYLE_ASSIGNMENT((#165));
#70=PRESENTATION_STYLE_ASSIGNMENT((#166));
#71=ADVANCED_FACE('Unnamed[1]',(#167,#168),#169,.T.);
#72=PRESENTATION_STYLE_ASSIGNMENT((#170));
#73=EDGE_CURVE('Unnamed[1]',#171,#171,#172,.T.);
#74=PRESENTATION_STYLE_ASSIGNMENT((#173));
#75=EDGE_CURVE('Unnamed[1]',#174,#174,#175,.T.);
#76=PRESENTATION_STYLE_ASSIGNMENT((#176));
#77=EDGE_CURVE('Unnamed[1]',#177,#177,#178,.T.);
#78=PRESENTATION_STYLE_ASSIGNMENT((#179));
#79=PRESENTATION_STYLE_ASSIGNMENT((#180));
#80=ADVANCED_FACE('Unnamed[1]',(#181,#182),#183,.T.);
#81=PRESENTATION_STYLE_ASSIGNMENT((#184));
#82=PRESENTATION_STYLE_ASSIGNMENT((#185));
#83=ADVANCED_FACE('Unnamed[1]',(#186,#187),#188,.T.);
#84=PRESENTATION_STYLE_ASSIGNMENT((#189));
#85=EDGE_CURVE('Unnamed[1]',#190,#190,#191,.T.);
#86=PRESENTATION_STYLE_ASSIGNMENT((#192));
#87=EDGE_CURVE('Unnamed[1]',#193,#193,#194,.T.);
#88=PRESENTATION_STYLE_ASSIGNMENT((#195));
#89=PRESENTATION_STYLE_ASSIGNMENT((#196));
#90=ADVANCED_FACE('Unnamed[1]',(#197,#198),#199,.T.);
#91=PRESENTATION_STYLE_ASSIGNMENT((#200));
#92=PRESENTATION_STYLE_ASSIGNMENT((#201));
#93=ADVANCED_FACE('Unnamed[1]',(#202),#203,.T.);
#94=PRESENTATION_STYLE_ASSIGNMENT((#204));
#95=EDGE_CURVE('Unnamed[1]',#205,#205,#206,.T.);
#96=PRESENTATION_STYLE_ASSIGNMENT((#207));
#97=EDGE_CURVE('Unnamed[1]',#208,#208,#209,.T.);
#98=PRESENTATION_STYLE_ASSIGNMENT((#210));
#99=EDGE_CURVE('Unnamed[1]',#211,#211,#212,.T.);
#100=PRESENTATION_STYLE_ASSIGNMENT((#213));
#101=PRESENTATION_STYLE_ASSIGNMENT((#214));
#102=ADVANCED_FACE('Unnamed[1]',(#215),#216,.T.);
#103=PRESENTATION_STYLE_ASSIGNMENT((#217));
#104=PRESENTATION_STYLE_ASSIGNMENT((#218));
#105=ADVANCED_FACE('Unnamed[1]',(#219,#220),#221,.T.);
#106=PRESENTATION_STYLE_ASSIGNMENT((#222));
#107=EDGE_CURVE('Unnamed[1]',#223,#223,#224,.T.);
#108=PRESENTATION_STYLE_ASSIGNMENT((#225));
#109=PRESENTATION_STYLE_ASSIGNMENT((#226));
#110=ADVANCED_FACE('Unnamed[1]',(#227,#228),#229,.T.);
#111=PRESENTATION_STYLE_ASSIGNMENT((#230));
#112=EDGE_CURVE('Unnamed[1]',#231,#231,#232,.T.);
#113=PRESENTATION_STYLE_ASSIGNMENT((#233));
#114=PRESENTATION_STYLE_ASSIGNMENT((#234));
#115=ADVANCED_FACE('Unnamed[1]',(#235,#236),#237,.T.);
#116=PRESENTATION_STYLE_ASSIGNMENT((#238));
#117=PRESENTATION_STYLE_ASSIGNMENT((#239));
#118=ADVANCED_FACE('Unnamed[1]',(#240,#241),#242,.T.);
#119=PRESENTATION_STYLE_ASSIGNMENT((#243));
#120=PRESENTATION_STYLE_ASSIGNMENT((#244));
#121=ADVANCED_FACE('Unnamed[1]',(#245,#246),#247,.T.);
#122=PRODUCT('Unnamed[1]','Unnamed[1]','PART-Unnamed[1]-DESC',(#248));
#123=PRODUCT_DEFINITION('NONE','NONE',#249,#2);
#124=AXIS2_PLACEMENT_3D('',#250,#251,#252);
#127=LENGTH_MEASURE_WITH_UNIT(LENGTH_MEASURE(1.0),#253);
#130=DIMENSIONAL_EXPONENTS(1.0,0.0,0.0,0.0,0.0,0.0,0.0);
#132=DIMENSIONAL_EXPONENTS(0.0,0.0,0.0,0.0,0.0,0.0,0.0);
#138=CURVE_STYLE('',#254,POSITIVE_LENGTH_MEASURE(1000.0),#255);
#139=VERTEX_POINT('',#256);
#140=CIRCLE('',#257,10.0);
#141=SURFACE_STYLE_USAGE(.BOTH.,#258);
#142=CURVE_STYLE('',#259,POSITIVE_LENGTH_MEASURE(1000.0),#260);
#143=CLOSED_SHELL('',(#102,#121,#90,#61,#118,#66,#105,#110,#80,#71,#58,#83,#115,#93));
#144=SURFACE_STYLE_USAGE(.BOTH.,#261);
#145=CURVE_STYLE('',#262,POSITIVE_LENGTH_MEASURE(1000.0),#263);
#146=FACE_BOUND('',#264,.T.);
#147=FACE_BOUND('',#265,.T.);
#148=CYLINDRICAL_SURFACE('',#266,10.15);
#149=SURFACE_STYLE_USAGE(.BOTH.,#267);
#150=CURVE_STYLE('',#268,POSITIVE_LENGTH_MEASURE(1000.0),#269);
#151=FACE_BOUND('',#270,.T.);
#152=FACE_BOUND('',#271,.T.);
#153=CONICAL_SURFACE('',#272,13.25,0.349065845655957);
#154=CURVE_STYLE('',#273,POSITIVE_LENGTH_MEASURE(1000.0),#274);
#155=VERTEX_POINT('',#275);
#156=CIRCLE('',#276,10.0);
#157=SURFACE_STYLE_USAGE(.BOTH.,#277);
#158=CURVE_STYLE('',#278,POSITIVE_LENGTH_MEASURE(1000.0),#279);
#159=FACE_BOUND('',#280,.T.);
#160=FACE_BOUND('',#281,.T.);
#161=CONICAL_SURFACE('',#282,11.75,1.11745279354846);
#162=CURVE_STYLE('',#283,POSITIVE_LENGTH_MEASURE(1000.0),#284);
#163=VERTEX_POINT('',#285);
#164=CIRCLE('',#286,10.0);
#165=SURFACE_STYLE_USAGE(.BOTH.,#287);
#166=CURVE_STYLE('',#288,POSITIVE_LENGTH_MEASURE(1000.0),#289);
#167=FACE_OUTER_BOUND('',#290,.T.);
#168=FACE_BOUND('',#291,.T.);
#169=PLANE('',#292);
#170=CURVE_STYLE('',#293,POSITIVE_LENGTH_MEASURE(1000.0),#294);
#171=VERTEX_POINT('',#295);
#172=CIRCLE('',#296,10.15);
#173=CURVE_STYLE('',#297,POSITIVE_LENGTH_MEASURE(1000.0),#298);
#174=VERTEX_POINT('',#299);
#175=CIRCLE('',#300,13.5);
#176=CURVE_STYLE('',#301,POSITIVE_LENGTH_MEASURE(1000.0),#302);
#177=VERTEX_POINT('',#303);
#178=CIRCLE('',#304,13.5);
#179=SURFACE_STYLE_USAGE(.BOTH.,#305);
#180=CURVE_STYLE('',#306,POSITIVE_LENGTH_MEASURE(1000.0),#307);
#181=FACE_BOUND('',#308,.T.);
#182=FACE_BOUND('',#309,.T.);
#183=CYLINDRICAL_SURFACE('',#310,8.2);
#184=SURFACE_STYLE_USAGE(.BOTH.,#311);
#185=CURVE_STYLE('',#312,POSITIVE_LENGTH_MEASURE(1000.0),#313);
#186=FACE_BOUND('',#314,.T.);
#187=FACE_BOUND('',#315,.T.);
#188=CONICAL_SURFACE('',#316,10.075,0.523598777490513);
#189=CURVE_STYLE('',#317,POSITIVE_LENGTH_MEASURE(1000.0),#318);
#190=VERTEX_POINT('',#319);
#191=CIRCLE('',#320,8.2);
#192=CURVE_STYLE('',#321,POSITIVE_LENGTH_MEASURE(1000.0),#322);
#193=VERTEX_POINT('',#323);
#194=CIRCLE('',#324,10.15);
#195=SURFACE_STYLE_USAGE(.BOTH.,#325);
#196=CURVE_STYLE('',#326,POSITIVE_LENGTH_MEASURE(1000.0),#327);
#197=FACE_OUTER_BOUND('',#328,.T.);
#198=FACE_BOUND('',#329,.T.);
#199=PLANE('',#330);
#200=SURFACE_STYLE_USAGE(.BOTH.,#331);
#201=CURVE_STYLE('',#332,POSITIVE_LENGTH_MEASURE(1000.0),#333);
#202=FACE_OUTER_BOUND('',#334,.T.);
#203=PLANE('',#335);
#204=CURVE_STYLE('',#336,POSITIVE_LENGTH_MEASURE(1000.0),#337);
#205=VERTEX_POINT('',#338);
#206=CIRCLE('',#339,10.0);
#207=CURVE_STYLE('',#340,POSITIVE_LENGTH_MEASURE(1000.0),#341);
#208=VERTEX_POINT('',#342);
#209=CIRCLE('',#343,13.0);
#210=CURVE_STYLE('',#344,POSITIVE_LENGTH_MEASURE(1000.0),#345);
#211=VERTEX_POINT('',#346);
#212=CIRCLE('',#347,10.0);
#213=SURFACE_STYLE_USAGE(.BOTH.,#348);
#214=CURVE_STYLE('',#349,POSITIVE_LENGTH_MEASURE(1000.0),#350);
#215=FACE_OUTER_BOUND('',#351,.T.);
#216=PLANE('',#352);
#217=SURFACE_STYLE_USAGE(.BOTH.,#353);
#218=CURVE_STYLE('',#354,POSITIVE_LENGTH_MEASURE(1000.0),#355);
#219=FACE_BOUND('',#356,.T.);
#220=FACE_BOUND('',#357,.T.);
#221=CYLINDRICAL_SURFACE('',#358,10.0);
#222=CURVE_STYLE('',#359,POSITIVE_LENGTH_MEASURE(1000.0),#360);
#223=VERTEX_POINT('',#361);
#224=CIRCLE('',#362,8.2);
#225=SURFACE_STYLE_USAGE(.BOTH.,#363);
#226=CURVE_STYLE('',#364,POSITIVE_LENGTH_MEASURE(1000.0),#365);
#227=FACE_BOUND('',#366,.T.);
#228=FACE_OUTER_BOUND('',#367,.T.);
#229=PLANE('',#368);
#230=CURVE_STYLE('',#369,POSITIVE_LENGTH_MEASURE(1000.0),#370);
#231=VERTEX_POINT('',#371);
#232=CIRCLE('',#372,10.0);
#233=SURFACE_STYLE_USAGE(.BOTH.,#373);
#234=CURVE_STYLE('',#374,POSITIVE_LENGTH_MEASURE(1000.0),#375);
#235=FACE_BOUND('',#376,.T.);
#236=FACE_BOUND('',#377,.T.);
#237=CYLINDRICAL_SURFACE('',#378,10.0);
#238=SURFACE_STYLE_USAGE(.BOTH.,#379);
#239=CURVE_STYLE('',#380,POSITIVE_LENGTH_MEASURE(1000.0),#381);
#240=FACE_BOUND('',#382,.T.);
#241=FACE_BOUND('',#383,.T.);
#242=CYLINDRICAL_SURFACE('',#384,13.5);
#243=SURFACE_STYLE_USAGE(.BOTH.,#385);
#244=CURVE_STYLE('',#386,POSITIVE_LENGTH_MEASURE(1000.0),#387);
#245=FACE_BOUND('',#388,.T.);
#246=FACE_BOUND('',#389,.T.);
#247=CYLINDRICAL_SURFACE('',#390,10.0);
#248=PRODUCT_CONTEXT('',#38,'mechanical');
#249=PRODUCT_DEFINITION_FORMATION_WITH_SPECIFIED_SOURCE(' ','NONE',#122,.NOT_KNOWN.);
#250=CARTESIAN_POINT('',(0.0,0.0,0.0));
#251=DIRECTION('',(0.0,0.0,1.0));
#252=DIRECTION('',(1.0,0.0,0.0));
#253= (NAMED_UNIT(#130)LENGTH_UNIT()SI_UNIT(.MILLI.,.METRE.));
#254=DRAUGHTING_PRE_DEFINED_CURVE_FONT('continuous');
#255=COLOUR_RGB('',0.0,1.0,0.0);
#256=CARTESIAN_POINT('',(-1.34711147906209E-015,10.0,22.0));
#257=AXIS2_PLACEMENT_3D('',#392,#393,#394);
#258=SURFACE_SIDE_STYLE('',(#395));
#259=DRAUGHTING_PRE_DEFINED_CURVE_FONT('continuous');
#260=COLOUR_RGB('',0.0,1.0,0.0);
#261=SURFACE_SIDE_STYLE('',(#396));
#262=DRAUGHTING_PRE_DEFINED_CURVE_FONT('continuous');
#263=COLOUR_RGB('',0.0,1.0,0.0);
#264=EDGE_LOOP('',(#397));
#265=EDGE_LOOP('',(#398));
#266=AXIS2_PLACEMENT_3D('',#399,#400,#401);
#267=SURFACE_SIDE_STYLE('',(#402));
#268=DRAUGHTING_PRE_DEFINED_CURVE_FONT('continuous');
#269=COLOUR_RGB('',0.0,1.0,0.0);
#270=EDGE_LOOP('',(#403));
#271=EDGE_LOOP('',(#404));
#272=AXIS2_PLACEMENT_3D('',#405,#406,#407);
#273=DRAUGHTING_PRE_DEFINED_CURVE_FONT('continuous');
#274=COLOUR_RGB('',0.0,1.0,0.0);
#275=CARTESIAN_POINT('',(-1.24546579473286E-014,9.99999999999997,203.4));
#276=AXIS2_PLACEMENT_3D('',#408,#409,#410);
#277=SURFACE_SIDE_STYLE('',(#411));
#278=DRAUGHTING_PRE_DEFINED_CURVE_FONT('continuous');
#279=COLOUR_RGB('',0.0,1.0,0.0);
#280=EDGE_LOOP('',(#412));
#281=EDGE_LOOP('',(#413));
#282=AXIS2_PLACEMENT_3D('',#414,#415,#416);
#283=DRAUGHTING_PRE_DEFINED_CURVE_FONT('continuous');
#284=COLOUR_RGB('',0.0,1.0,0.0);
#285=CARTESIAN_POINT('',(-1.14750583067863E-015,10.0,18.74019238));
#286=AXIS2_PLACEMENT_3D('',#417,#418,#419);
#287=SURFACE_SIDE_STYLE('',(#420));
#288=DRAUGHTING_PRE_DEFINED_CURVE_FONT('continuous');
#289=COLOUR_RGB('',0.0,1.0,0.0);
#290=EDGE_LOOP('',(#421));
#291=EDGE_LOOP('',(#422));
#292=AXIS2_PLACEMENT_3D('',#423,#424,#425);
#293=DRAUGHTING_PRE_DEFINED_CURVE_FONT('continuous');
#294=COLOUR_RGB('',0.0,1.0,0.0);
#295=CARTESIAN_POINT('',(-1.28587913910472E-015,10.15,21.0));
#296=AXIS2_PLACEMENT_3D('',#426,#427,#428);
#297=DRAUGHTING_PRE_DEFINED_CURVE_FONT('continuous');
#298=COLOUR_RGB('',0.0,1.0,0.0);
#299=CARTESIAN_POINT('',(-9.64570158291008E-015,13.5,157.52626128));
#300=AXIS2_PLACEMENT_3D('',#429,#430,#431);
#301=DRAUGHTING_PRE_DEFINED_CURVE_FONT('continuous');
#302=COLOUR_RGB('',0.0,1.0,0.0);
#303=CARTESIAN_POINT('',(-9.33180860916528E-015,13.5,152.399999994487));
#304=AXIS2_PLACEMENT_3D('',#432,#433,#434);
#305=SURFACE_SIDE_STYLE('',(#435));
#306=DRAUGHTING_PRE_DEFINED_CURVE_FONT('continuous');
#307=COLOUR_RGB('',0.0,1.0,0.0);
#308=EDGE_LOOP('',(#436));
#309=EDGE_LOOP('',(#437));
#310=AXIS2_PLACEMENT_3D('',#438,#439,#440);
#311=SURFACE_SIDE_STYLE('',(#441));
#312=DRAUGHTING_PRE_DEFINED_CURVE_FONT('continuous');
#313=COLOUR_RGB('',0.0,1.0,0.0);
#314=EDGE_LOOP('',(#442));
#315=EDGE_LOOP('',(#443));
#316=AXIS2_PLACEMENT_3D('',#444,#445,#446);
#317=DRAUGHTING_PRE_DEFINED_CURVE_FONT('continuous');
#318=COLOUR_RGB('',0.0,1.0,0.0);
#319=CARTESIAN_POINT('',(-1.34711147906209E-015,8.19999999999999,22.0));
#320=AXIS2_PLACEMENT_3D('',#447,#448,#449);
#321=DRAUGHTING_PRE_DEFINED_CURVE_FONT('continuous');
#322=COLOUR_RGB('',0.0,1.0,0.0);
#323=CARTESIAN_POINT('',(-1.16341445918999E-015,10.15,19.0));
#324=AXIS2_PLACEMENT_3D('',#450,#451,#452);
#325=SURFACE_SIDE_STYLE('',(#453));
#326=DRAUGHTING_PRE_DEFINED_CURVE_FONT('continuous');
#327=COLOUR_RGB('',0.0,1.0,0.0);
#328=EDGE_LOOP('',(#454));
#329=EDGE_LOOP('',(#455));
#330=AXIS2_PLACEMENT_3D('',#456,#457,#458);
#331=SURFACE_SIDE_STYLE('',(#459));
#332=DRAUGHTING_PRE_DEFINED_CURVE_FONT('continuous');
#333=COLOUR_RGB('',0.0,1.0,0.0);
#334=EDGE_LOOP('',(#460));
#335=AXIS2_PLACEMENT_3D('',#461,#462,#463);
#336=DRAUGHTING_PRE_DEFINED_CURVE_FONT('continuous');
#337=COLOUR_RGB('',0.0,1.0,0.0);
#338=CARTESIAN_POINT('',(-9.72981881922572E-015,9.99999999999998,158.9));
#339=AXIS2_PLACEMENT_3D('',#464,#465,#466);
#340=DRAUGHTING_PRE_DEFINED_CURVE_FONT('continuous');
#341=COLOUR_RGB('',0.0,1.0,0.0);
#342=CARTESIAN_POINT('',(-9.72981881983804E-015,13.0,158.90000001));
#343=AXIS2_PLACEMENT_3D('',#467,#468,#469);
#344=DRAUGHTING_PRE_DEFINED_CURVE_FONT('continuous');
#345=COLOUR_RGB('',0.0,1.0,0.0);
#346=CARTESIAN_POINT('',(0.0,10.0,0.0));
#347=AXIS2_PLACEMENT_3D('',#470,#471,#472);
#348=SURFACE_SIDE_STYLE('',(#473));
#349=DRAUGHTING_PRE_DEFINED_CURVE_FONT('continuous');
#350=COLOUR_RGB('',0.0,1.0,0.0);
#351=EDGE_LOOP('',(#474));
#352=AXIS2_PLACEMENT_3D('',#475,#476,#477);
#353=SURFACE_SIDE_STYLE('',(#478));
#354=DRAUGHTING_PRE_DEFINED_CURVE_FONT('continuous');
#355=COLOUR_RGB('',0.0,1.0,0.0);
#356=EDGE_LOOP('',(#479));
#357=EDGE_LOOP('',(#480));
#358=AXIS2_PLACEMENT_3D('',#481,#482,#483);
#359=DRAUGHTING_PRE_DEFINED_CURVE_FONT('continuous');
#360=COLOUR_RGB('',0.0,1.0,0.0);
#361=CARTESIAN_POINT('',(-1.28587913910472E-015,8.19999999999999,21.0));
#362=AXIS2_PLACEMENT_3D('',#484,#485,#486);
#363=SURFACE_SIDE_STYLE('',(#487));
#364=DRAUGHTING_PRE_DEFINED_CURVE_FONT('continuous');
#365=COLOUR_RGB('',0.0,1.0,0.0);
#366=EDGE_LOOP('',(#488));
#367=EDGE_LOOP('',(#489));
#368=AXIS2_PLACEMENT_3D('',#490,#491,#492);
#369=DRAUGHTING_PRE_DEFINED_CURVE_FONT('continuous');
#370=COLOUR_RGB('',0.0,1.0,0.0);
#371=CARTESIAN_POINT('',(-9.22739833645969E-015,9.99999999999998,150.69485084));
#372=AXIS2_PLACEMENT_3D('',#493,#494,#495);
#373=SURFACE_SIDE_STYLE('',(#496));
#374=DRAUGHTING_PRE_DEFINED_CURVE_FONT('continuous');
#375=COLOUR_RGB('',0.0,1.0,0.0);
#376=EDGE_LOOP('',(#497));
#377=EDGE_LOOP('',(#498));
#378=AXIS2_PLACEMENT_3D('',#499,#500,#501);
#379=SURFACE_SIDE_STYLE('',(#502));
#380=DRAUGHTING_PRE_DEFINED_CURVE_FONT('continuous');
#381=COLOUR_RGB('',0.0,1.0,0.0);
#382=EDGE_LOOP('',(#503));
#383=EDGE_LOOP('',(#504));
#384=AXIS2_PLACEMENT_3D('',#505,#506,#507);
#385=SURFACE_SIDE_STYLE('',(#508));
#386=DRAUGHTING_PRE_DEFINED_CURVE_FONT('continuous');
#387=COLOUR_RGB('',0.0,1.0,0.0);
#388=EDGE_LOOP('',(#509));
#389=EDGE_LOOP('',(#510));
#390=AXIS2_PLACEMENT_3D('',#511,#512,#513);
#392=CARTESIAN_POINT('',(-1.34711147906209E-015,-2.69422295812418E-015,22.0));
#393=DIRECTION('',(6.12323399573677E-017,1.22464679914735E-016,-1.0));
#394=DIRECTION('',(-1.23259516440783E-032,1.0,1.22464679914735E-016));
#395=SURFACE_STYLE_FILL_AREA(#514);
#396=SURFACE_STYLE_FILL_AREA(#515);
#397=ORIENTED_EDGE('',*,*,#87,.F.);
#398=ORIENTED_EDGE('',*,*,#73,.T.);
#399=CARTESIAN_POINT('',(-1.22464679914735E-015,-2.44929359829471E-015,20.0));
#400=DIRECTION('',(6.12323399573677E-017,1.22464679914735E-016,-1.0));
#401=DIRECTION('',(-1.23259516440783E-032,1.0,1.22464679914735E-016));
#402=SURFACE_STYLE_FILL_AREA(#516);
#403=ORIENTED_EDGE('',*,*,#75,.F.);
#404=ORIENTED_EDGE('',*,*,#97,.T.);
#405=CARTESIAN_POINT('',(-9.68776020137406E-015,-1.93755204027481E-014,158.213130645));
#406=DIRECTION('',(6.12323399573677E-017,1.22464679914735E-016,-1.0));
#407=DIRECTION('',(-1.23259516440783E-032,1.0,1.22464679914735E-016));
#408=CARTESIAN_POINT('',(-1.24546579473286E-014,-2.49093158946572E-014,203.4));
#409=DIRECTION('',(6.12323399573677E-017,1.22464679914735E-016,-1.0));
#410=DIRECTION('',(-1.23259516440783E-032,1.0,1.22464679914735E-016));
#411=SURFACE_STYLE_FILL_AREA(#517);
#412=ORIENTED_EDGE('',*,*,#112,.F.);
#413=ORIENTED_EDGE('',*,*,#77,.T.);
#414=CARTESIAN_POINT('',(-9.27960347281249E-015,-1.8559206945625E-014,151.547425417244));
#415=DIRECTION('',(-6.12323399573677E-017,-1.22464679914735E-016,1.0));
#416=DIRECTION('',(-1.23259516440783E-032,1.0,1.22464679914735E-016));
#417=CARTESIAN_POINT('',(-1.14750583067863E-015,-2.29501166135726E-015,18.74019238));
#418=DIRECTION('',(6.12323399573677E-017,1.22464679914735E-016,-1.0));
#419=DIRECTION('',(-1.23259516440783E-032,1.0,1.22464679914735E-016));
#420=SURFACE_STYLE_FILL_AREA(#518);
#421=ORIENTED_EDGE('',*,*,#73,.F.);
#422=ORIENTED_EDGE('',*,*,#107,.T.);
#423=CARTESIAN_POINT('',(-1.28587913910472E-015,9.175,21.0));
#424=DIRECTION('',(-6.12323399573677E-017,-1.22464679914735E-016,1.0));
#425=DIRECTION('',(1.23259516440783E-032,-1.0,-1.22464679914735E-016));
#426=CARTESIAN_POINT('',(-1.28587913910472E-015,-2.57175827820944E-015,21.0));
#427=DIRECTION('',(6.12323399573677E-017,1.22464679914735E-016,-1.0));
#428=DIRECTION('',(-1.23259516440783E-032,1.0,1.22464679914735E-016));
#429=CARTESIAN_POINT('',(-9.64570158291008E-015,-1.92914031658202E-014,157.52626128));
#430=DIRECTION('',(6.12323399573677E-017,1.22464679914735E-016,-1.0));
#431=DIRECTION('',(-1.23259516440783E-032,1.0,1.22464679914735E-016));
#432=CARTESIAN_POINT('',(-9.33180860916528E-015,-1.86636172183306E-014,152.399999994487));
#433=DIRECTION('',(6.12323399573677E-017,1.22464679914735E-016,-1.0));
#434=DIRECTION('',(-1.23259516440783E-032,1.0,1.22464679914735E-016));
#435=SURFACE_STYLE_FILL_AREA(#519);
#436=ORIENTED_EDGE('',*,*,#107,.F.);
#437=ORIENTED_EDGE('',*,*,#85,.T.);
#438=CARTESIAN_POINT('',(-1.3164953090834E-015,-2.63299061816681E-015,21.5));
#439=DIRECTION('',(6.12323399573677E-017,1.22464679914735E-016,-1.0));
#440=DIRECTION('',(-1.23259516440783E-032,1.0,1.22464679914735E-016));
#441=SURFACE_STYLE_FILL_AREA(#520);
#442=ORIENTED_EDGE('',*,*,#68,.F.);
#443=ORIENTED_EDGE('',*,*,#87,.T.);
#444=CARTESIAN_POINT('',(-1.15546014493431E-015,-2.31092028986862E-015,18.87009619));
#445=DIRECTION('',(-6.12323399573677E-017,-1.22464679914735E-016,1.0));
#446=DIRECTION('',(-1.23259516440783E-032,1.0,1.22464679914735E-016));
#447=CARTESIAN_POINT('',(-1.34711147906209E-015,-2.69422295812418E-015,22.0));
#448=DIRECTION('',(6.12323399573677E-017,1.22464679914735E-016,-1.0));
#449=DIRECTION('',(-1.23259516440783E-032,1.0,1.22464679914735E-016));
#450=CARTESIAN_POINT('',(-1.16341445918999E-015,-2.32682891837997E-015,19.0));
#451=DIRECTION('',(6.12323399573677E-017,1.22464679914735E-016,-1.0));
#452=DIRECTION('',(-1.23259516440783E-032,1.0,1.22464679914735E-016));
#453=SURFACE_STYLE_FILL_AREA(#521);
#454=ORIENTED_EDGE('',*,*,#97,.F.);
#455=ORIENTED_EDGE('',*,*,#95,.T.);
#456=CARTESIAN_POINT('',(-9.72981881953188E-015,11.5,158.900000005));
#457=DIRECTION('',(-6.12323399573677E-017,-3.3333331394803E-009,1.0));
#458=DIRECTION('',(2.0410779281497E-025,-1.0,-3.3333331394803E-009));
#459=SURFACE_STYLE_FILL_AREA(#522);
#460=ORIENTED_EDGE('',*,*,#99,.T.);
#461=CARTESIAN_POINT('',(0.0,5.0,0.0));
#462=DIRECTION('',(6.12323399573677E-017,1.22464679914735E-016,-1.0));
#463=DIRECTION('',(-1.23259516440783E-032,1.0,1.22464679914735E-016));
#464=CARTESIAN_POINT('',(-9.72981881922572E-015,-1.94596376384514E-014,158.9));
#465=DIRECTION('',(6.12323399573677E-017,1.22464679914735E-016,-1.0));
#466=DIRECTION('',(-1.23259516440783E-032,1.0,1.22464679914735E-016));
#467=CARTESIAN_POINT('',(-9.72981881983805E-015,-1.94596376396761E-014,158.90000001));
#468=DIRECTION('',(6.12323399573677E-017,1.22464679914735E-016,-1.0));
#469=DIRECTION('',(-1.23259516440783E-032,1.0,1.22464679914735E-016));
#470=CARTESIAN_POINT('',(0.0,0.0,0.0));
#471=DIRECTION('',(6.12323399573677E-017,1.22464679914735E-016,-1.0));
#472=DIRECTION('',(-1.23259516440783E-032,1.0,1.22464679914735E-016));
#473=SURFACE_STYLE_FILL_AREA(#523);
#474=ORIENTED_EDGE('',*,*,#63,.F.);
#475=CARTESIAN_POINT('',(-1.24546579473286E-014,4.99999999999998,203.4));
#476=DIRECTION('',(-6.12323399573677E-017,-1.22464679914735E-016,1.0));
#477=DIRECTION('',(1.23259516440783E-032,-1.0,-1.22464679914735E-016));
#478=SURFACE_STYLE_FILL_AREA(#524);
#479=ORIENTED_EDGE('',*,*,#52,.F.);
#480=ORIENTED_EDGE('',*,*,#112,.T.);
#481=CARTESIAN_POINT('',(-5.28725490776089E-015,-1.05745098155218E-014,86.34742542));
#482=DIRECTION('',(6.12323399573677E-017,1.22464679914735E-016,-1.0));
#483=DIRECTION('',(-1.23259516440783E-032,1.0,1.22464679914735E-016));
#484=CARTESIAN_POINT('',(-1.28587913910472E-015,-2.57175827820944E-015,21.0));
#485=DIRECTION('',(6.12323399573677E-017,1.22464679914735E-016,-1.0));
#486=DIRECTION('',(-1.23259516440783E-032,1.0,1.22464679914735E-016));
#487=SURFACE_STYLE_FILL_AREA(#525);
#488=ORIENTED_EDGE('',*,*,#85,.F.);
#489=ORIENTED_EDGE('',*,*,#52,.T.);
#490=CARTESIAN_POINT('',(-1.34711147906209E-015,9.09999999999999,22.0));
#491=DIRECTION('',(6.12323399573677E-017,1.22464679914735E-016,-1.0));
#492=DIRECTION('',(-1.23259516440783E-032,1.0,1.22464679914735E-016));
#493=CARTESIAN_POINT('',(-9.22739833645969E-015,-1.84547966729194E-014,150.69485084));
#494=DIRECTION('',(6.12323399573677E-017,1.22464679914735E-016,-1.0));
#495=DIRECTION('',(-1.23259516440783E-032,1.0,1.22464679914735E-016));
#496=SURFACE_STYLE_FILL_AREA(#526);
#497=ORIENTED_EDGE('',*,*,#99,.F.);
#498=ORIENTED_EDGE('',*,*,#68,.T.);
#499=CARTESIAN_POINT('',(-5.73752915339316E-016,-1.14750583067863E-015,9.37009619));
#500=DIRECTION('',(6.12323399573677E-017,1.22464679914735E-016,-1.0));
#501=DIRECTION('',(-1.23259516440783E-032,1.0,1.22464679914735E-016));
#502=SURFACE_STYLE_FILL_AREA(#527);
#503=ORIENTED_EDGE('',*,*,#77,.F.);
#504=ORIENTED_EDGE('',*,*,#75,.T.);
#505=CARTESIAN_POINT('',(-9.48875509603768E-015,-1.89775101920754E-014,154.963130637244));
#506=DIRECTION('',(6.12323399573677E-017,1.22464679914735E-016,-1.0));
#507=DIRECTION('',(-1.23259516440783E-032,1.0,1.22464679914735E-016));
#508=SURFACE_STYLE_FILL_AREA(#528);
#509=ORIENTED_EDGE('',*,*,#95,.F.);
#510=ORIENTED_EDGE('',*,*,#63,.T.);
#511=CARTESIAN_POINT('',(-1.10922383832772E-014,-2.21844767665543E-014,181.15));
#512=DIRECTION('',(6.12323399573677E-017,1.22464679914735E-016,-1.0));
#513=DIRECTION('',(-1.23259516440783E-032,1.0,1.22464679914735E-016));
#514=FILL_AREA_STYLE('',(#529));
#515=FILL_AREA_STYLE('',(#530));
#516=FILL_AREA_STYLE('',(#531));
#517=FILL_AREA_STYLE('',(#532));
#518=FILL_AREA_STYLE('',(#533));
#519=FILL_AREA_STYLE('',(#534));
#520=FILL_AREA_STYLE('',(#535));
#521=FILL_AREA_STYLE('',(#536));
#522=FILL_AREA_STYLE('',(#537));
#523=FILL_AREA_STYLE('',(#538));
#524=FILL_AREA_STYLE('',(#539));
#525=FILL_AREA_STYLE('',(#540));
#526=FILL_AREA_STYLE('',(#541));
#527=FILL_AREA_STYLE('',(#542));
#528=FILL_AREA_STYLE('',(#543));
#529=FILL_AREA_STYLE_COLOUR('',#544);
#530=FILL_AREA_STYLE_COLOUR('',#545);
#531=FILL_AREA_STYLE_COLOUR('',#546);
#532=FILL_AREA_STYLE_COLOUR('',#547);
#533=FILL_AREA_STYLE_COLOUR('',#548);
#534=FILL_AREA_STYLE_COLOUR('',#549);
#535=FILL_AREA_STYLE_COLOUR('',#550);
#536=FILL_AREA_STYLE_COLOUR('',#551);
#537=FILL_AREA_STYLE_COLOUR('',#552);
#538=FILL_AREA_STYLE_COLOUR('',#553);
#539=FILL_AREA_STYLE_COLOUR('',#554);
#540=FILL_AREA_STYLE_COLOUR('',#555);
#541=FILL_AREA_STYLE_COLOUR('',#556);
#542=FILL_AREA_STYLE_COLOUR('',#557);
#543=FILL_AREA_STYLE_COLOUR('',#558);
#544=COLOUR_RGB('',0.0,1.0,0.0);
#545=COLOUR_RGB('',0.0,1.0,0.0);
#546=COLOUR_RGB('',0.0,1.0,0.0);
#547=COLOUR_RGB('',0.0,1.0,0.0);
#548=COLOUR_RGB('',0.0,1.0,0.0);
#549=COLOUR_RGB('',0.0,1.0,0.0);
#550=COLOUR_RGB('',0.0,1.0,0.0);
#551=COLOUR_RGB('',0.0,1.0,0.0);
#552=COLOUR_RGB('',0.0,1.0,0.0);
#553=COLOUR_RGB('',0.0,1.0,0.0);
#554=COLOUR_RGB('',0.0,1.0,0.0);
#555=COLOUR_RGB('',0.0,1.0,0.0);
#556=COLOUR_RGB('',0.0,1.0,0.0);
#557=COLOUR_RGB('',0.0,1.0,0.0);
#558=COLOUR_RGB('',0.0,1.0,0.0);
ENDSEC;
END-ISO-10303-21;
