ISO-10303-21;
HEADER;
FILE_DESCRIPTION((''),'1');
FILE_NAME('V:/90_\X2\53D65F9730C730FC30BF\X0\/00_\X2\6DE18DEF30C730FC30BF\X0\/ALL/MGT/MGT12-AU7_16-4.stp','2017-10-13T05:01:36',(''),(''),'Spatial Interop R21 SP3','Kubotek KeyCreator 2011 V10.0.2 (22737)',' ');
FILE_SCHEMA(('automotive_design'));
ENDSEC;
DATA;
#1=MECHANICAL_DESIGN_GEOMETRIC_PRESENTATION_REPRESENTATION(' ',(#10,#11,#12,#13,#14,#15,#16,#17,#18,#19,#20,#21,#22,#23,#24,#25,#26,#27,#28,#29,#30,#31,#32,#33,#34,#35,#36,#37),#6);
#2=PRODUCT_DEFINITION_CONTEXT('',#38,'design');
#3=APPLICATION_PROTOCOL_DEFINITION('INTERNATIONAL STANDARD','automotive_design',1994,#38);
#4=PRODUCT_CATEGORY_RELATIONSHIP('NONE','NONE',#39,#40);
#5=SHAPE_DEFINITION_REPRESENTATION(#41,#42);
#6= (GEOMETRIC_REPRESENTATION_CONTEXT(3)GLOBAL_UNCERTAINTY_ASSIGNED_CONTEXT((#45))GLOBAL_UNIT_ASSIGNED_CONTEXT((#47,#48,#49))REPRESENTATION_CONTEXT('NONE','WORKSPACE'));
#10=STYLED_ITEM('',(#51,#52),#53);
#11=STYLED_ITEM('',(#54,#55),#56);
#12=STYLED_ITEM('',(#57,#58),#59);
#13=STYLED_ITEM('',(#60,#61),#62);
#14=STYLED_ITEM('',(#63,#64),#65);
#15=STYLED_ITEM('',(#66),#67);
#16=STYLED_ITEM('',(#68,#69),#70);
#17=STYLED_ITEM('',(#71,#72),#73);
#18=STYLED_ITEM('',(#74),#75);
#19=STYLED_ITEM('',(#76,#77),#78);
#20=STYLED_ITEM('',(#79),#80);
#21=STYLED_ITEM('',(#81,#82),#83);
#22=STYLED_ITEM('',(#84,#85),#86);
#23=STYLED_ITEM('',(#87),#88);
#24=STYLED_ITEM('',(#89),#90);
#25=STYLED_ITEM('',(#91),#92);
#26=STYLED_ITEM('',(#93),#94);
#27=STYLED_ITEM('',(#95),#96);
#28=STYLED_ITEM('',(#97),#98);
#29=STYLED_ITEM('',(#99,#100),#101);
#30=STYLED_ITEM('',(#102,#103),#104);
#31=STYLED_ITEM('',(#105,#106),#107);
#32=STYLED_ITEM('',(#108),#109);
#33=STYLED_ITEM('',(#110),#111);
#34=STYLED_ITEM('',(#112),#113);
#35=STYLED_ITEM('',(#114,#115),#116);
#36=STYLED_ITEM('',(#117,#118),#119);
#37=STYLED_ITEM('',(#120),#121);
#38=APPLICATION_CONTEXT(' ');
#39=PRODUCT_CATEGORY('part','NONE');
#40=PRODUCT_RELATED_PRODUCT_CATEGORY('detail',' ',(#122));
#41=PRODUCT_DEFINITION_SHAPE('NONE','NONE',#123);
#42=ADVANCED_BREP_SHAPE_REPRESENTATION('Unnamed[1]',(#59,#124),#6);
#45=UNCERTAINTY_MEASURE_WITH_UNIT(LENGTH_MEASURE(1.0E-006),#47,'','');
#47= (CONVERSION_BASED_UNIT('MILLIMETRE',#127)LENGTH_UNIT()NAMED_UNIT(#130));
#48= (NAMED_UNIT(#132)PLANE_ANGLE_UNIT()SI_UNIT($,.RADIAN.));
#49= (NAMED_UNIT(#132)SOLID_ANGLE_UNIT()SI_UNIT($,.STERADIAN.));
#51=PRESENTATION_STYLE_ASSIGNMENT((#138));
#52=PRESENTATION_STYLE_ASSIGNMENT((#139));
#53=ADVANCED_FACE('Unnamed[1]',(#140,#141),#142,.T.);
#54=PRESENTATION_STYLE_ASSIGNMENT((#143));
#55=PRESENTATION_STYLE_ASSIGNMENT((#144));
#56=ADVANCED_FACE('Unnamed[1]',(#145,#146),#147,.T.);
#57=PRESENTATION_STYLE_ASSIGNMENT((#148));
#58=PRESENTATION_STYLE_ASSIGNMENT((#149));
#59=MANIFOLD_SOLID_BREP('Unnamed[1]',#150);
#60=PRESENTATION_STYLE_ASSIGNMENT((#151));
#61=PRESENTATION_STYLE_ASSIGNMENT((#152));
#62=ADVANCED_FACE('Unnamed[1]',(#153),#154,.T.);
#63=PRESENTATION_STYLE_ASSIGNMENT((#155));
#64=PRESENTATION_STYLE_ASSIGNMENT((#156));
#65=ADVANCED_FACE('Unnamed[1]',(#157,#158),#159,.T.);
#66=PRESENTATION_STYLE_ASSIGNMENT((#160));
#67=EDGE_CURVE('Unnamed[1]',#161,#161,#162,.T.);
#68=PRESENTATION_STYLE_ASSIGNMENT((#163));
#69=PRESENTATION_STYLE_ASSIGNMENT((#164));
#70=ADVANCED_FACE('Unnamed[1]',(#165,#166),#167,.T.);
#71=PRESENTATION_STYLE_ASSIGNMENT((#168));
#72=PRESENTATION_STYLE_ASSIGNMENT((#169));
#73=ADVANCED_FACE('Unnamed[1]',(#170,#171),#172,.T.);
#74=PRESENTATION_STYLE_ASSIGNMENT((#173));
#75=EDGE_CURVE('Unnamed[1]',#174,#174,#175,.T.);
#76=PRESENTATION_STYLE_ASSIGNMENT((#176));
#77=PRESENTATION_STYLE_ASSIGNMENT((#177));
#78=ADVANCED_FACE('Unnamed[1]',(#178,#179),#180,.T.);
#79=PRESENTATION_STYLE_ASSIGNMENT((#181));
#80=EDGE_CURVE('Unnamed[1]',#182,#182,#183,.T.);
#81=PRESENTATION_STYLE_ASSIGNMENT((#184));
#82=PRESENTATION_STYLE_ASSIGNMENT((#185));
#83=ADVANCED_FACE('Unnamed[1]',(#186),#187,.T.);
#84=PRESENTATION_STYLE_ASSIGNMENT((#188));
#85=PRESENTATION_STYLE_ASSIGNMENT((#189));
#86=ADVANCED_FACE('Unnamed[1]',(#190,#191),#192,.T.);
#87=PRESENTATION_STYLE_ASSIGNMENT((#193));
#88=EDGE_CURVE('Unnamed[1]',#194,#194,#195,.T.);
#89=PRESENTATION_STYLE_ASSIGNMENT((#196));
#90=EDGE_CURVE('Unnamed[1]',#197,#197,#198,.T.);
#91=PRESENTATION_STYLE_ASSIGNMENT((#199));
#92=EDGE_CURVE('Unnamed[1]',#200,#200,#201,.T.);
#93=PRESENTATION_STYLE_ASSIGNMENT((#202));
#94=EDGE_CURVE('Unnamed[1]',#203,#203,#204,.T.);
#95=PRESENTATION_STYLE_ASSIGNMENT((#205));
#96=EDGE_CURVE('Unnamed[1]',#206,#206,#207,.T.);
#97=PRESENTATION_STYLE_ASSIGNMENT((#208));
#98=EDGE_CURVE('Unnamed[1]',#209,#209,#210,.T.);
#99=PRESENTATION_STYLE_ASSIGNMENT((#211));
#100=PRESENTATION_STYLE_ASSIGNMENT((#212));
#101=ADVANCED_FACE('Unnamed[1]',(#213,#214),#215,.T.);
#102=PRESENTATION_STYLE_ASSIGNMENT((#216));
#103=PRESENTATION_STYLE_ASSIGNMENT((#217));
#104=ADVANCED_FACE('Unnamed[1]',(#218,#219),#220,.T.);
#105=PRESENTATION_STYLE_ASSIGNMENT((#221));
#106=PRESENTATION_STYLE_ASSIGNMENT((#222));
#107=ADVANCED_FACE('Unnamed[1]',(#223,#224),#225,.T.);
#108=PRESENTATION_STYLE_ASSIGNMENT((#226));
#109=EDGE_CURVE('Unnamed[1]',#227,#227,#228,.T.);
#110=PRESENTATION_STYLE_ASSIGNMENT((#229));
#111=EDGE_CURVE('Unnamed[1]',#230,#230,#231,.T.);
#112=PRESENTATION_STYLE_ASSIGNMENT((#232));
#113=EDGE_CURVE('Unnamed[1]',#233,#233,#234,.T.);
#114=PRESENTATION_STYLE_ASSIGNMENT((#235));
#115=PRESENTATION_STYLE_ASSIGNMENT((#236));
#116=ADVANCED_FACE('Unnamed[1]',(#237,#238),#239,.T.);
#117=PRESENTATION_STYLE_ASSIGNMENT((#240));
#118=PRESENTATION_STYLE_ASSIGNMENT((#241));
#119=ADVANCED_FACE('Unnamed[1]',(#242,#243),#244,.T.);
#120=PRESENTATION_STYLE_ASSIGNMENT((#245));
#121=EDGE_CURVE('Unnamed[1]',#246,#246,#247,.T.);
#122=PRODUCT('Unnamed[1]','Unnamed[1]','PART-Unnamed[1]-DESC',(#248));
#123=PRODUCT_DEFINITION('NONE','NONE',#249,#2);
#124=AXIS2_PLACEMENT_3D('',#250,#251,#252);
#127=LENGTH_MEASURE_WITH_UNIT(LENGTH_MEASURE(1.0),#253);
#130=DIMENSIONAL_EXPONENTS(1.0,0.0,0.0,0.0,0.0,0.0,0.0);
#132=DIMENSIONAL_EXPONENTS(0.0,0.0,0.0,0.0,0.0,0.0,0.0);
#138=SURFACE_STYLE_USAGE(.BOTH.,#254);
#139=CURVE_STYLE('',#255,POSITIVE_LENGTH_MEASURE(1000.0),#256);
#140=FACE_OUTER_BOUND('',#257,.T.);
#141=FACE_BOUND('',#258,.T.);
#142=PLANE('',#259);
#143=SURFACE_STYLE_USAGE(.BOTH.,#260);
#144=CURVE_STYLE('',#261,POSITIVE_LENGTH_MEASURE(1000.0),#262);
#145=FACE_BOUND('',#263,.T.);
#146=FACE_BOUND('',#264,.T.);
#147=CYLINDRICAL_SURFACE('',#265,10.15);
#148=SURFACE_STYLE_USAGE(.BOTH.,#266);
#149=CURVE_STYLE('',#267,POSITIVE_LENGTH_MEASURE(1000.0),#268);
#150=CLOSED_SHELL('',(#83,#116,#53,#86,#119,#70,#78,#101,#73,#65,#56,#104,#107,#62));
#151=SURFACE_STYLE_USAGE(.BOTH.,#269);
#152=CURVE_STYLE('',#270,POSITIVE_LENGTH_MEASURE(1000.0),#271);
#153=FACE_OUTER_BOUND('',#272,.T.);
#154=PLANE('',#273);
#155=SURFACE_STYLE_USAGE(.BOTH.,#274);
#156=CURVE_STYLE('',#275,POSITIVE_LENGTH_MEASURE(1000.0),#276);
#157=FACE_OUTER_BOUND('',#277,.T.);
#158=FACE_BOUND('',#278,.T.);
#159=PLANE('',#279);
#160=CURVE_STYLE('',#280,POSITIVE_LENGTH_MEASURE(1000.0),#281);
#161=VERTEX_POINT('',#282);
#162=CIRCLE('',#283,10.0);
#163=SURFACE_STYLE_USAGE(.BOTH.,#284);
#164=CURVE_STYLE('',#285,POSITIVE_LENGTH_MEASURE(1000.0),#286);
#165=FACE_BOUND('',#287,.T.);
#166=FACE_BOUND('',#288,.T.);
#167=CONICAL_SURFACE('',#289,11.75,1.11745279354845);
#168=SURFACE_STYLE_USAGE(.BOTH.,#290);
#169=CURVE_STYLE('',#291,POSITIVE_LENGTH_MEASURE(1000.0),#292);
#170=FACE_BOUND('',#293,.T.);
#171=FACE_BOUND('',#294,.T.);
#172=CYLINDRICAL_SURFACE('',#295,8.2);
#173=CURVE_STYLE('',#296,POSITIVE_LENGTH_MEASURE(1000.0),#297);
#174=VERTEX_POINT('',#298);
#175=CIRCLE('',#299,10.0);
#176=SURFACE_STYLE_USAGE(.BOTH.,#300);
#177=CURVE_STYLE('',#301,POSITIVE_LENGTH_MEASURE(1000.0),#302);
#178=FACE_BOUND('',#303,.T.);
#179=FACE_BOUND('',#304,.T.);
#180=CYLINDRICAL_SURFACE('',#305,10.0);
#181=CURVE_STYLE('',#306,POSITIVE_LENGTH_MEASURE(1000.0),#307);
#182=VERTEX_POINT('',#308);
#183=CIRCLE('',#309,13.5);
#184=SURFACE_STYLE_USAGE(.BOTH.,#310);
#185=CURVE_STYLE('',#311,POSITIVE_LENGTH_MEASURE(1000.0),#312);
#186=FACE_OUTER_BOUND('',#313,.T.);
#187=PLANE('',#314);
#188=SURFACE_STYLE_USAGE(.BOTH.,#315);
#189=CURVE_STYLE('',#316,POSITIVE_LENGTH_MEASURE(1000.0),#317);
#190=FACE_BOUND('',#318,.T.);
#191=FACE_BOUND('',#319,.T.);
#192=CONICAL_SURFACE('',#320,13.25,0.349065845655957);
#193=CURVE_STYLE('',#321,POSITIVE_LENGTH_MEASURE(1000.0),#322);
#194=VERTEX_POINT('',#323);
#195=CIRCLE('',#324,13.0);
#196=CURVE_STYLE('',#325,POSITIVE_LENGTH_MEASURE(1000.0),#326);
#197=VERTEX_POINT('',#327);
#198=CIRCLE('',#328,8.2);
#199=CURVE_STYLE('',#329,POSITIVE_LENGTH_MEASURE(1000.0),#330);
#200=VERTEX_POINT('',#331);
#201=CIRCLE('',#332,10.15);
#202=CURVE_STYLE('',#333,POSITIVE_LENGTH_MEASURE(1000.0),#334);
#203=VERTEX_POINT('',#335);
#204=CIRCLE('',#336,10.0);
#205=CURVE_STYLE('',#337,POSITIVE_LENGTH_MEASURE(1000.0),#338);
#206=VERTEX_POINT('',#339);
#207=CIRCLE('',#340,8.2);
#208=CURVE_STYLE('',#341,POSITIVE_LENGTH_MEASURE(1000.0),#342);
#209=VERTEX_POINT('',#343);
#210=CIRCLE('',#344,13.5);
#211=SURFACE_STYLE_USAGE(.BOTH.,#345);
#212=CURVE_STYLE('',#346,POSITIVE_LENGTH_MEASURE(1000.0),#347);
#213=FACE_BOUND('',#348,.T.);
#214=FACE_OUTER_BOUND('',#349,.T.);
#215=PLANE('',#350);
#216=SURFACE_STYLE_USAGE(.BOTH.,#351);
#217=CURVE_STYLE('',#352,POSITIVE_LENGTH_MEASURE(1000.0),#353);
#218=FACE_BOUND('',#354,.T.);
#219=FACE_BOUND('',#355,.T.);
#220=CONICAL_SURFACE('',#356,10.075,0.523598777490537);
#221=SURFACE_STYLE_USAGE(.BOTH.,#357);
#222=CURVE_STYLE('',#358,POSITIVE_LENGTH_MEASURE(1000.0),#359);
#223=FACE_BOUND('',#360,.T.);
#224=FACE_BOUND('',#361,.T.);
#225=CYLINDRICAL_SURFACE('',#362,10.0);
#226=CURVE_STYLE('',#363,POSITIVE_LENGTH_MEASURE(1000.0),#364);
#227=VERTEX_POINT('',#365);
#228=CIRCLE('',#366,10.0);
#229=CURVE_STYLE('',#367,POSITIVE_LENGTH_MEASURE(1000.0),#368);
#230=VERTEX_POINT('',#369);
#231=CIRCLE('',#370,10.15);
#232=CURVE_STYLE('',#371,POSITIVE_LENGTH_MEASURE(1000.0),#372);
#233=VERTEX_POINT('',#373);
#234=CIRCLE('',#374,10.0);
#235=SURFACE_STYLE_USAGE(.BOTH.,#375);
#236=CURVE_STYLE('',#376,POSITIVE_LENGTH_MEASURE(1000.0),#377);
#237=FACE_BOUND('',#378,.T.);
#238=FACE_BOUND('',#379,.T.);
#239=CYLINDRICAL_SURFACE('',#380,10.0);
#240=SURFACE_STYLE_USAGE(.BOTH.,#381);
#241=CURVE_STYLE('',#382,POSITIVE_LENGTH_MEASURE(1000.0),#383);
#242=FACE_BOUND('',#384,.T.);
#243=FACE_BOUND('',#385,.T.);
#244=CYLINDRICAL_SURFACE('',#386,13.5);
#245=CURVE_STYLE('',#387,POSITIVE_LENGTH_MEASURE(1000.0),#388);
#246=VERTEX_POINT('',#389);
#247=CIRCLE('',#390,10.0);
#248=PRODUCT_CONTEXT('',#38,'mechanical');
#249=PRODUCT_DEFINITION_FORMATION_WITH_SPECIFIED_SOURCE(' ','NONE',#122,.NOT_KNOWN.);
#250=CARTESIAN_POINT('',(0.0,0.0,0.0));
#251=DIRECTION('',(0.0,0.0,1.0));
#252=DIRECTION('',(1.0,0.0,0.0));
#253= (NAMED_UNIT(#130)LENGTH_UNIT()SI_UNIT(.MILLI.,.METRE.));
#254=SURFACE_SIDE_STYLE('',(#392));
#255=DRAUGHTING_PRE_DEFINED_CURVE_FONT('continuous');
#256=COLOUR_RGB('',0.0,1.0,0.0);
#257=EDGE_LOOP('',(#393));
#258=EDGE_LOOP('',(#394));
#259=AXIS2_PLACEMENT_3D('',#395,#396,#397);
#260=SURFACE_SIDE_STYLE('',(#398));
#261=DRAUGHTING_PRE_DEFINED_CURVE_FONT('continuous');
#262=COLOUR_RGB('',0.0,1.0,0.0);
#263=EDGE_LOOP('',(#399));
#264=EDGE_LOOP('',(#400));
#265=AXIS2_PLACEMENT_3D('',#401,#402,#403);
#266=SURFACE_SIDE_STYLE('',(#404));
#267=DRAUGHTING_PRE_DEFINED_CURVE_FONT('continuous');
#268=COLOUR_RGB('',0.0,1.0,0.0);
#269=SURFACE_SIDE_STYLE('',(#405));
#270=DRAUGHTING_PRE_DEFINED_CURVE_FONT('continuous');
#271=COLOUR_RGB('',0.0,1.0,0.0);
#272=EDGE_LOOP('',(#406));
#273=AXIS2_PLACEMENT_3D('',#407,#408,#409);
#274=SURFACE_SIDE_STYLE('',(#410));
#275=DRAUGHTING_PRE_DEFINED_CURVE_FONT('continuous');
#276=COLOUR_RGB('',0.0,1.0,0.0);
#277=EDGE_LOOP('',(#411));
#278=EDGE_LOOP('',(#412));
#279=AXIS2_PLACEMENT_3D('',#413,#414,#415);
#280=DRAUGHTING_PRE_DEFINED_CURVE_FONT('continuous');
#281=COLOUR_RGB('',0.0,1.0,0.0);
#282=CARTESIAN_POINT('',(0.0,10.0,0.0));
#283=AXIS2_PLACEMENT_3D('',#416,#417,#418);
#284=SURFACE_SIDE_STYLE('',(#419));
#285=DRAUGHTING_PRE_DEFINED_CURVE_FONT('continuous');
#286=COLOUR_RGB('',0.0,1.0,0.0);
#287=EDGE_LOOP('',(#420));
#288=EDGE_LOOP('',(#421));
#289=AXIS2_PLACEMENT_3D('',#422,#423,#424);
#290=SURFACE_SIDE_STYLE('',(#425));
#291=DRAUGHTING_PRE_DEFINED_CURVE_FONT('continuous');
#292=COLOUR_RGB('',0.0,1.0,0.0);
#293=EDGE_LOOP('',(#426));
#294=EDGE_LOOP('',(#427));
#295=AXIS2_PLACEMENT_3D('',#428,#429,#430);
#296=DRAUGHTING_PRE_DEFINED_CURVE_FONT('continuous');
#297=COLOUR_RGB('',0.0,1.0,0.0);
#298=CARTESIAN_POINT('',(-1.34711147906209E-015,10.0,22.0));
#299=AXIS2_PLACEMENT_3D('',#431,#432,#433);
#300=SURFACE_SIDE_STYLE('',(#434));
#301=DRAUGHTING_PRE_DEFINED_CURVE_FONT('continuous');
#302=COLOUR_RGB('',0.0,1.0,0.0);
#303=EDGE_LOOP('',(#435));
#304=EDGE_LOOP('',(#436));
#305=AXIS2_PLACEMENT_3D('',#437,#438,#439);
#306=DRAUGHTING_PRE_DEFINED_CURVE_FONT('continuous');
#307=COLOUR_RGB('',0.0,1.0,0.0);
#308=CARTESIAN_POINT('',(-6.22120573933101E-015,13.5,101.599999994487));
#309=AXIS2_PLACEMENT_3D('',#440,#441,#442);
#310=SURFACE_SIDE_STYLE('',(#443));
#311=DRAUGHTING_PRE_DEFINED_CURVE_FONT('continuous');
#312=COLOUR_RGB('',0.0,1.0,0.0);
#313=EDGE_LOOP('',(#444));
#314=AXIS2_PLACEMENT_3D('',#445,#446,#447);
#315=SURFACE_SIDE_STYLE('',(#448));
#316=DRAUGHTING_PRE_DEFINED_CURVE_FONT('continuous');
#317=COLOUR_RGB('',0.0,1.0,0.0);
#318=EDGE_LOOP('',(#449));
#319=EDGE_LOOP('',(#450));
#320=AXIS2_PLACEMENT_3D('',#451,#452,#453);
#321=DRAUGHTING_PRE_DEFINED_CURVE_FONT('continuous');
#322=COLOUR_RGB('',0.0,1.0,0.0);
#323=CARTESIAN_POINT('',(-6.61921595000377E-015,13.0,108.10000001));
#324=AXIS2_PLACEMENT_3D('',#454,#455,#456);
#325=DRAUGHTING_PRE_DEFINED_CURVE_FONT('continuous');
#326=COLOUR_RGB('',0.0,1.0,0.0);
#327=CARTESIAN_POINT('',(-1.28587913910472E-015,8.2,21.0));
#328=AXIS2_PLACEMENT_3D('',#457,#458,#459);
#329=DRAUGHTING_PRE_DEFINED_CURVE_FONT('continuous');
#330=COLOUR_RGB('',0.0,1.0,0.0);
#331=CARTESIAN_POINT('',(-1.16341445918999E-015,10.15,19.0));
#332=AXIS2_PLACEMENT_3D('',#460,#461,#462);
#333=DRAUGHTING_PRE_DEFINED_CURVE_FONT('continuous');
#334=COLOUR_RGB('',0.0,1.0,0.0);
#335=CARTESIAN_POINT('',(-6.11679546662541E-015,9.99999999999999,99.89485084));
#336=AXIS2_PLACEMENT_3D('',#463,#464,#465);
#337=DRAUGHTING_PRE_DEFINED_CURVE_FONT('continuous');
#338=COLOUR_RGB('',0.0,1.0,0.0);
#339=CARTESIAN_POINT('',(-1.34711147906209E-015,8.19999999999999,22.0));
#340=AXIS2_PLACEMENT_3D('',#466,#467,#468);
#341=DRAUGHTING_PRE_DEFINED_CURVE_FONT('continuous');
#342=COLOUR_RGB('',0.0,1.0,0.0);
#343=CARTESIAN_POINT('',(-6.5350987130758E-015,13.5,106.72626128));
#344=AXIS2_PLACEMENT_3D('',#469,#470,#471);
#345=SURFACE_SIDE_STYLE('',(#472));
#346=DRAUGHTING_PRE_DEFINED_CURVE_FONT('continuous');
#347=COLOUR_RGB('',0.0,1.0,0.0);
#348=EDGE_LOOP('',(#473));
#349=EDGE_LOOP('',(#474));
#350=AXIS2_PLACEMENT_3D('',#475,#476,#477);
#351=SURFACE_SIDE_STYLE('',(#478));
#352=DRAUGHTING_PRE_DEFINED_CURVE_FONT('continuous');
#353=COLOUR_RGB('',0.0,1.0,0.0);
#354=EDGE_LOOP('',(#479));
#355=EDGE_LOOP('',(#480));
#356=AXIS2_PLACEMENT_3D('',#481,#482,#483);
#357=SURFACE_SIDE_STYLE('',(#484));
#358=DRAUGHTING_PRE_DEFINED_CURVE_FONT('continuous');
#359=COLOUR_RGB('',0.0,1.0,0.0);
#360=EDGE_LOOP('',(#485));
#361=EDGE_LOOP('',(#486));
#362=AXIS2_PLACEMENT_3D('',#487,#488,#489);
#363=DRAUGHTING_PRE_DEFINED_CURVE_FONT('continuous');
#364=COLOUR_RGB('',0.0,1.0,0.0);
#365=CARTESIAN_POINT('',(-9.3440550774943E-015,9.99999999999998,152.6));
#366=AXIS2_PLACEMENT_3D('',#490,#491,#492);
#367=DRAUGHTING_PRE_DEFINED_CURVE_FONT('continuous');
#368=COLOUR_RGB('',0.0,1.0,0.0);
#369=CARTESIAN_POINT('',(-1.28587913910472E-015,10.15,21.0));
#370=AXIS2_PLACEMENT_3D('',#493,#494,#495);
#371=DRAUGHTING_PRE_DEFINED_CURVE_FONT('continuous');
#372=COLOUR_RGB('',0.0,1.0,0.0);
#373=CARTESIAN_POINT('',(-1.14750583067863E-015,10.0,18.74019238));
#374=AXIS2_PLACEMENT_3D('',#496,#497,#498);
#375=SURFACE_SIDE_STYLE('',(#499));
#376=DRAUGHTING_PRE_DEFINED_CURVE_FONT('continuous');
#377=COLOUR_RGB('',0.0,1.0,0.0);
#378=EDGE_LOOP('',(#500));
#379=EDGE_LOOP('',(#501));
#380=AXIS2_PLACEMENT_3D('',#502,#503,#504);
#381=SURFACE_SIDE_STYLE('',(#505));
#382=DRAUGHTING_PRE_DEFINED_CURVE_FONT('continuous');
#383=COLOUR_RGB('',0.0,1.0,0.0);
#384=EDGE_LOOP('',(#506));
#385=EDGE_LOOP('',(#507));
#386=AXIS2_PLACEMENT_3D('',#508,#509,#510);
#387=DRAUGHTING_PRE_DEFINED_CURVE_FONT('continuous');
#388=COLOUR_RGB('',0.0,1.0,0.0);
#389=CARTESIAN_POINT('',(-6.61921594939144E-015,9.99999999999999,108.1));
#390=AXIS2_PLACEMENT_3D('',#511,#512,#513);
#392=SURFACE_STYLE_FILL_AREA(#514);
#393=ORIENTED_EDGE('',*,*,#88,.F.);
#394=ORIENTED_EDGE('',*,*,#121,.T.);
#395=CARTESIAN_POINT('',(-6.61921594969761E-015,11.5,108.100000005));
#396=DIRECTION('',(-6.12323399573677E-017,-3.3333331394803E-009,1.0));
#397=DIRECTION('',(2.0410779281497E-025,-1.0,-3.3333331394803E-009));
#398=SURFACE_STYLE_FILL_AREA(#515);
#399=ORIENTED_EDGE('',*,*,#92,.F.);
#400=ORIENTED_EDGE('',*,*,#111,.T.);
#401=CARTESIAN_POINT('',(-1.22464679914735E-015,-2.44929359829471E-015,20.0));
#402=DIRECTION('',(6.12323399573677E-017,1.22464679914735E-016,-1.0));
#403=DIRECTION('',(-1.23259516440783E-032,1.0,1.22464679914735E-016));
#404=SURFACE_STYLE_FILL_AREA(#516);
#405=SURFACE_STYLE_FILL_AREA(#517);
#406=ORIENTED_EDGE('',*,*,#67,.T.);
#407=CARTESIAN_POINT('',(0.0,5.0,0.0));
#408=DIRECTION('',(6.12323399573677E-017,1.22464679914735E-016,-1.0));
#409=DIRECTION('',(-1.23259516440783E-032,1.0,1.22464679914735E-016));
#410=SURFACE_STYLE_FILL_AREA(#518);
#411=ORIENTED_EDGE('',*,*,#111,.F.);
#412=ORIENTED_EDGE('',*,*,#90,.T.);
#413=CARTESIAN_POINT('',(-1.28587913910472E-015,9.175,21.0));
#414=DIRECTION('',(-6.12323399573677E-017,-1.22464679914735E-016,1.0));
#415=DIRECTION('',(1.23259516440783E-032,-1.0,-1.22464679914735E-016));
#416=CARTESIAN_POINT('',(0.0,0.0,0.0));
#417=DIRECTION('',(6.12323399573677E-017,1.22464679914735E-016,-1.0));
#418=DIRECTION('',(-1.23259516440783E-032,1.0,1.22464679914735E-016));
#419=SURFACE_STYLE_FILL_AREA(#519);
#420=ORIENTED_EDGE('',*,*,#94,.F.);
#421=ORIENTED_EDGE('',*,*,#80,.T.);
#422=CARTESIAN_POINT('',(-6.16900060297821E-015,-1.23380012059564E-014,100.747425417244));
#423=DIRECTION('',(-6.12323399573677E-017,-1.22464679914735E-016,1.0));
#424=DIRECTION('',(-1.23259516440783E-032,1.0,1.22464679914735E-016));
#425=SURFACE_STYLE_FILL_AREA(#520);
#426=ORIENTED_EDGE('',*,*,#90,.F.);
#427=ORIENTED_EDGE('',*,*,#96,.T.);
#428=CARTESIAN_POINT('',(-1.3164953090834E-015,-2.63299061816681E-015,21.5));
#429=DIRECTION('',(6.12323399573677E-017,1.22464679914735E-016,-1.0));
#430=DIRECTION('',(-1.23259516440783E-032,1.0,1.22464679914735E-016));
#431=CARTESIAN_POINT('',(-1.34711147906209E-015,-2.69422295812418E-015,22.0));
#432=DIRECTION('',(6.12323399573677E-017,1.22464679914735E-016,-1.0));
#433=DIRECTION('',(-1.23259516440783E-032,1.0,1.22464679914735E-016));
#434=SURFACE_STYLE_FILL_AREA(#521);
#435=ORIENTED_EDGE('',*,*,#75,.F.);
#436=ORIENTED_EDGE('',*,*,#94,.T.);
#437=CARTESIAN_POINT('',(-3.73195347284375E-015,-7.4639069456875E-015,60.94742542));
#438=DIRECTION('',(6.12323399573677E-017,1.22464679914735E-016,-1.0));
#439=DIRECTION('',(-1.23259516440783E-032,1.0,1.22464679914735E-016));
#440=CARTESIAN_POINT('',(-6.22120573933101E-015,-1.2442411478662E-014,101.599999994487));
#441=DIRECTION('',(6.12323399573677E-017,1.22464679914735E-016,-1.0));
#442=DIRECTION('',(-1.23259516440783E-032,1.0,1.22464679914735E-016));
#443=SURFACE_STYLE_FILL_AREA(#522);
#444=ORIENTED_EDGE('',*,*,#109,.F.);
#445=CARTESIAN_POINT('',(-9.3440550774943E-015,4.99999999999998,152.6));
#446=DIRECTION('',(-6.12323399573677E-017,-1.22464679914735E-016,1.0));
#447=DIRECTION('',(1.23259516440783E-032,-1.0,-1.22464679914735E-016));
#448=SURFACE_STYLE_FILL_AREA(#523);
#449=ORIENTED_EDGE('',*,*,#98,.F.);
#450=ORIENTED_EDGE('',*,*,#88,.T.);
#451=CARTESIAN_POINT('',(-6.57715733153979E-015,-1.31543146630796E-014,107.413130645));
#452=DIRECTION('',(6.12323399573677E-017,1.22464679914735E-016,-1.0));
#453=DIRECTION('',(-1.23259516440783E-032,1.0,1.22464679914735E-016));
#454=CARTESIAN_POINT('',(-6.61921595000377E-015,-1.32384319000075E-014,108.10000001));
#455=DIRECTION('',(6.12323399573677E-017,1.22464679914735E-016,-1.0));
#456=DIRECTION('',(-1.23259516440783E-032,1.0,1.22464679914735E-016));
#457=CARTESIAN_POINT('',(-1.28587913910472E-015,-2.57175827820944E-015,21.0));
#458=DIRECTION('',(6.12323399573677E-017,1.22464679914735E-016,-1.0));
#459=DIRECTION('',(-1.23259516440783E-032,1.0,1.22464679914735E-016));
#460=CARTESIAN_POINT('',(-1.16341445918999E-015,-2.32682891837997E-015,19.0));
#461=DIRECTION('',(6.12323399573677E-017,1.22464679914735E-016,-1.0));
#462=DIRECTION('',(-1.23259516440783E-032,1.0,1.22464679914735E-016));
#463=CARTESIAN_POINT('',(-6.11679546662541E-015,-1.22335909332508E-014,99.89485084));
#464=DIRECTION('',(6.12323399573677E-017,1.22464679914735E-016,-1.0));
#465=DIRECTION('',(-1.23259516440783E-032,1.0,1.22464679914735E-016));
#466=CARTESIAN_POINT('',(-1.34711147906209E-015,-2.69422295812418E-015,22.0));
#467=DIRECTION('',(6.12323399573677E-017,1.22464679914735E-016,-1.0));
#468=DIRECTION('',(-1.23259516440783E-032,1.0,1.22464679914735E-016));
#469=CARTESIAN_POINT('',(-6.5350987130758E-015,-1.30701974261516E-014,106.72626128));
#470=DIRECTION('',(6.12323399573677E-017,1.22464679914735E-016,-1.0));
#471=DIRECTION('',(-1.23259516440783E-032,1.0,1.22464679914735E-016));
#472=SURFACE_STYLE_FILL_AREA(#524);
#473=ORIENTED_EDGE('',*,*,#96,.F.);
#474=ORIENTED_EDGE('',*,*,#75,.T.);
#475=CARTESIAN_POINT('',(-1.34711147906209E-015,9.09999999999999,22.0));
#476=DIRECTION('',(6.12323399573677E-017,1.22464679914735E-016,-1.0));
#477=DIRECTION('',(-1.23259516440783E-032,1.0,1.22464679914735E-016));
#478=SURFACE_STYLE_FILL_AREA(#525);
#479=ORIENTED_EDGE('',*,*,#113,.F.);
#480=ORIENTED_EDGE('',*,*,#92,.T.);
#481=CARTESIAN_POINT('',(-1.15546014493431E-015,-2.31092028986862E-015,18.87009619));
#482=DIRECTION('',(-6.12323399573677E-017,-1.22464679914735E-016,1.0));
#483=DIRECTION('',(-1.23259516440783E-032,1.0,1.22464679914735E-016));
#484=SURFACE_STYLE_FILL_AREA(#526);
#485=ORIENTED_EDGE('',*,*,#67,.F.);
#486=ORIENTED_EDGE('',*,*,#113,.T.);
#487=CARTESIAN_POINT('',(-5.73752915339315E-016,-1.14750583067863E-015,9.37009619));
#488=DIRECTION('',(6.12323399573677E-017,1.22464679914735E-016,-1.0));
#489=DIRECTION('',(-1.23259516440783E-032,1.0,1.22464679914735E-016));
#490=CARTESIAN_POINT('',(-9.3440550774943E-015,-1.86881101549886E-014,152.6));
#491=DIRECTION('',(6.12323399573677E-017,1.22464679914735E-016,-1.0));
#492=DIRECTION('',(-1.23259516440783E-032,1.0,1.22464679914735E-016));
#493=CARTESIAN_POINT('',(-1.28587913910472E-015,-2.57175827820944E-015,21.0));
#494=DIRECTION('',(6.12323399573677E-017,1.22464679914735E-016,-1.0));
#495=DIRECTION('',(-1.23259516440783E-032,1.0,1.22464679914735E-016));
#496=CARTESIAN_POINT('',(-1.14750583067863E-015,-2.29501166135726E-015,18.74019238));
#497=DIRECTION('',(6.12323399573677E-017,1.22464679914735E-016,-1.0));
#498=DIRECTION('',(-1.23259516440783E-032,1.0,1.22464679914735E-016));
#499=SURFACE_STYLE_FILL_AREA(#527);
#500=ORIENTED_EDGE('',*,*,#121,.F.);
#501=ORIENTED_EDGE('',*,*,#109,.T.);
#502=CARTESIAN_POINT('',(-7.98163551344287E-015,-1.59632710268857E-014,130.35));
#503=DIRECTION('',(6.12323399573677E-017,1.22464679914735E-016,-1.0));
#504=DIRECTION('',(-1.23259516440783E-032,1.0,1.22464679914735E-016));
#505=SURFACE_STYLE_FILL_AREA(#528);
#506=ORIENTED_EDGE('',*,*,#80,.F.);
#507=ORIENTED_EDGE('',*,*,#98,.T.);
#508=CARTESIAN_POINT('',(-6.37815222620341E-015,-1.27563044524068E-014,104.163130637244));
#509=DIRECTION('',(6.12323399573677E-017,1.22464679914735E-016,-1.0));
#510=DIRECTION('',(-1.23259516440783E-032,1.0,1.22464679914735E-016));
#511=CARTESIAN_POINT('',(-6.61921594939144E-015,-1.32384318987829E-014,108.1));
#512=DIRECTION('',(6.12323399573677E-017,1.22464679914735E-016,-1.0));
#513=DIRECTION('',(-1.23259516440783E-032,1.0,1.22464679914735E-016));
#514=FILL_AREA_STYLE('',(#529));
#515=FILL_AREA_STYLE('',(#530));
#516=FILL_AREA_STYLE('',(#531));
#517=FILL_AREA_STYLE('',(#532));
#518=FILL_AREA_STYLE('',(#533));
#519=FILL_AREA_STYLE('',(#534));
#520=FILL_AREA_STYLE('',(#535));
#521=FILL_AREA_STYLE('',(#536));
#522=FILL_AREA_STYLE('',(#537));
#523=FILL_AREA_STYLE('',(#538));
#524=FILL_AREA_STYLE('',(#539));
#525=FILL_AREA_STYLE('',(#540));
#526=FILL_AREA_STYLE('',(#541));
#527=FILL_AREA_STYLE('',(#542));
#528=FILL_AREA_STYLE('',(#543));
#529=FILL_AREA_STYLE_COLOUR('',#544);
#530=FILL_AREA_STYLE_COLOUR('',#545);
#531=FILL_AREA_STYLE_COLOUR('',#546);
#532=FILL_AREA_STYLE_COLOUR('',#547);
#533=FILL_AREA_STYLE_COLOUR('',#548);
#534=FILL_AREA_STYLE_COLOUR('',#549);
#535=FILL_AREA_STYLE_COLOUR('',#550);
#536=FILL_AREA_STYLE_COLOUR('',#551);
#537=FILL_AREA_STYLE_COLOUR('',#552);
#538=FILL_AREA_STYLE_COLOUR('',#553);
#539=FILL_AREA_STYLE_COLOUR('',#554);
#540=FILL_AREA_STYLE_COLOUR('',#555);
#541=FILL_AREA_STYLE_COLOUR('',#556);
#542=FILL_AREA_STYLE_COLOUR('',#557);
#543=FILL_AREA_STYLE_COLOUR('',#558);
#544=COLOUR_RGB('',0.0,1.0,0.0);
#545=COLOUR_RGB('',0.0,1.0,0.0);
#546=COLOUR_RGB('',0.0,1.0,0.0);
#547=COLOUR_RGB('',0.0,1.0,0.0);
#548=COLOUR_RGB('',0.0,1.0,0.0);
#549=COLOUR_RGB('',0.0,1.0,0.0);
#550=COLOUR_RGB('',0.0,1.0,0.0);
#551=COLOUR_RGB('',0.0,1.0,0.0);
#552=COLOUR_RGB('',0.0,1.0,0.0);
#553=COLOUR_RGB('',0.0,1.0,0.0);
#554=COLOUR_RGB('',0.0,1.0,0.0);
#555=COLOUR_RGB('',0.0,1.0,0.0);
#556=COLOUR_RGB('',0.0,1.0,0.0);
#557=COLOUR_RGB('',0.0,1.0,0.0);
#558=COLOUR_RGB('',0.0,1.0,0.0);
ENDSEC;
END-ISO-10303-21;
