ISO-10303-21;
HEADER;
FILE_DESCRIPTION((''),'1');
FILE_NAME('V:/90_\X2\53D65F9730C730FC30BF\X0\/00_\X2\6DE18DEF30C730FC30BF\X0\/ALL/MGT/MGT12-AU7_16-3.stp','2017-10-13T04:57:14',(''),(''),'Spatial Interop R21 SP3','Kubotek KeyCreator 2011 V10.0.2 (22737)',' ');
FILE_SCHEMA(('automotive_design'));
ENDSEC;
DATA;
#1=MECHANICAL_DESIGN_GEOMETRIC_PRESENTATION_REPRESENTATION(' ',(#10,#11,#12,#13,#14,#15,#16,#17,#18,#19,#20,#21,#22,#23,#24,#25,#26,#27,#28,#29,#30,#31,#32,#33,#34,#35,#36,#37),#6);
#2=PRODUCT_DEFINITION_CONTEXT('',#38,'design');
#3=APPLICATION_PROTOCOL_DEFINITION('INTERNATIONAL STANDARD','automotive_design',1994,#38);
#4=PRODUCT_CATEGORY_RELATIONSHIP('NONE','NONE',#39,#40);
#5=SHAPE_DEFINITION_REPRESENTATION(#41,#42);
#6= (GEOMETRIC_REPRESENTATION_CONTEXT(3)GLOBAL_UNCERTAINTY_ASSIGNED_CONTEXT((#45))GLOBAL_UNIT_ASSIGNED_CONTEXT((#47,#48,#49))REPRESENTATION_CONTEXT('NONE','WORKSPACE'));
#10=STYLED_ITEM('',(#51),#52);
#11=STYLED_ITEM('',(#53,#54),#55);
#12=STYLED_ITEM('',(#56,#57),#58);
#13=STYLED_ITEM('',(#59,#60),#61);
#14=STYLED_ITEM('',(#62),#63);
#15=STYLED_ITEM('',(#64),#65);
#16=STYLED_ITEM('',(#66,#67),#68);
#17=STYLED_ITEM('',(#69,#70),#71);
#18=STYLED_ITEM('',(#72,#73),#74);
#19=STYLED_ITEM('',(#75,#76),#77);
#20=STYLED_ITEM('',(#78,#79),#80);
#21=STYLED_ITEM('',(#81),#82);
#22=STYLED_ITEM('',(#83,#84),#85);
#23=STYLED_ITEM('',(#86),#87);
#24=STYLED_ITEM('',(#88),#89);
#25=STYLED_ITEM('',(#90),#91);
#26=STYLED_ITEM('',(#92),#93);
#27=STYLED_ITEM('',(#94,#95),#96);
#28=STYLED_ITEM('',(#97,#98),#99);
#29=STYLED_ITEM('',(#100),#101);
#30=STYLED_ITEM('',(#102),#103);
#31=STYLED_ITEM('',(#104,#105),#106);
#32=STYLED_ITEM('',(#107),#108);
#33=STYLED_ITEM('',(#109,#110),#111);
#34=STYLED_ITEM('',(#112,#113),#114);
#35=STYLED_ITEM('',(#115,#116),#117);
#36=STYLED_ITEM('',(#118),#119);
#37=STYLED_ITEM('',(#120),#121);
#38=APPLICATION_CONTEXT(' ');
#39=PRODUCT_CATEGORY('part','NONE');
#40=PRODUCT_RELATED_PRODUCT_CATEGORY('detail',' ',(#122));
#41=PRODUCT_DEFINITION_SHAPE('NONE','NONE',#123);
#42=ADVANCED_BREP_SHAPE_REPRESENTATION('Unnamed[1]',(#74,#124),#6);
#45=UNCERTAINTY_MEASURE_WITH_UNIT(LENGTH_MEASURE(1.0E-006),#47,'','');
#47= (CONVERSION_BASED_UNIT('MILLIMETRE',#127)LENGTH_UNIT()NAMED_UNIT(#130));
#48= (NAMED_UNIT(#132)PLANE_ANGLE_UNIT()SI_UNIT($,.RADIAN.));
#49= (NAMED_UNIT(#132)SOLID_ANGLE_UNIT()SI_UNIT($,.STERADIAN.));
#51=PRESENTATION_STYLE_ASSIGNMENT((#138));
#52=EDGE_CURVE('Unnamed[1]',#139,#139,#140,.T.);
#53=PRESENTATION_STYLE_ASSIGNMENT((#141));
#54=PRESENTATION_STYLE_ASSIGNMENT((#142));
#55=ADVANCED_FACE('Unnamed[1]',(#143,#144),#145,.T.);
#56=PRESENTATION_STYLE_ASSIGNMENT((#146));
#57=PRESENTATION_STYLE_ASSIGNMENT((#147));
#58=ADVANCED_FACE('Unnamed[1]',(#148,#149),#150,.T.);
#59=PRESENTATION_STYLE_ASSIGNMENT((#151));
#60=PRESENTATION_STYLE_ASSIGNMENT((#152));
#61=ADVANCED_FACE('Unnamed[1]',(#153,#154),#155,.T.);
#62=PRESENTATION_STYLE_ASSIGNMENT((#156));
#63=EDGE_CURVE('Unnamed[1]',#157,#157,#158,.T.);
#64=PRESENTATION_STYLE_ASSIGNMENT((#159));
#65=EDGE_CURVE('Unnamed[1]',#160,#160,#161,.T.);
#66=PRESENTATION_STYLE_ASSIGNMENT((#162));
#67=PRESENTATION_STYLE_ASSIGNMENT((#163));
#68=ADVANCED_FACE('Unnamed[1]',(#164,#165),#166,.T.);
#69=PRESENTATION_STYLE_ASSIGNMENT((#167));
#70=PRESENTATION_STYLE_ASSIGNMENT((#168));
#71=ADVANCED_FACE('Unnamed[1]',(#169,#170),#171,.T.);
#72=PRESENTATION_STYLE_ASSIGNMENT((#172));
#73=PRESENTATION_STYLE_ASSIGNMENT((#173));
#74=MANIFOLD_SOLID_BREP('Unnamed[1]',#174);
#75=PRESENTATION_STYLE_ASSIGNMENT((#175));
#76=PRESENTATION_STYLE_ASSIGNMENT((#176));
#77=ADVANCED_FACE('Unnamed[1]',(#177,#178),#179,.T.);
#78=PRESENTATION_STYLE_ASSIGNMENT((#180));
#79=PRESENTATION_STYLE_ASSIGNMENT((#181));
#80=ADVANCED_FACE('Unnamed[1]',(#182),#183,.T.);
#81=PRESENTATION_STYLE_ASSIGNMENT((#184));
#82=EDGE_CURVE('Unnamed[1]',#185,#185,#186,.T.);
#83=PRESENTATION_STYLE_ASSIGNMENT((#187));
#84=PRESENTATION_STYLE_ASSIGNMENT((#188));
#85=ADVANCED_FACE('Unnamed[1]',(#189,#190),#191,.T.);
#86=PRESENTATION_STYLE_ASSIGNMENT((#192));
#87=EDGE_CURVE('Unnamed[1]',#193,#193,#194,.T.);
#88=PRESENTATION_STYLE_ASSIGNMENT((#195));
#89=EDGE_CURVE('Unnamed[1]',#196,#196,#197,.T.);
#90=PRESENTATION_STYLE_ASSIGNMENT((#198));
#91=EDGE_CURVE('Unnamed[1]',#199,#199,#200,.T.);
#92=PRESENTATION_STYLE_ASSIGNMENT((#201));
#93=EDGE_CURVE('Unnamed[1]',#202,#202,#203,.T.);
#94=PRESENTATION_STYLE_ASSIGNMENT((#204));
#95=PRESENTATION_STYLE_ASSIGNMENT((#205));
#96=ADVANCED_FACE('Unnamed[1]',(#206,#207),#208,.T.);
#97=PRESENTATION_STYLE_ASSIGNMENT((#209));
#98=PRESENTATION_STYLE_ASSIGNMENT((#210));
#99=ADVANCED_FACE('Unnamed[1]',(#211),#212,.T.);
#100=PRESENTATION_STYLE_ASSIGNMENT((#213));
#101=EDGE_CURVE('Unnamed[1]',#214,#214,#215,.T.);
#102=PRESENTATION_STYLE_ASSIGNMENT((#216));
#103=EDGE_CURVE('Unnamed[1]',#217,#217,#218,.T.);
#104=PRESENTATION_STYLE_ASSIGNMENT((#219));
#105=PRESENTATION_STYLE_ASSIGNMENT((#220));
#106=ADVANCED_FACE('Unnamed[1]',(#221,#222),#223,.T.);
#107=PRESENTATION_STYLE_ASSIGNMENT((#224));
#108=EDGE_CURVE('Unnamed[1]',#225,#225,#226,.T.);
#109=PRESENTATION_STYLE_ASSIGNMENT((#227));
#110=PRESENTATION_STYLE_ASSIGNMENT((#228));
#111=ADVANCED_FACE('Unnamed[1]',(#229,#230),#231,.T.);
#112=PRESENTATION_STYLE_ASSIGNMENT((#232));
#113=PRESENTATION_STYLE_ASSIGNMENT((#233));
#114=ADVANCED_FACE('Unnamed[1]',(#234,#235),#236,.T.);
#115=PRESENTATION_STYLE_ASSIGNMENT((#237));
#116=PRESENTATION_STYLE_ASSIGNMENT((#238));
#117=ADVANCED_FACE('Unnamed[1]',(#239,#240),#241,.T.);
#118=PRESENTATION_STYLE_ASSIGNMENT((#242));
#119=EDGE_CURVE('Unnamed[1]',#243,#243,#244,.T.);
#120=PRESENTATION_STYLE_ASSIGNMENT((#245));
#121=EDGE_CURVE('Unnamed[1]',#246,#246,#247,.T.);
#122=PRODUCT('Unnamed[1]','Unnamed[1]','PART-Unnamed[1]-DESC',(#248));
#123=PRODUCT_DEFINITION('NONE','NONE',#249,#2);
#124=AXIS2_PLACEMENT_3D('',#250,#251,#252);
#127=LENGTH_MEASURE_WITH_UNIT(LENGTH_MEASURE(1.0),#253);
#130=DIMENSIONAL_EXPONENTS(1.0,0.0,0.0,0.0,0.0,0.0,0.0);
#132=DIMENSIONAL_EXPONENTS(0.0,0.0,0.0,0.0,0.0,0.0,0.0);
#138=CURVE_STYLE('',#254,POSITIVE_LENGTH_MEASURE(1000.0),#255);
#139=VERTEX_POINT('',#256);
#140=CIRCLE('',#257,10.0);
#141=SURFACE_STYLE_USAGE(.BOTH.,#258);
#142=CURVE_STYLE('',#259,POSITIVE_LENGTH_MEASURE(1000.0),#260);
#143=FACE_BOUND('',#261,.T.);
#144=FACE_BOUND('',#262,.T.);
#145=CYLINDRICAL_SURFACE('',#263,10.0);
#146=SURFACE_STYLE_USAGE(.BOTH.,#264);
#147=CURVE_STYLE('',#265,POSITIVE_LENGTH_MEASURE(1000.0),#266);
#148=FACE_BOUND('',#267,.T.);
#149=FACE_BOUND('',#268,.T.);
#150=CYLINDRICAL_SURFACE('',#269,8.2);
#151=SURFACE_STYLE_USAGE(.BOTH.,#270);
#152=CURVE_STYLE('',#271,POSITIVE_LENGTH_MEASURE(1000.0),#272);
#153=FACE_BOUND('',#273,.T.);
#154=FACE_BOUND('',#274,.T.);
#155=CYLINDRICAL_SURFACE('',#275,10.0);
#156=CURVE_STYLE('',#276,POSITIVE_LENGTH_MEASURE(1000.0),#277);
#157=VERTEX_POINT('',#278);
#158=CIRCLE('',#279,10.0);
#159=CURVE_STYLE('',#280,POSITIVE_LENGTH_MEASURE(1000.0),#281);
#160=VERTEX_POINT('',#282);
#161=CIRCLE('',#283,8.2);
#162=SURFACE_STYLE_USAGE(.BOTH.,#284);
#163=CURVE_STYLE('',#285,POSITIVE_LENGTH_MEASURE(1000.0),#286);
#164=FACE_OUTER_BOUND('',#287,.T.);
#165=FACE_BOUND('',#288,.T.);
#166=PLANE('',#289);
#167=SURFACE_STYLE_USAGE(.BOTH.,#290);
#168=CURVE_STYLE('',#291,POSITIVE_LENGTH_MEASURE(1000.0),#292);
#169=FACE_BOUND('',#293,.T.);
#170=FACE_BOUND('',#294,.T.);
#171=CYLINDRICAL_SURFACE('',#295,10.15);
#172=SURFACE_STYLE_USAGE(.BOTH.,#296);
#173=CURVE_STYLE('',#297,POSITIVE_LENGTH_MEASURE(1000.0),#298);
#174=CLOSED_SHELL('',(#80,#61,#114,#96,#111,#117,#106,#85,#58,#68,#71,#77,#55,#99));
#175=SURFACE_STYLE_USAGE(.BOTH.,#299);
#176=CURVE_STYLE('',#300,POSITIVE_LENGTH_MEASURE(1000.0),#301);
#177=FACE_BOUND('',#302,.T.);
#178=FACE_BOUND('',#303,.T.);
#179=CONICAL_SURFACE('',#304,10.075,0.523598777490513);
#180=SURFACE_STYLE_USAGE(.BOTH.,#305);
#181=CURVE_STYLE('',#306,POSITIVE_LENGTH_MEASURE(1000.0),#307);
#182=FACE_OUTER_BOUND('',#308,.T.);
#183=PLANE('',#309);
#184=CURVE_STYLE('',#310,POSITIVE_LENGTH_MEASURE(1000.0),#311);
#185=VERTEX_POINT('',#312);
#186=CIRCLE('',#313,13.5);
#187=SURFACE_STYLE_USAGE(.BOTH.,#314);
#188=CURVE_STYLE('',#315,POSITIVE_LENGTH_MEASURE(1000.0),#316);
#189=FACE_BOUND('',#317,.T.);
#190=FACE_OUTER_BOUND('',#318,.T.);
#191=PLANE('',#319);
#192=CURVE_STYLE('',#320,POSITIVE_LENGTH_MEASURE(1000.0),#321);
#193=VERTEX_POINT('',#322);
#194=CIRCLE('',#323,10.0);
#195=CURVE_STYLE('',#324,POSITIVE_LENGTH_MEASURE(1000.0),#325);
#196=VERTEX_POINT('',#326);
#197=CIRCLE('',#327,10.0);
#198=CURVE_STYLE('',#328,POSITIVE_LENGTH_MEASURE(1000.0),#329);
#199=VERTEX_POINT('',#330);
#200=CIRCLE('',#331,10.15);
#201=CURVE_STYLE('',#332,POSITIVE_LENGTH_MEASURE(1000.0),#333);
#202=VERTEX_POINT('',#334);
#203=CIRCLE('',#335,10.0);
#204=SURFACE_STYLE_USAGE(.BOTH.,#336);
#205=CURVE_STYLE('',#337,POSITIVE_LENGTH_MEASURE(1000.0),#338);
#206=FACE_BOUND('',#339,.T.);
#207=FACE_BOUND('',#340,.T.);
#208=CONICAL_SURFACE('',#341,13.25,0.349065845655957);
#209=SURFACE_STYLE_USAGE(.BOTH.,#342);
#210=CURVE_STYLE('',#343,POSITIVE_LENGTH_MEASURE(1000.0),#344);
#211=FACE_OUTER_BOUND('',#345,.T.);
#212=PLANE('',#346);
#213=CURVE_STYLE('',#347,POSITIVE_LENGTH_MEASURE(1000.0),#348);
#214=VERTEX_POINT('',#349);
#215=CIRCLE('',#350,10.0);
#216=CURVE_STYLE('',#351,POSITIVE_LENGTH_MEASURE(1000.0),#352);
#217=VERTEX_POINT('',#353);
#218=CIRCLE('',#354,8.2);
#219=SURFACE_STYLE_USAGE(.BOTH.,#355);
#220=CURVE_STYLE('',#356,POSITIVE_LENGTH_MEASURE(1000.0),#357);
#221=FACE_BOUND('',#358,.T.);
#222=FACE_BOUND('',#359,.T.);
#223=CYLINDRICAL_SURFACE('',#360,10.0);
#224=CURVE_STYLE('',#361,POSITIVE_LENGTH_MEASURE(1000.0),#362);
#225=VERTEX_POINT('',#363);
#226=CIRCLE('',#364,13.0);
#227=SURFACE_STYLE_USAGE(.BOTH.,#365);
#228=CURVE_STYLE('',#366,POSITIVE_LENGTH_MEASURE(1000.0),#367);
#229=FACE_BOUND('',#368,.T.);
#230=FACE_BOUND('',#369,.T.);
#231=CYLINDRICAL_SURFACE('',#370,13.5);
#232=SURFACE_STYLE_USAGE(.BOTH.,#371);
#233=CURVE_STYLE('',#372,POSITIVE_LENGTH_MEASURE(1000.0),#373);
#234=FACE_OUTER_BOUND('',#374,.T.);
#235=FACE_BOUND('',#375,.T.);
#236=PLANE('',#376);
#237=SURFACE_STYLE_USAGE(.BOTH.,#377);
#238=CURVE_STYLE('',#378,POSITIVE_LENGTH_MEASURE(1000.0),#379);
#239=FACE_BOUND('',#380,.T.);
#240=FACE_BOUND('',#381,.T.);
#241=CONICAL_SURFACE('',#382,11.75,1.11745279227556);
#242=CURVE_STYLE('',#383,POSITIVE_LENGTH_MEASURE(1000.0),#384);
#243=VERTEX_POINT('',#385);
#244=CIRCLE('',#386,13.5);
#245=CURVE_STYLE('',#387,POSITIVE_LENGTH_MEASURE(1000.0),#388);
#246=VERTEX_POINT('',#389);
#247=CIRCLE('',#390,10.15);
#248=PRODUCT_CONTEXT('',#38,'mechanical');
#249=PRODUCT_DEFINITION_FORMATION_WITH_SPECIFIED_SOURCE(' ','NONE',#122,.NOT_KNOWN.);
#250=CARTESIAN_POINT('',(0.0,0.0,0.0));
#251=DIRECTION('',(0.0,0.0,1.0));
#252=DIRECTION('',(1.0,0.0,0.0));
#253= (NAMED_UNIT(#130)LENGTH_UNIT()SI_UNIT(.MILLI.,.METRE.));
#254=DRAUGHTING_PRE_DEFINED_CURVE_FONT('continuous');
#255=COLOUR_RGB('',0.0,1.0,0.0);
#256=CARTESIAN_POINT('',(-1.34711147906209E-015,10.0,22.0));
#257=AXIS2_PLACEMENT_3D('',#392,#393,#394);
#258=SURFACE_SIDE_STYLE('',(#395));
#259=DRAUGHTING_PRE_DEFINED_CURVE_FONT('continuous');
#260=COLOUR_RGB('',0.0,1.0,0.0);
#261=EDGE_LOOP('',(#396));
#262=EDGE_LOOP('',(#397));
#263=AXIS2_PLACEMENT_3D('',#398,#399,#400);
#264=SURFACE_SIDE_STYLE('',(#401));
#265=DRAUGHTING_PRE_DEFINED_CURVE_FONT('continuous');
#266=COLOUR_RGB('',0.0,1.0,0.0);
#267=EDGE_LOOP('',(#402));
#268=EDGE_LOOP('',(#403));
#269=AXIS2_PLACEMENT_3D('',#404,#405,#406);
#270=SURFACE_SIDE_STYLE('',(#407));
#271=DRAUGHTING_PRE_DEFINED_CURVE_FONT('continuous');
#272=COLOUR_RGB('',0.0,1.0,0.0);
#273=EDGE_LOOP('',(#408));
#274=EDGE_LOOP('',(#409));
#275=AXIS2_PLACEMENT_3D('',#410,#411,#412);
#276=DRAUGHTING_PRE_DEFINED_CURVE_FONT('continuous');
#277=COLOUR_RGB('',0.0,1.0,0.0);
#278=CARTESIAN_POINT('',(-4.56149403170828E-015,9.99999999999999,74.49485084));
#279=AXIS2_PLACEMENT_3D('',#413,#414,#415);
#280=DRAUGHTING_PRE_DEFINED_CURVE_FONT('continuous');
#281=COLOUR_RGB('',0.0,1.0,0.0);
#282=CARTESIAN_POINT('',(-1.34711147906209E-015,8.2,22.0));
#283=AXIS2_PLACEMENT_3D('',#416,#417,#418);
#284=SURFACE_SIDE_STYLE('',(#419));
#285=DRAUGHTING_PRE_DEFINED_CURVE_FONT('continuous');
#286=COLOUR_RGB('',0.0,1.0,0.0);
#287=EDGE_LOOP('',(#420));
#288=EDGE_LOOP('',(#421));
#289=AXIS2_PLACEMENT_3D('',#422,#423,#424);
#290=SURFACE_SIDE_STYLE('',(#425));
#291=DRAUGHTING_PRE_DEFINED_CURVE_FONT('continuous');
#292=COLOUR_RGB('',0.0,1.0,0.0);
#293=EDGE_LOOP('',(#426));
#294=EDGE_LOOP('',(#427));
#295=AXIS2_PLACEMENT_3D('',#428,#429,#430);
#296=SURFACE_SIDE_STYLE('',(#431));
#297=DRAUGHTING_PRE_DEFINED_CURVE_FONT('continuous');
#298=COLOUR_RGB('',0.0,1.0,0.0);
#299=SURFACE_SIDE_STYLE('',(#432));
#300=DRAUGHTING_PRE_DEFINED_CURVE_FONT('continuous');
#301=COLOUR_RGB('',0.0,1.0,0.0);
#302=EDGE_LOOP('',(#433));
#303=EDGE_LOOP('',(#434));
#304=AXIS2_PLACEMENT_3D('',#435,#436,#437);
#305=SURFACE_SIDE_STYLE('',(#438));
#306=DRAUGHTING_PRE_DEFINED_CURVE_FONT('continuous');
#307=COLOUR_RGB('',0.0,1.0,0.0);
#308=EDGE_LOOP('',(#439));
#309=AXIS2_PLACEMENT_3D('',#440,#441,#442);
#310=DRAUGHTING_PRE_DEFINED_CURVE_FONT('continuous');
#311=COLOUR_RGB('',0.0,1.0,0.0);
#312=CARTESIAN_POINT('',(-4.97979727815867E-015,13.5,81.32626128));
#313=AXIS2_PLACEMENT_3D('',#443,#444,#445);
#314=SURFACE_SIDE_STYLE('',(#446));
#315=DRAUGHTING_PRE_DEFINED_CURVE_FONT('continuous');
#316=COLOUR_RGB('',0.0,1.0,0.0);
#317=EDGE_LOOP('',(#447));
#318=EDGE_LOOP('',(#448));
#319=AXIS2_PLACEMENT_3D('',#449,#450,#451);
#320=DRAUGHTING_PRE_DEFINED_CURVE_FONT('continuous');
#321=COLOUR_RGB('',0.0,1.0,0.0);
#322=CARTESIAN_POINT('',(-1.14750583067863E-015,10.0,18.74019238));
#323=AXIS2_PLACEMENT_3D('',#452,#453,#454);
#324=DRAUGHTING_PRE_DEFINED_CURVE_FONT('continuous');
#325=COLOUR_RGB('',0.0,1.0,0.0);
#326=CARTESIAN_POINT('',(-7.78875364257717E-015,9.99999999999998,127.2));
#327=AXIS2_PLACEMENT_3D('',#455,#456,#457);
#328=DRAUGHTING_PRE_DEFINED_CURVE_FONT('continuous');
#329=COLOUR_RGB('',0.0,1.0,0.0);
#330=CARTESIAN_POINT('',(-1.28587913910472E-015,10.15,21.0));
#331=AXIS2_PLACEMENT_3D('',#458,#459,#460);
#332=DRAUGHTING_PRE_DEFINED_CURVE_FONT('continuous');
#333=COLOUR_RGB('',0.0,1.0,0.0);
#334=CARTESIAN_POINT('',(0.0,10.0,0.0));
#335=AXIS2_PLACEMENT_3D('',#461,#462,#463);
#336=SURFACE_SIDE_STYLE('',(#464));
#337=DRAUGHTING_PRE_DEFINED_CURVE_FONT('continuous');
#338=COLOUR_RGB('',0.0,1.0,0.0);
#339=EDGE_LOOP('',(#465));
#340=EDGE_LOOP('',(#466));
#341=AXIS2_PLACEMENT_3D('',#467,#468,#469);
#342=SURFACE_SIDE_STYLE('',(#470));
#343=DRAUGHTING_PRE_DEFINED_CURVE_FONT('continuous');
#344=COLOUR_RGB('',0.0,1.0,0.0);
#345=EDGE_LOOP('',(#471));
#346=AXIS2_PLACEMENT_3D('',#472,#473,#474);
#347=DRAUGHTING_PRE_DEFINED_CURVE_FONT('continuous');
#348=COLOUR_RGB('',0.0,1.0,0.0);
#349=CARTESIAN_POINT('',(-5.06391451447431E-015,9.99999999999999,82.7));
#350=AXIS2_PLACEMENT_3D('',#475,#476,#477);
#351=DRAUGHTING_PRE_DEFINED_CURVE_FONT('continuous');
#352=COLOUR_RGB('',0.0,1.0,0.0);
#353=CARTESIAN_POINT('',(-1.28587913910472E-015,8.2,21.0));
#354=AXIS2_PLACEMENT_3D('',#478,#479,#480);
#355=SURFACE_SIDE_STYLE('',(#481));
#356=DRAUGHTING_PRE_DEFINED_CURVE_FONT('continuous');
#357=COLOUR_RGB('',0.0,1.0,0.0);
#358=EDGE_LOOP('',(#482));
#359=EDGE_LOOP('',(#483));
#360=AXIS2_PLACEMENT_3D('',#484,#485,#486);
#361=DRAUGHTING_PRE_DEFINED_CURVE_FONT('continuous');
#362=COLOUR_RGB('',0.0,1.0,0.0);
#363=CARTESIAN_POINT('',(-5.06391451508663E-015,13.0,82.70000001));
#364=AXIS2_PLACEMENT_3D('',#487,#488,#489);
#365=SURFACE_SIDE_STYLE('',(#490));
#366=DRAUGHTING_PRE_DEFINED_CURVE_FONT('continuous');
#367=COLOUR_RGB('',0.0,1.0,0.0);
#368=EDGE_LOOP('',(#491));
#369=EDGE_LOOP('',(#492));
#370=AXIS2_PLACEMENT_3D('',#493,#494,#495);
#371=SURFACE_SIDE_STYLE('',(#496));
#372=DRAUGHTING_PRE_DEFINED_CURVE_FONT('continuous');
#373=COLOUR_RGB('',0.0,1.0,0.0);
#374=EDGE_LOOP('',(#497));
#375=EDGE_LOOP('',(#498));
#376=AXIS2_PLACEMENT_3D('',#499,#500,#501);
#377=SURFACE_SIDE_STYLE('',(#502));
#378=DRAUGHTING_PRE_DEFINED_CURVE_FONT('continuous');
#379=COLOUR_RGB('',0.0,1.0,0.0);
#380=EDGE_LOOP('',(#503));
#381=EDGE_LOOP('',(#504));
#382=AXIS2_PLACEMENT_3D('',#505,#506,#507);
#383=DRAUGHTING_PRE_DEFINED_CURVE_FONT('continuous');
#384=COLOUR_RGB('',0.0,1.0,0.0);
#385=CARTESIAN_POINT('',(-4.66590430475142E-015,13.5,76.2));
#386=AXIS2_PLACEMENT_3D('',#508,#509,#510);
#387=DRAUGHTING_PRE_DEFINED_CURVE_FONT('continuous');
#388=COLOUR_RGB('',0.0,1.0,0.0);
#389=CARTESIAN_POINT('',(-1.16341445918999E-015,10.15,19.0));
#390=AXIS2_PLACEMENT_3D('',#511,#512,#513);
#392=CARTESIAN_POINT('',(-1.34711147906209E-015,-2.69422295812418E-015,22.0));
#393=DIRECTION('',(6.12323399573677E-017,1.22464679914735E-016,-1.0));
#394=DIRECTION('',(-1.23259516440783E-032,1.0,1.22464679914735E-016));
#395=SURFACE_STYLE_FILL_AREA(#514);
#396=ORIENTED_EDGE('',*,*,#93,.F.);
#397=ORIENTED_EDGE('',*,*,#87,.T.);
#398=CARTESIAN_POINT('',(-5.73752915339316E-016,-1.14750583067863E-015,9.37009619));
#399=DIRECTION('',(6.12323399573677E-017,1.22464679914735E-016,-1.0));
#400=DIRECTION('',(-1.23259516440783E-032,1.0,1.22464679914735E-016));
#401=SURFACE_STYLE_FILL_AREA(#515);
#402=ORIENTED_EDGE('',*,*,#103,.F.);
#403=ORIENTED_EDGE('',*,*,#65,.T.);
#404=CARTESIAN_POINT('',(-1.3164953090834E-015,-2.63299061816681E-015,21.5));
#405=DIRECTION('',(6.12323399573677E-017,1.22464679914735E-016,-1.0));
#406=DIRECTION('',(-1.23259516440783E-032,1.0,1.22464679914735E-016));
#407=SURFACE_STYLE_FILL_AREA(#516);
#408=ORIENTED_EDGE('',*,*,#101,.F.);
#409=ORIENTED_EDGE('',*,*,#89,.T.);
#410=CARTESIAN_POINT('',(-6.42633407852574E-015,-1.28526681570515E-014,104.95));
#411=DIRECTION('',(6.12323399573677E-017,1.22464679914735E-016,-1.0));
#412=DIRECTION('',(-1.23259516440783E-032,1.0,1.22464679914735E-016));
#413=CARTESIAN_POINT('',(-4.56149403170828E-015,-9.12298806341655E-015,74.49485084));
#414=DIRECTION('',(6.12323399573677E-017,1.22464679914735E-016,-1.0));
#415=DIRECTION('',(-1.23259516440783E-032,1.0,1.22464679914735E-016));
#416=CARTESIAN_POINT('',(-1.34711147906209E-015,-2.69422295812418E-015,22.0));
#417=DIRECTION('',(6.12323399573677E-017,1.22464679914735E-016,-1.0));
#418=DIRECTION('',(-1.23259516440783E-032,1.0,1.22464679914735E-016));
#419=SURFACE_STYLE_FILL_AREA(#517);
#420=ORIENTED_EDGE('',*,*,#91,.F.);
#421=ORIENTED_EDGE('',*,*,#103,.T.);
#422=CARTESIAN_POINT('',(-1.28587913910472E-015,9.175,21.0));
#423=DIRECTION('',(-6.12323399573677E-017,-1.22464679914735E-016,1.0));
#424=DIRECTION('',(1.23259516440783E-032,-1.0,-1.22464679914735E-016));
#425=SURFACE_STYLE_FILL_AREA(#518);
#426=ORIENTED_EDGE('',*,*,#121,.F.);
#427=ORIENTED_EDGE('',*,*,#91,.T.);
#428=CARTESIAN_POINT('',(-1.22464679914735E-015,-2.44929359829471E-015,20.0));
#429=DIRECTION('',(6.12323399573677E-017,1.22464679914735E-016,-1.0));
#430=DIRECTION('',(-1.23259516440783E-032,1.0,1.22464679914735E-016));
#431=SURFACE_STYLE_FILL_AREA(#519);
#432=SURFACE_STYLE_FILL_AREA(#520);
#433=ORIENTED_EDGE('',*,*,#87,.F.);
#434=ORIENTED_EDGE('',*,*,#121,.T.);
#435=CARTESIAN_POINT('',(-1.15546014493431E-015,-2.31092028986862E-015,18.87009619));
#436=DIRECTION('',(-6.12323399573677E-017,-1.22464679914735E-016,1.0));
#437=DIRECTION('',(-1.23259516440783E-032,1.0,1.22464679914735E-016));
#438=SURFACE_STYLE_FILL_AREA(#521);
#439=ORIENTED_EDGE('',*,*,#89,.F.);
#440=CARTESIAN_POINT('',(-7.78875364257717E-015,4.99999999999998,127.2));
#441=DIRECTION('',(-6.12323399573677E-017,-1.22464679914735E-016,1.0));
#442=DIRECTION('',(1.23259516440783E-032,-1.0,-1.22464679914735E-016));
#443=CARTESIAN_POINT('',(-4.97979727815867E-015,-9.95959455631733E-015,81.32626128));
#444=DIRECTION('',(6.12323399573677E-017,1.22464679914735E-016,-1.0));
#445=DIRECTION('',(-1.23259516440783E-032,1.0,1.22464679914735E-016));
#446=SURFACE_STYLE_FILL_AREA(#522);
#447=ORIENTED_EDGE('',*,*,#65,.F.);
#448=ORIENTED_EDGE('',*,*,#52,.T.);
#449=CARTESIAN_POINT('',(-1.34711147906209E-015,9.1,22.0));
#450=DIRECTION('',(6.12323399573677E-017,1.22464679914735E-016,-1.0));
#451=DIRECTION('',(-1.23259516440783E-032,1.0,1.22464679914735E-016));
#452=CARTESIAN_POINT('',(-1.14750583067863E-015,-2.29501166135726E-015,18.74019238));
#453=DIRECTION('',(6.12323399573677E-017,1.22464679914735E-016,-1.0));
#454=DIRECTION('',(-1.23259516440783E-032,1.0,1.22464679914735E-016));
#455=CARTESIAN_POINT('',(-7.78875364257717E-015,-1.55775072851543E-014,127.2));
#456=DIRECTION('',(6.12323399573677E-017,1.22464679914735E-016,-1.0));
#457=DIRECTION('',(-1.23259516440783E-032,1.0,1.22464679914735E-016));
#458=CARTESIAN_POINT('',(-1.28587913910472E-015,-2.57175827820944E-015,21.0));
#459=DIRECTION('',(6.12323399573677E-017,1.22464679914735E-016,-1.0));
#460=DIRECTION('',(-1.23259516440783E-032,1.0,1.22464679914735E-016));
#461=CARTESIAN_POINT('',(0.0,0.0,0.0));
#462=DIRECTION('',(6.12323399573677E-017,1.22464679914735E-016,-1.0));
#463=DIRECTION('',(-1.23259516440783E-032,1.0,1.22464679914735E-016));
#464=SURFACE_STYLE_FILL_AREA(#523);
#465=ORIENTED_EDGE('',*,*,#82,.F.);
#466=ORIENTED_EDGE('',*,*,#108,.T.);
#467=CARTESIAN_POINT('',(-5.02185589662265E-015,-1.00437117932453E-014,82.013130645));
#468=DIRECTION('',(6.12323399573677E-017,1.22464679914735E-016,-1.0));
#469=DIRECTION('',(-1.23259516440783E-032,1.0,1.22464679914735E-016));
#470=SURFACE_STYLE_FILL_AREA(#524);
#471=ORIENTED_EDGE('',*,*,#93,.T.);
#472=CARTESIAN_POINT('',(0.0,5.0,0.0));
#473=DIRECTION('',(6.12323399573677E-017,1.22464679914735E-016,-1.0));
#474=DIRECTION('',(-1.23259516440783E-032,1.0,1.22464679914735E-016));
#475=CARTESIAN_POINT('',(-5.06391451447431E-015,-1.01278290289486E-014,82.7));
#476=DIRECTION('',(6.12323399573677E-017,1.22464679914735E-016,-1.0));
#477=DIRECTION('',(-1.23259516440783E-032,1.0,1.22464679914735E-016));
#478=CARTESIAN_POINT('',(-1.28587913910472E-015,-2.57175827820944E-015,21.0));
#479=DIRECTION('',(6.12323399573677E-017,1.22464679914735E-016,-1.0));
#480=DIRECTION('',(-1.23259516440783E-032,1.0,1.22464679914735E-016));
#481=SURFACE_STYLE_FILL_AREA(#525);
#482=ORIENTED_EDGE('',*,*,#52,.F.);
#483=ORIENTED_EDGE('',*,*,#63,.T.);
#484=CARTESIAN_POINT('',(-2.95430275538518E-015,-5.90860551077036E-015,48.24742542));
#485=DIRECTION('',(6.12323399573677E-017,1.22464679914735E-016,-1.0));
#486=DIRECTION('',(-1.23259516440783E-032,1.0,1.22464679914735E-016));
#487=CARTESIAN_POINT('',(-5.06391451508663E-015,-1.01278290301733E-014,82.70000001));
#488=DIRECTION('',(6.12323399573677E-017,1.22464679914735E-016,-1.0));
#489=DIRECTION('',(-1.23259516440783E-032,1.0,1.22464679914735E-016));
#490=SURFACE_STYLE_FILL_AREA(#526);
#491=ORIENTED_EDGE('',*,*,#119,.F.);
#492=ORIENTED_EDGE('',*,*,#82,.T.);
#493=CARTESIAN_POINT('',(-4.82285079145504E-015,-9.64570158291008E-015,78.76313064));
#494=DIRECTION('',(6.12323399573677E-017,1.22464679914735E-016,-1.0));
#495=DIRECTION('',(-1.23259516440783E-032,1.0,1.22464679914735E-016));
#496=SURFACE_STYLE_FILL_AREA(#527);
#497=ORIENTED_EDGE('',*,*,#108,.F.);
#498=ORIENTED_EDGE('',*,*,#101,.T.);
#499=CARTESIAN_POINT('',(-5.06391451478047E-015,11.5,82.700000005));
#500=DIRECTION('',(-6.12323399573677E-017,-3.3333331394803E-009,1.0));
#501=DIRECTION('',(2.0410779281497E-025,-1.0,-3.3333331394803E-009));
#502=SURFACE_STYLE_FILL_AREA(#528);
#503=ORIENTED_EDGE('',*,*,#63,.F.);
#504=ORIENTED_EDGE('',*,*,#119,.T.);
#505=CARTESIAN_POINT('',(-4.61369916822985E-015,-9.22739833645969E-015,75.34742542));
#506=DIRECTION('',(-6.12323399573677E-017,-1.22464679914735E-016,1.0));
#507=DIRECTION('',(-1.23259516440783E-032,1.0,1.22464679914735E-016));
#508=CARTESIAN_POINT('',(-4.66590430475142E-015,-9.33180860950283E-015,76.2));
#509=DIRECTION('',(6.12323399573677E-017,1.22464679914735E-016,-1.0));
#510=DIRECTION('',(-1.23259516440783E-032,1.0,1.22464679914735E-016));
#511=CARTESIAN_POINT('',(-1.16341445918999E-015,-2.32682891837997E-015,19.0));
#512=DIRECTION('',(6.12323399573677E-017,1.22464679914735E-016,-1.0));
#513=DIRECTION('',(-1.23259516440783E-032,1.0,1.22464679914735E-016));
#514=FILL_AREA_STYLE('',(#529));
#515=FILL_AREA_STYLE('',(#530));
#516=FILL_AREA_STYLE('',(#531));
#517=FILL_AREA_STYLE('',(#532));
#518=FILL_AREA_STYLE('',(#533));
#519=FILL_AREA_STYLE('',(#534));
#520=FILL_AREA_STYLE('',(#535));
#521=FILL_AREA_STYLE('',(#536));
#522=FILL_AREA_STYLE('',(#537));
#523=FILL_AREA_STYLE('',(#538));
#524=FILL_AREA_STYLE('',(#539));
#525=FILL_AREA_STYLE('',(#540));
#526=FILL_AREA_STYLE('',(#541));
#527=FILL_AREA_STYLE('',(#542));
#528=FILL_AREA_STYLE('',(#543));
#529=FILL_AREA_STYLE_COLOUR('',#544);
#530=FILL_AREA_STYLE_COLOUR('',#545);
#531=FILL_AREA_STYLE_COLOUR('',#546);
#532=FILL_AREA_STYLE_COLOUR('',#547);
#533=FILL_AREA_STYLE_COLOUR('',#548);
#534=FILL_AREA_STYLE_COLOUR('',#549);
#535=FILL_AREA_STYLE_COLOUR('',#550);
#536=FILL_AREA_STYLE_COLOUR('',#551);
#537=FILL_AREA_STYLE_COLOUR('',#552);
#538=FILL_AREA_STYLE_COLOUR('',#553);
#539=FILL_AREA_STYLE_COLOUR('',#554);
#540=FILL_AREA_STYLE_COLOUR('',#555);
#541=FILL_AREA_STYLE_COLOUR('',#556);
#542=FILL_AREA_STYLE_COLOUR('',#557);
#543=FILL_AREA_STYLE_COLOUR('',#558);
#544=COLOUR_RGB('',0.0,1.0,0.0);
#545=COLOUR_RGB('',0.0,1.0,0.0);
#546=COLOUR_RGB('',0.0,1.0,0.0);
#547=COLOUR_RGB('',0.0,1.0,0.0);
#548=COLOUR_RGB('',0.0,1.0,0.0);
#549=COLOUR_RGB('',0.0,1.0,0.0);
#550=COLOUR_RGB('',0.0,1.0,0.0);
#551=COLOUR_RGB('',0.0,1.0,0.0);
#552=COLOUR_RGB('',0.0,1.0,0.0);
#553=COLOUR_RGB('',0.0,1.0,0.0);
#554=COLOUR_RGB('',0.0,1.0,0.0);
#555=COLOUR_RGB('',0.0,1.0,0.0);
#556=COLOUR_RGB('',0.0,1.0,0.0);
#557=COLOUR_RGB('',0.0,1.0,0.0);
#558=COLOUR_RGB('',0.0,1.0,0.0);
ENDSEC;
END-ISO-10303-21;
