ISO-10303-21;
HEADER;
FILE_DESCRIPTION((''),'1');
FILE_NAME('V:/90_\X2\53D65F9730C730FC30BF\X0\/00_\X2\6DE18DEF30C730FC30BF\X0\/ALL/MGT/MGT12-AU7_16-1.25.stp','2017-10-13T04:55:28',(''),(''),'Spatial Interop R21 SP3','Kubotek KeyCreator 2011 V10.0.2 (22737)',' ');
FILE_SCHEMA(('automotive_design'));
ENDSEC;
DATA;
#1=MECHANICAL_DESIGN_GEOMETRIC_PRESENTATION_REPRESENTATION(' ',(#10,#11,#12,#13,#14,#15,#16,#17,#18,#19,#20,#21,#22,#23,#24,#25,#26,#27,#28,#29,#30,#31,#32,#33,#34,#35,#36,#37),#6);
#2=PRODUCT_DEFINITION_CONTEXT('',#38,'design');
#3=APPLICATION_PROTOCOL_DEFINITION('INTERNATIONAL STANDARD','automotive_design',1994,#38);
#4=PRODUCT_CATEGORY_RELATIONSHIP('NONE','NONE',#39,#40);
#5=SHAPE_DEFINITION_REPRESENTATION(#41,#42);
#6= (GEOMETRIC_REPRESENTATION_CONTEXT(3)GLOBAL_UNCERTAINTY_ASSIGNED_CONTEXT((#45))GLOBAL_UNIT_ASSIGNED_CONTEXT((#47,#48,#49))REPRESENTATION_CONTEXT('NONE','WORKSPACE'));
#10=STYLED_ITEM('',(#51,#52),#53);
#11=STYLED_ITEM('',(#54,#55),#56);
#12=STYLED_ITEM('',(#57,#58),#59);
#13=STYLED_ITEM('',(#60),#61);
#14=STYLED_ITEM('',(#62),#63);
#15=STYLED_ITEM('',(#64,#65),#66);
#16=STYLED_ITEM('',(#67),#68);
#17=STYLED_ITEM('',(#69),#70);
#18=STYLED_ITEM('',(#71,#72),#73);
#19=STYLED_ITEM('',(#74),#75);
#20=STYLED_ITEM('',(#76),#77);
#21=STYLED_ITEM('',(#78,#79),#80);
#22=STYLED_ITEM('',(#81,#82),#83);
#23=STYLED_ITEM('',(#84),#85);
#24=STYLED_ITEM('',(#86),#87);
#25=STYLED_ITEM('',(#88),#89);
#26=STYLED_ITEM('',(#90,#91),#92);
#27=STYLED_ITEM('',(#93),#94);
#28=STYLED_ITEM('',(#95,#96),#97);
#29=STYLED_ITEM('',(#98),#99);
#30=STYLED_ITEM('',(#100,#101),#102);
#31=STYLED_ITEM('',(#103),#104);
#32=STYLED_ITEM('',(#105,#106),#107);
#33=STYLED_ITEM('',(#108),#109);
#34=STYLED_ITEM('',(#110,#111),#112);
#35=STYLED_ITEM('',(#113,#114),#115);
#36=STYLED_ITEM('',(#116,#117),#118);
#37=STYLED_ITEM('',(#119,#120),#121);
#38=APPLICATION_CONTEXT(' ');
#39=PRODUCT_CATEGORY('part','NONE');
#40=PRODUCT_RELATED_PRODUCT_CATEGORY('detail',' ',(#122));
#41=PRODUCT_DEFINITION_SHAPE('NONE','NONE',#123);
#42=ADVANCED_BREP_SHAPE_REPRESENTATION('Unnamed[1]',(#66,#124),#6);
#45=UNCERTAINTY_MEASURE_WITH_UNIT(LENGTH_MEASURE(1.0E-006),#47,'','');
#47= (CONVERSION_BASED_UNIT('MILLIMETRE',#127)LENGTH_UNIT()NAMED_UNIT(#130));
#48= (NAMED_UNIT(#132)PLANE_ANGLE_UNIT()SI_UNIT($,.RADIAN.));
#49= (NAMED_UNIT(#132)SOLID_ANGLE_UNIT()SI_UNIT($,.STERADIAN.));
#51=PRESENTATION_STYLE_ASSIGNMENT((#138));
#52=PRESENTATION_STYLE_ASSIGNMENT((#139));
#53=ADVANCED_FACE('Unnamed[1]',(#140),#141,.T.);
#54=PRESENTATION_STYLE_ASSIGNMENT((#142));
#55=PRESENTATION_STYLE_ASSIGNMENT((#143));
#56=ADVANCED_FACE('Unnamed[1]',(#144,#145),#146,.T.);
#57=PRESENTATION_STYLE_ASSIGNMENT((#147));
#58=PRESENTATION_STYLE_ASSIGNMENT((#148));
#59=ADVANCED_FACE('Unnamed[1]',(#149,#150),#151,.T.);
#60=PRESENTATION_STYLE_ASSIGNMENT((#152));
#61=EDGE_CURVE('Unnamed[1]',#153,#153,#154,.T.);
#62=PRESENTATION_STYLE_ASSIGNMENT((#155));
#63=EDGE_CURVE('Unnamed[1]',#156,#156,#157,.T.);
#64=PRESENTATION_STYLE_ASSIGNMENT((#158));
#65=PRESENTATION_STYLE_ASSIGNMENT((#159));
#66=MANIFOLD_SOLID_BREP('Unnamed[1]',#160);
#67=PRESENTATION_STYLE_ASSIGNMENT((#161));
#68=EDGE_CURVE('Unnamed[1]',#162,#162,#163,.T.);
#69=PRESENTATION_STYLE_ASSIGNMENT((#164));
#70=EDGE_CURVE('Unnamed[1]',#165,#165,#166,.T.);
#71=PRESENTATION_STYLE_ASSIGNMENT((#167));
#72=PRESENTATION_STYLE_ASSIGNMENT((#168));
#73=ADVANCED_FACE('Unnamed[1]',(#169,#170),#171,.T.);
#74=PRESENTATION_STYLE_ASSIGNMENT((#172));
#75=EDGE_CURVE('Unnamed[1]',#173,#173,#174,.T.);
#76=PRESENTATION_STYLE_ASSIGNMENT((#175));
#77=EDGE_CURVE('Unnamed[1]',#176,#176,#177,.T.);
#78=PRESENTATION_STYLE_ASSIGNMENT((#178));
#79=PRESENTATION_STYLE_ASSIGNMENT((#179));
#80=ADVANCED_FACE('Unnamed[1]',(#180,#181),#182,.T.);
#81=PRESENTATION_STYLE_ASSIGNMENT((#183));
#82=PRESENTATION_STYLE_ASSIGNMENT((#184));
#83=ADVANCED_FACE('Unnamed[1]',(#185,#186),#187,.T.);
#84=PRESENTATION_STYLE_ASSIGNMENT((#188));
#85=EDGE_CURVE('Unnamed[1]',#189,#189,#190,.T.);
#86=PRESENTATION_STYLE_ASSIGNMENT((#191));
#87=EDGE_CURVE('Unnamed[1]',#192,#192,#193,.T.);
#88=PRESENTATION_STYLE_ASSIGNMENT((#194));
#89=EDGE_CURVE('Unnamed[1]',#195,#195,#196,.T.);
#90=PRESENTATION_STYLE_ASSIGNMENT((#197));
#91=PRESENTATION_STYLE_ASSIGNMENT((#198));
#92=ADVANCED_FACE('Unnamed[1]',(#199,#200),#201,.T.);
#93=PRESENTATION_STYLE_ASSIGNMENT((#202));
#94=EDGE_CURVE('Unnamed[1]',#203,#203,#204,.T.);
#95=PRESENTATION_STYLE_ASSIGNMENT((#205));
#96=PRESENTATION_STYLE_ASSIGNMENT((#206));
#97=ADVANCED_FACE('Unnamed[1]',(#207,#208),#209,.T.);
#98=PRESENTATION_STYLE_ASSIGNMENT((#210));
#99=EDGE_CURVE('Unnamed[1]',#211,#211,#212,.T.);
#100=PRESENTATION_STYLE_ASSIGNMENT((#213));
#101=PRESENTATION_STYLE_ASSIGNMENT((#214));
#102=ADVANCED_FACE('Unnamed[1]',(#215,#216),#217,.T.);
#103=PRESENTATION_STYLE_ASSIGNMENT((#218));
#104=EDGE_CURVE('Unnamed[1]',#219,#219,#220,.T.);
#105=PRESENTATION_STYLE_ASSIGNMENT((#221));
#106=PRESENTATION_STYLE_ASSIGNMENT((#222));
#107=ADVANCED_FACE('Unnamed[1]',(#223),#224,.T.);
#108=PRESENTATION_STYLE_ASSIGNMENT((#225));
#109=EDGE_CURVE('Unnamed[1]',#226,#226,#227,.T.);
#110=PRESENTATION_STYLE_ASSIGNMENT((#228));
#111=PRESENTATION_STYLE_ASSIGNMENT((#229));
#112=ADVANCED_FACE('Unnamed[1]',(#230,#231),#232,.T.);
#113=PRESENTATION_STYLE_ASSIGNMENT((#233));
#114=PRESENTATION_STYLE_ASSIGNMENT((#234));
#115=ADVANCED_FACE('Unnamed[1]',(#235,#236),#237,.T.);
#116=PRESENTATION_STYLE_ASSIGNMENT((#238));
#117=PRESENTATION_STYLE_ASSIGNMENT((#239));
#118=ADVANCED_FACE('Unnamed[1]',(#240,#241),#242,.T.);
#119=PRESENTATION_STYLE_ASSIGNMENT((#243));
#120=PRESENTATION_STYLE_ASSIGNMENT((#244));
#121=ADVANCED_FACE('Unnamed[1]',(#245,#246),#247,.T.);
#122=PRODUCT('Unnamed[1]','Unnamed[1]','PART-Unnamed[1]-DESC',(#248));
#123=PRODUCT_DEFINITION('NONE','NONE',#249,#2);
#124=AXIS2_PLACEMENT_3D('',#250,#251,#252);
#127=LENGTH_MEASURE_WITH_UNIT(LENGTH_MEASURE(1.0),#253);
#130=DIMENSIONAL_EXPONENTS(1.0,0.0,0.0,0.0,0.0,0.0,0.0);
#132=DIMENSIONAL_EXPONENTS(0.0,0.0,0.0,0.0,0.0,0.0,0.0);
#138=SURFACE_STYLE_USAGE(.BOTH.,#254);
#139=CURVE_STYLE('',#255,POSITIVE_LENGTH_MEASURE(1000.0),#256);
#140=FACE_OUTER_BOUND('',#257,.T.);
#141=PLANE('',#258);
#142=SURFACE_STYLE_USAGE(.BOTH.,#259);
#143=CURVE_STYLE('',#260,POSITIVE_LENGTH_MEASURE(1000.0),#261);
#144=FACE_BOUND('',#262,.T.);
#145=FACE_BOUND('',#263,.T.);
#146=CYLINDRICAL_SURFACE('',#264,10.0);
#147=SURFACE_STYLE_USAGE(.BOTH.,#265);
#148=CURVE_STYLE('',#266,POSITIVE_LENGTH_MEASURE(1000.0),#267);
#149=FACE_BOUND('',#268,.T.);
#150=FACE_BOUND('',#269,.T.);
#151=CYLINDRICAL_SURFACE('',#270,10.0);
#152=CURVE_STYLE('',#271,POSITIVE_LENGTH_MEASURE(1000.0),#272);
#153=VERTEX_POINT('',#273);
#154=CIRCLE('',#274,13.0);
#155=CURVE_STYLE('',#275,POSITIVE_LENGTH_MEASURE(1000.0),#276);
#156=VERTEX_POINT('',#277);
#157=CIRCLE('',#278,10.15);
#158=SURFACE_STYLE_USAGE(.BOTH.,#279);
#159=CURVE_STYLE('',#280,POSITIVE_LENGTH_MEASURE(1000.0),#281);
#160=CLOSED_SHELL('',(#107,#56,#121,#112,#80,#73,#59,#92,#97,#115,#102,#83,#118,#53));
#161=CURVE_STYLE('',#282,POSITIVE_LENGTH_MEASURE(1000.0),#283);
#162=VERTEX_POINT('',#284);
#163=CIRCLE('',#285,10.0);
#164=CURVE_STYLE('',#286,POSITIVE_LENGTH_MEASURE(1000.0),#287);
#165=VERTEX_POINT('',#288);
#166=CIRCLE('',#289,8.2);
#167=SURFACE_STYLE_USAGE(.BOTH.,#290);
#168=CURVE_STYLE('',#291,POSITIVE_LENGTH_MEASURE(1000.0),#292);
#169=FACE_BOUND('',#293,.T.);
#170=FACE_BOUND('',#294,.T.);
#171=CONICAL_SURFACE('',#295,11.75,1.11745279354846);
#172=CURVE_STYLE('',#296,POSITIVE_LENGTH_MEASURE(1000.0),#297);
#173=VERTEX_POINT('',#298);
#174=CIRCLE('',#299,10.0);
#175=CURVE_STYLE('',#300,POSITIVE_LENGTH_MEASURE(1000.0),#301);
#176=VERTEX_POINT('',#302);
#177=CIRCLE('',#303,13.5);
#178=SURFACE_STYLE_USAGE(.BOTH.,#304);
#179=CURVE_STYLE('',#305,POSITIVE_LENGTH_MEASURE(1000.0),#306);
#180=FACE_BOUND('',#307,.T.);
#181=FACE_BOUND('',#308,.T.);
#182=CYLINDRICAL_SURFACE('',#309,13.5);
#183=SURFACE_STYLE_USAGE(.BOTH.,#310);
#184=CURVE_STYLE('',#311,POSITIVE_LENGTH_MEASURE(1000.0),#312);
#185=FACE_BOUND('',#313,.T.);
#186=FACE_BOUND('',#314,.T.);
#187=CONICAL_SURFACE('',#315,10.075,0.523598777490519);
#188=CURVE_STYLE('',#316,POSITIVE_LENGTH_MEASURE(1000.0),#317);
#189=VERTEX_POINT('',#318);
#190=CIRCLE('',#319,10.0);
#191=CURVE_STYLE('',#320,POSITIVE_LENGTH_MEASURE(1000.0),#321);
#192=VERTEX_POINT('',#322);
#193=CIRCLE('',#323,10.15);
#194=CURVE_STYLE('',#324,POSITIVE_LENGTH_MEASURE(1000.0),#325);
#195=VERTEX_POINT('',#326);
#196=CIRCLE('',#327,8.2);
#197=SURFACE_STYLE_USAGE(.BOTH.,#328);
#198=CURVE_STYLE('',#329,POSITIVE_LENGTH_MEASURE(1000.0),#330);
#199=FACE_BOUND('',#331,.T.);
#200=FACE_OUTER_BOUND('',#332,.T.);
#201=PLANE('',#333);
#202=CURVE_STYLE('',#334,POSITIVE_LENGTH_MEASURE(1000.0),#335);
#203=VERTEX_POINT('',#336);
#204=CIRCLE('',#337,10.0);
#205=SURFACE_STYLE_USAGE(.BOTH.,#338);
#206=CURVE_STYLE('',#339,POSITIVE_LENGTH_MEASURE(1000.0),#340);
#207=FACE_BOUND('',#341,.T.);
#208=FACE_BOUND('',#342,.T.);
#209=CYLINDRICAL_SURFACE('',#343,8.2);
#210=CURVE_STYLE('',#344,POSITIVE_LENGTH_MEASURE(1000.0),#345);
#211=VERTEX_POINT('',#346);
#212=CIRCLE('',#347,13.5);
#213=SURFACE_STYLE_USAGE(.BOTH.,#348);
#214=CURVE_STYLE('',#349,POSITIVE_LENGTH_MEASURE(1000.0),#350);
#215=FACE_BOUND('',#351,.T.);
#216=FACE_BOUND('',#352,.T.);
#217=CYLINDRICAL_SURFACE('',#353,10.15);
#218=CURVE_STYLE('',#354,POSITIVE_LENGTH_MEASURE(1000.0),#355);
#219=VERTEX_POINT('',#356);
#220=CIRCLE('',#357,10.0);
#221=SURFACE_STYLE_USAGE(.BOTH.,#358);
#222=CURVE_STYLE('',#359,POSITIVE_LENGTH_MEASURE(1000.0),#360);
#223=FACE_OUTER_BOUND('',#361,.T.);
#224=PLANE('',#362);
#225=CURVE_STYLE('',#363,POSITIVE_LENGTH_MEASURE(1000.0),#364);
#226=VERTEX_POINT('',#365);
#227=CIRCLE('',#366,10.0);
#228=SURFACE_STYLE_USAGE(.BOTH.,#367);
#229=CURVE_STYLE('',#368,POSITIVE_LENGTH_MEASURE(1000.0),#369);
#230=FACE_BOUND('',#370,.T.);
#231=FACE_BOUND('',#371,.T.);
#232=CONICAL_SURFACE('',#372,13.25,0.349065845655957);
#233=SURFACE_STYLE_USAGE(.BOTH.,#373);
#234=CURVE_STYLE('',#374,POSITIVE_LENGTH_MEASURE(1000.0),#375);
#235=FACE_OUTER_BOUND('',#376,.T.);
#236=FACE_BOUND('',#377,.T.);
#237=PLANE('',#378);
#238=SURFACE_STYLE_USAGE(.BOTH.,#379);
#239=CURVE_STYLE('',#380,POSITIVE_LENGTH_MEASURE(1000.0),#381);
#240=FACE_BOUND('',#382,.T.);
#241=FACE_BOUND('',#383,.T.);
#242=CYLINDRICAL_SURFACE('',#384,10.0);
#243=SURFACE_STYLE_USAGE(.BOTH.,#385);
#244=CURVE_STYLE('',#386,POSITIVE_LENGTH_MEASURE(1000.0),#387);
#245=FACE_OUTER_BOUND('',#388,.T.);
#246=FACE_BOUND('',#389,.T.);
#247=PLANE('',#390);
#248=PRODUCT_CONTEXT('',#38,'mechanical');
#249=PRODUCT_DEFINITION_FORMATION_WITH_SPECIFIED_SOURCE(' ','NONE',#122,.NOT_KNOWN.);
#250=CARTESIAN_POINT('',(0.0,0.0,0.0));
#251=DIRECTION('',(0.0,0.0,1.0));
#252=DIRECTION('',(1.0,0.0,0.0));
#253= (NAMED_UNIT(#130)LENGTH_UNIT()SI_UNIT(.MILLI.,.METRE.));
#254=SURFACE_SIDE_STYLE('',(#392));
#255=DRAUGHTING_PRE_DEFINED_CURVE_FONT('continuous');
#256=COLOUR_RGB('',0.0,1.0,0.0);
#257=EDGE_LOOP('',(#393));
#258=AXIS2_PLACEMENT_3D('',#394,#395,#396);
#259=SURFACE_SIDE_STYLE('',(#397));
#260=DRAUGHTING_PRE_DEFINED_CURVE_FONT('continuous');
#261=COLOUR_RGB('',0.0,1.0,0.0);
#262=EDGE_LOOP('',(#398));
#263=EDGE_LOOP('',(#399));
#264=AXIS2_PLACEMENT_3D('',#400,#401,#402);
#265=SURFACE_SIDE_STYLE('',(#403));
#266=DRAUGHTING_PRE_DEFINED_CURVE_FONT('continuous');
#267=COLOUR_RGB('',0.0,1.0,0.0);
#268=EDGE_LOOP('',(#404));
#269=EDGE_LOOP('',(#405));
#270=AXIS2_PLACEMENT_3D('',#406,#407,#408);
#271=DRAUGHTING_PRE_DEFINED_CURVE_FONT('continuous');
#272=COLOUR_RGB('',0.0,1.0,0.0);
#273=CARTESIAN_POINT('',(-2.34213700398164E-015,13.0,38.25000001));
#274=AXIS2_PLACEMENT_3D('',#409,#410,#411);
#275=DRAUGHTING_PRE_DEFINED_CURVE_FONT('continuous');
#276=COLOUR_RGB('',0.0,1.0,0.0);
#277=CARTESIAN_POINT('',(-1.16341445918999E-015,10.15,19.0));
#278=AXIS2_PLACEMENT_3D('',#412,#413,#414);
#279=SURFACE_SIDE_STYLE('',(#415));
#280=DRAUGHTING_PRE_DEFINED_CURVE_FONT('continuous');
#281=COLOUR_RGB('',0.0,1.0,0.0);
#282=DRAUGHTING_PRE_DEFINED_CURVE_FONT('continuous');
#283=COLOUR_RGB('',0.0,1.0,0.0);
#284=CARTESIAN_POINT('',(-5.06697613147217E-015,9.99999999999999,82.75));
#285=AXIS2_PLACEMENT_3D('',#416,#417,#418);
#286=DRAUGHTING_PRE_DEFINED_CURVE_FONT('continuous');
#287=COLOUR_RGB('',0.0,1.0,0.0);
#288=CARTESIAN_POINT('',(-1.28587913910472E-015,8.2,21.0));
#289=AXIS2_PLACEMENT_3D('',#419,#420,#421);
#290=SURFACE_SIDE_STYLE('',(#422));
#291=DRAUGHTING_PRE_DEFINED_CURVE_FONT('continuous');
#292=COLOUR_RGB('',0.0,1.0,0.0);
#293=EDGE_LOOP('',(#423));
#294=EDGE_LOOP('',(#424));
#295=AXIS2_PLACEMENT_3D('',#425,#426,#427);
#296=DRAUGHTING_PRE_DEFINED_CURVE_FONT('continuous');
#297=COLOUR_RGB('',0.0,1.0,0.0);
#298=CARTESIAN_POINT('',(0.0,10.0,0.0));
#299=AXIS2_PLACEMENT_3D('',#428,#429,#430);
#300=DRAUGHTING_PRE_DEFINED_CURVE_FONT('continuous');
#301=COLOUR_RGB('',0.0,1.0,0.0);
#302=CARTESIAN_POINT('',(-1.94412679330888E-015,13.5,31.7499999944874));
#303=AXIS2_PLACEMENT_3D('',#431,#432,#433);
#304=SURFACE_SIDE_STYLE('',(#434));
#305=DRAUGHTING_PRE_DEFINED_CURVE_FONT('continuous');
#306=COLOUR_RGB('',0.0,1.0,0.0);
#307=EDGE_LOOP('',(#435));
#308=EDGE_LOOP('',(#436));
#309=AXIS2_PLACEMENT_3D('',#437,#438,#439);
#310=SURFACE_SIDE_STYLE('',(#440));
#311=DRAUGHTING_PRE_DEFINED_CURVE_FONT('continuous');
#312=COLOUR_RGB('',0.0,1.0,0.0);
#313=EDGE_LOOP('',(#441));
#314=EDGE_LOOP('',(#442));
#315=AXIS2_PLACEMENT_3D('',#443,#444,#445);
#316=DRAUGHTING_PRE_DEFINED_CURVE_FONT('continuous');
#317=COLOUR_RGB('',0.0,1.0,0.0);
#318=CARTESIAN_POINT('',(-1.14750583067863E-015,10.0,18.74019238));
#319=AXIS2_PLACEMENT_3D('',#446,#447,#448);
#320=DRAUGHTING_PRE_DEFINED_CURVE_FONT('continuous');
#321=COLOUR_RGB('',0.0,1.0,0.0);
#322=CARTESIAN_POINT('',(-1.28587913910472E-015,10.15,21.0));
#323=AXIS2_PLACEMENT_3D('',#449,#450,#451);
#324=DRAUGHTING_PRE_DEFINED_CURVE_FONT('continuous');
#325=COLOUR_RGB('',0.0,1.0,0.0);
#326=CARTESIAN_POINT('',(-1.34711147906209E-015,8.2,22.0));
#327=AXIS2_PLACEMENT_3D('',#452,#453,#454);
#328=SURFACE_SIDE_STYLE('',(#455));
#329=DRAUGHTING_PRE_DEFINED_CURVE_FONT('continuous');
#330=COLOUR_RGB('',0.0,1.0,0.0);
#331=EDGE_LOOP('',(#456));
#332=EDGE_LOOP('',(#457));
#333=AXIS2_PLACEMENT_3D('',#458,#459,#460);
#334=DRAUGHTING_PRE_DEFINED_CURVE_FONT('continuous');
#335=COLOUR_RGB('',0.0,1.0,0.0);
#336=CARTESIAN_POINT('',(-1.34711147906209E-015,10.0,22.0));
#337=AXIS2_PLACEMENT_3D('',#461,#462,#463);
#338=SURFACE_SIDE_STYLE('',(#464));
#339=DRAUGHTING_PRE_DEFINED_CURVE_FONT('continuous');
#340=COLOUR_RGB('',0.0,1.0,0.0);
#341=EDGE_LOOP('',(#465));
#342=EDGE_LOOP('',(#466));
#343=AXIS2_PLACEMENT_3D('',#467,#468,#469);
#344=DRAUGHTING_PRE_DEFINED_CURVE_FONT('continuous');
#345=COLOUR_RGB('',0.0,1.0,0.0);
#346=CARTESIAN_POINT('',(-2.25801976705367E-015,13.5,36.87626128));
#347=AXIS2_PLACEMENT_3D('',#470,#471,#472);
#348=SURFACE_SIDE_STYLE('',(#473));
#349=DRAUGHTING_PRE_DEFINED_CURVE_FONT('continuous');
#350=COLOUR_RGB('',0.0,1.0,0.0);
#351=EDGE_LOOP('',(#474));
#352=EDGE_LOOP('',(#475));
#353=AXIS2_PLACEMENT_3D('',#476,#477,#478);
#354=DRAUGHTING_PRE_DEFINED_CURVE_FONT('continuous');
#355=COLOUR_RGB('',0.0,1.0,0.0);
#356=CARTESIAN_POINT('',(-1.83971652060328E-015,10.0,30.04485084));
#357=AXIS2_PLACEMENT_3D('',#479,#480,#481);
#358=SURFACE_SIDE_STYLE('',(#482));
#359=DRAUGHTING_PRE_DEFINED_CURVE_FONT('continuous');
#360=COLOUR_RGB('',0.0,1.0,0.0);
#361=EDGE_LOOP('',(#483));
#362=AXIS2_PLACEMENT_3D('',#484,#485,#486);
#363=DRAUGHTING_PRE_DEFINED_CURVE_FONT('continuous');
#364=COLOUR_RGB('',0.0,1.0,0.0);
#365=CARTESIAN_POINT('',(-2.34213700336931E-015,10.0,38.25));
#366=AXIS2_PLACEMENT_3D('',#487,#488,#489);
#367=SURFACE_SIDE_STYLE('',(#490));
#368=DRAUGHTING_PRE_DEFINED_CURVE_FONT('continuous');
#369=COLOUR_RGB('',0.0,1.0,0.0);
#370=EDGE_LOOP('',(#491));
#371=EDGE_LOOP('',(#492));
#372=AXIS2_PLACEMENT_3D('',#493,#494,#495);
#373=SURFACE_SIDE_STYLE('',(#496));
#374=DRAUGHTING_PRE_DEFINED_CURVE_FONT('continuous');
#375=COLOUR_RGB('',0.0,1.0,0.0);
#376=EDGE_LOOP('',(#497));
#377=EDGE_LOOP('',(#498));
#378=AXIS2_PLACEMENT_3D('',#499,#500,#501);
#379=SURFACE_SIDE_STYLE('',(#502));
#380=DRAUGHTING_PRE_DEFINED_CURVE_FONT('continuous');
#381=COLOUR_RGB('',0.0,1.0,0.0);
#382=EDGE_LOOP('',(#503));
#383=EDGE_LOOP('',(#504));
#384=AXIS2_PLACEMENT_3D('',#505,#506,#507);
#385=SURFACE_SIDE_STYLE('',(#508));
#386=DRAUGHTING_PRE_DEFINED_CURVE_FONT('continuous');
#387=COLOUR_RGB('',0.0,1.0,0.0);
#388=EDGE_LOOP('',(#509));
#389=EDGE_LOOP('',(#510));
#390=AXIS2_PLACEMENT_3D('',#511,#512,#513);
#392=SURFACE_STYLE_FILL_AREA(#514);
#393=ORIENTED_EDGE('',*,*,#75,.T.);
#394=CARTESIAN_POINT('',(0.0,5.0,0.0));
#395=DIRECTION('',(6.12323399573677E-017,1.22464679914735E-016,-1.0));
#396=DIRECTION('',(-1.23259516440783E-032,1.0,1.22464679914735E-016));
#397=SURFACE_STYLE_FILL_AREA(#515);
#398=ORIENTED_EDGE('',*,*,#109,.F.);
#399=ORIENTED_EDGE('',*,*,#68,.T.);
#400=CARTESIAN_POINT('',(-3.70455656742074E-015,-7.40911313484149E-015,60.5));
#401=DIRECTION('',(6.12323399573677E-017,1.22464679914735E-016,-1.0));
#402=DIRECTION('',(-1.23259516440783E-032,1.0,1.22464679914735E-016));
#403=SURFACE_STYLE_FILL_AREA(#516);
#404=ORIENTED_EDGE('',*,*,#94,.F.);
#405=ORIENTED_EDGE('',*,*,#104,.T.);
#406=CARTESIAN_POINT('',(-1.59341399983269E-015,-3.18682799966537E-015,26.02242542));
#407=DIRECTION('',(6.12323399573677E-017,1.22464679914735E-016,-1.0));
#408=DIRECTION('',(-1.23259516440783E-032,1.0,1.22464679914735E-016));
#409=CARTESIAN_POINT('',(-2.34213700398164E-015,-4.68427400796327E-015,38.25000001));
#410=DIRECTION('',(6.12323399573677E-017,1.22464679914735E-016,-1.0));
#411=DIRECTION('',(-1.23259516440783E-032,1.0,1.22464679914735E-016));
#412=CARTESIAN_POINT('',(-1.16341445918999E-015,-2.32682891837997E-015,19.0));
#413=DIRECTION('',(6.12323399573677E-017,1.22464679914735E-016,-1.0));
#414=DIRECTION('',(-1.23259516440783E-032,1.0,1.22464679914735E-016));
#415=SURFACE_STYLE_FILL_AREA(#517);
#416=CARTESIAN_POINT('',(-5.06697613147217E-015,-1.01339522629443E-014,82.75));
#417=DIRECTION('',(6.12323399573677E-017,1.22464679914735E-016,-1.0));
#418=DIRECTION('',(-1.23259516440783E-032,1.0,1.22464679914735E-016));
#419=CARTESIAN_POINT('',(-1.28587913910472E-015,-2.57175827820944E-015,21.0));
#420=DIRECTION('',(6.12323399573677E-017,1.22464679914735E-016,-1.0));
#421=DIRECTION('',(-1.23259516440783E-032,1.0,1.22464679914735E-016));
#422=SURFACE_STYLE_FILL_AREA(#518);
#423=ORIENTED_EDGE('',*,*,#104,.F.);
#424=ORIENTED_EDGE('',*,*,#77,.T.);
#425=CARTESIAN_POINT('',(-1.89192165695608E-015,-3.78384331391216E-015,30.8974254172437));
#426=DIRECTION('',(-6.12323399573677E-017,-1.22464679914735E-016,1.0));
#427=DIRECTION('',(-1.23259516440783E-032,1.0,1.22464679914735E-016));
#428=CARTESIAN_POINT('',(0.0,0.0,0.0));
#429=DIRECTION('',(6.12323399573677E-017,1.22464679914735E-016,-1.0));
#430=DIRECTION('',(-1.23259516440783E-032,1.0,1.22464679914735E-016));
#431=CARTESIAN_POINT('',(-1.94412679330888E-015,-3.88825358661775E-015,31.7499999944874));
#432=DIRECTION('',(6.12323399573677E-017,1.22464679914735E-016,-1.0));
#433=DIRECTION('',(-1.23259516440783E-032,1.0,1.22464679914735E-016));
#434=SURFACE_STYLE_FILL_AREA(#519);
#435=ORIENTED_EDGE('',*,*,#77,.F.);
#436=ORIENTED_EDGE('',*,*,#99,.T.);
#437=CARTESIAN_POINT('',(-2.10107328018128E-015,-4.20214656036255E-015,34.3131306372437));
#438=DIRECTION('',(6.12323399573677E-017,1.22464679914735E-016,-1.0));
#439=DIRECTION('',(-1.23259516440783E-032,1.0,1.22464679914735E-016));
#440=SURFACE_STYLE_FILL_AREA(#520);
#441=ORIENTED_EDGE('',*,*,#85,.F.);
#442=ORIENTED_EDGE('',*,*,#63,.T.);
#443=CARTESIAN_POINT('',(-1.15546014493431E-015,-2.31092028986862E-015,18.87009619));
#444=DIRECTION('',(-6.12323399573677E-017,-1.22464679914735E-016,1.0));
#445=DIRECTION('',(-1.23259516440783E-032,1.0,1.22464679914735E-016));
#446=CARTESIAN_POINT('',(-1.14750583067863E-015,-2.29501166135726E-015,18.74019238));
#447=DIRECTION('',(6.12323399573677E-017,1.22464679914735E-016,-1.0));
#448=DIRECTION('',(-1.23259516440783E-032,1.0,1.22464679914735E-016));
#449=CARTESIAN_POINT('',(-1.28587913910472E-015,-2.57175827820944E-015,21.0));
#450=DIRECTION('',(6.12323399573677E-017,1.22464679914735E-016,-1.0));
#451=DIRECTION('',(-1.23259516440783E-032,1.0,1.22464679914735E-016));
#452=CARTESIAN_POINT('',(-1.34711147906209E-015,-2.69422295812418E-015,22.0));
#453=DIRECTION('',(6.12323399573677E-017,1.22464679914735E-016,-1.0));
#454=DIRECTION('',(-1.23259516440783E-032,1.0,1.22464679914735E-016));
#455=SURFACE_STYLE_FILL_AREA(#521);
#456=ORIENTED_EDGE('',*,*,#89,.F.);
#457=ORIENTED_EDGE('',*,*,#94,.T.);
#458=CARTESIAN_POINT('',(-1.34711147906209E-015,9.1,22.0));
#459=DIRECTION('',(6.12323399573677E-017,1.22464679914735E-016,-1.0));
#460=DIRECTION('',(-1.23259516440783E-032,1.0,1.22464679914735E-016));
#461=CARTESIAN_POINT('',(-1.34711147906209E-015,-2.69422295812418E-015,22.0));
#462=DIRECTION('',(6.12323399573677E-017,1.22464679914735E-016,-1.0));
#463=DIRECTION('',(-1.23259516440783E-032,1.0,1.22464679914735E-016));
#464=SURFACE_STYLE_FILL_AREA(#522);
#465=ORIENTED_EDGE('',*,*,#70,.F.);
#466=ORIENTED_EDGE('',*,*,#89,.T.);
#467=CARTESIAN_POINT('',(-1.3164953090834E-015,-2.63299061816681E-015,21.5));
#468=DIRECTION('',(6.12323399573677E-017,1.22464679914735E-016,-1.0));
#469=DIRECTION('',(-1.23259516440783E-032,1.0,1.22464679914735E-016));
#470=CARTESIAN_POINT('',(-2.25801976705367E-015,-4.51603953410735E-015,36.87626128));
#471=DIRECTION('',(6.12323399573677E-017,1.22464679914735E-016,-1.0));
#472=DIRECTION('',(-1.23259516440783E-032,1.0,1.22464679914735E-016));
#473=SURFACE_STYLE_FILL_AREA(#523);
#474=ORIENTED_EDGE('',*,*,#63,.F.);
#475=ORIENTED_EDGE('',*,*,#87,.T.);
#476=CARTESIAN_POINT('',(-1.22464679914735E-015,-2.44929359829471E-015,20.0));
#477=DIRECTION('',(6.12323399573677E-017,1.22464679914735E-016,-1.0));
#478=DIRECTION('',(-1.23259516440783E-032,1.0,1.22464679914735E-016));
#479=CARTESIAN_POINT('',(-1.83971652060328E-015,-3.67943304120657E-015,30.04485084));
#480=DIRECTION('',(6.12323399573677E-017,1.22464679914735E-016,-1.0));
#481=DIRECTION('',(-1.23259516440783E-032,1.0,1.22464679914735E-016));
#482=SURFACE_STYLE_FILL_AREA(#524);
#483=ORIENTED_EDGE('',*,*,#68,.F.);
#484=CARTESIAN_POINT('',(-5.06697613147217E-015,4.99999999999999,82.75));
#485=DIRECTION('',(-6.12323399573677E-017,-1.22464679914735E-016,1.0));
#486=DIRECTION('',(1.23259516440783E-032,-1.0,-1.22464679914735E-016));
#487=CARTESIAN_POINT('',(-2.34213700336931E-015,-4.68427400673862E-015,38.25));
#488=DIRECTION('',(6.12323399573677E-017,1.22464679914735E-016,-1.0));
#489=DIRECTION('',(-1.23259516440783E-032,1.0,1.22464679914735E-016));
#490=SURFACE_STYLE_FILL_AREA(#525);
#491=ORIENTED_EDGE('',*,*,#99,.F.);
#492=ORIENTED_EDGE('',*,*,#61,.T.);
#493=CARTESIAN_POINT('',(-2.30007838551766E-015,-4.60015677103531E-015,37.563130645));
#494=DIRECTION('',(6.12323399573677E-017,1.22464679914735E-016,-1.0));
#495=DIRECTION('',(-1.23259516440783E-032,1.0,1.22464679914735E-016));
#496=SURFACE_STYLE_FILL_AREA(#526);
#497=ORIENTED_EDGE('',*,*,#87,.F.);
#498=ORIENTED_EDGE('',*,*,#70,.T.);
#499=CARTESIAN_POINT('',(-1.28587913910472E-015,9.175,21.0));
#500=DIRECTION('',(-6.12323399573677E-017,-1.22464679914735E-016,1.0));
#501=DIRECTION('',(1.23259516440783E-032,-1.0,-1.22464679914735E-016));
#502=SURFACE_STYLE_FILL_AREA(#527);
#503=ORIENTED_EDGE('',*,*,#75,.F.);
#504=ORIENTED_EDGE('',*,*,#85,.T.);
#505=CARTESIAN_POINT('',(-5.73752915339315E-016,-1.14750583067863E-015,9.37009619));
#506=DIRECTION('',(6.12323399573677E-017,1.22464679914735E-016,-1.0));
#507=DIRECTION('',(-1.23259516440783E-032,1.0,1.22464679914735E-016));
#508=SURFACE_STYLE_FILL_AREA(#528);
#509=ORIENTED_EDGE('',*,*,#61,.F.);
#510=ORIENTED_EDGE('',*,*,#109,.T.);
#511=CARTESIAN_POINT('',(-2.34213700367547E-015,11.5,38.250000005));
#512=DIRECTION('',(-6.12323399573677E-017,-3.3333331394803E-009,1.0));
#513=DIRECTION('',(2.0410779281497E-025,-1.0,-3.3333331394803E-009));
#514=FILL_AREA_STYLE('',(#529));
#515=FILL_AREA_STYLE('',(#530));
#516=FILL_AREA_STYLE('',(#531));
#517=FILL_AREA_STYLE('',(#532));
#518=FILL_AREA_STYLE('',(#533));
#519=FILL_AREA_STYLE('',(#534));
#520=FILL_AREA_STYLE('',(#535));
#521=FILL_AREA_STYLE('',(#536));
#522=FILL_AREA_STYLE('',(#537));
#523=FILL_AREA_STYLE('',(#538));
#524=FILL_AREA_STYLE('',(#539));
#525=FILL_AREA_STYLE('',(#540));
#526=FILL_AREA_STYLE('',(#541));
#527=FILL_AREA_STYLE('',(#542));
#528=FILL_AREA_STYLE('',(#543));
#529=FILL_AREA_STYLE_COLOUR('',#544);
#530=FILL_AREA_STYLE_COLOUR('',#545);
#531=FILL_AREA_STYLE_COLOUR('',#546);
#532=FILL_AREA_STYLE_COLOUR('',#547);
#533=FILL_AREA_STYLE_COLOUR('',#548);
#534=FILL_AREA_STYLE_COLOUR('',#549);
#535=FILL_AREA_STYLE_COLOUR('',#550);
#536=FILL_AREA_STYLE_COLOUR('',#551);
#537=FILL_AREA_STYLE_COLOUR('',#552);
#538=FILL_AREA_STYLE_COLOUR('',#553);
#539=FILL_AREA_STYLE_COLOUR('',#554);
#540=FILL_AREA_STYLE_COLOUR('',#555);
#541=FILL_AREA_STYLE_COLOUR('',#556);
#542=FILL_AREA_STYLE_COLOUR('',#557);
#543=FILL_AREA_STYLE_COLOUR('',#558);
#544=COLOUR_RGB('',0.0,1.0,0.0);
#545=COLOUR_RGB('',0.0,1.0,0.0);
#546=COLOUR_RGB('',0.0,1.0,0.0);
#547=COLOUR_RGB('',0.0,1.0,0.0);
#548=COLOUR_RGB('',0.0,1.0,0.0);
#549=COLOUR_RGB('',0.0,1.0,0.0);
#550=COLOUR_RGB('',0.0,1.0,0.0);
#551=COLOUR_RGB('',0.0,1.0,0.0);
#552=COLOUR_RGB('',0.0,1.0,0.0);
#553=COLOUR_RGB('',0.0,1.0,0.0);
#554=COLOUR_RGB('',0.0,1.0,0.0);
#555=COLOUR_RGB('',0.0,1.0,0.0);
#556=COLOUR_RGB('',0.0,1.0,0.0);
#557=COLOUR_RGB('',0.0,1.0,0.0);
#558=COLOUR_RGB('',0.0,1.0,0.0);
ENDSEC;
END-ISO-10303-21;
