  0
SECTION
  2
HEADER
  9
$ACADVER
  1
AC1009
  9
$INSBASE
 10
0.0
 20
0.0
 30
0.0
  9
$EXTMIN
 10
-52.0
 20
-19.170164365304231
 30
0.0
  9
$EXTMAX
 10
218.0
 20
47.000000000000028
 30
0.0
  9
$LIMMIN
 10
0.0
 20
0.0
  9
$LIMMAX
 10
297.0
 20
210.0
  9
$ORTHOMODE
 70
     0
  9
$REGENMODE
 70
     1
  9
$FILLMODE
 70
     1
  9
$QTEXTMODE
 70
     0
  9
$MIRRTEXT
 70
     1
  9
$DRAGMODE
 70
     2
  9
$LTSCALE
 40
10.0
  9
$OSMODE
 70
    55
  9
$ATTMODE
 70
     1
  9
$TEXTSIZE
 40
3.0
  9
$TRACEWID
 40
1.0
  9
$TEXTSTYLE
  7
YOKO
  9
$CLAYER
  8
240
  9
$CELTYPE
  6
BYLAYER
  9
$CECOLOR
 62
   256
  9
$DIMSCALE
 40
1.0
  9
$DIMASZ
 40
2.2299999999999991
  9
$DIMEXO
 40
0.5
  9
$DIMDLI
 40
7.0
  9
$DIMRND
 40
0.0
  9
$DIMDLE
 40
0.0
  9
$DIMEXE
 40
1.0
  9
$DIMTP
 40
0.0
  9
$DIMTM
 40
0.01
  9
$DIMTXT
 40
2.7999999999999989
  9
$DIMCEN
 40
0.0
  9
$DIMTSZ
 40
0.0
  9
$DIMTOL
 70
     0
  9
$DIMLIM
 70
     0
  9
$DIMTIH
 70
     0
  9
$DIMTOH
 70
     0
  9
$DIMSE1
 70
     0
  9
$DIMSE2
 70
     0
  9
$DIMTAD
 70
     3
  9
$DIMZIN
 70
     9
  9
$DIMBLK
  1
OPEN
  9
$DIMASO
 70
     1
  9
$DIMSHO
 70
     1
  9
$DIMPOST
  1

  9
$DIMAPOST
  1

  9
$DIMALT
 70
     0
  9
$DIMALTD
 70
     2
  9
$DIMALTF
 40
25.399999999999999
  9
$DIMLFAC
 40
1.0
  9
$DIMTOFL
 70
     1
  9
$DIMTVP
 40
0.0
  9
$DIMTIX
 70
     1
  9
$DIMSOXD
 70
     0
  9
$DIMSAH
 70
     0
  9
$DIMBLK1
  1

  9
$DIMBLK2
  1

  9
$DIMSTYLE
  2
BIGT
  9
$DIMCLRD
 70
   256
  9
$DIMCLRE
 70
   256
  9
$DIMCLRT
 70
    40
  9
$DIMTFAC
 40
1.0
  9
$DIMGAP
 40
1.0
  9
$LUNITS
 70
     2
  9
$LUPREC
 70
     6
  9
$SKETCHINC
 40
1.0
  9
$FILLETRAD
 40
0.0
  9
$AUNITS
 70
     0
  9
$AUPREC
 70
     6
  9
$MENU
  1
.
  9
$ELEVATION
 40
0.0
  9
$PELEVATION
 40
0.0
  9
$THICKNESS
 40
0.0
  9
$LIMCHECK
 70
     0
  9
$BLIPMODE
 70
     0
  9
$CHAMFERA
 40
0.2
  9
$CHAMFERB
 40
0.2
  9
$SKPOLY
 70
     0
  9
$TDCREATE
 40
2457791.4636250348
  9
$TDUPDATE
 40
2457792.6141559379
  9
$TDINDWG
 40
0.0083430556
  9
$TDUSRTIMER
 40
0.0083430324
  9
$USRTIMER
 70
     1
  9
$ANGBASE
 50
0.0
  9
$ANGDIR
 70
     0
  9
$PDMODE
 70
     1
  9
$PDSIZE
 40
0.0
  9
$PLINEWID
 40
0.0
  9
$COORDS
 70
     1
  9
$SPLFRAME
 70
     0
  9
$SPLINETYPE
 70
     6
  9
$SPLINESEGS
 70
     4
  9
$ATTDIA
 70
     1
  9
$ATTREQ
 70
     1
  9
$HANDLING
 70
     1
  9
$HANDSEED
  5
4524
  9
$SURFTAB1
 70
     6
  9
$SURFTAB2
 70
     6
  9
$SURFTYPE
 70
     6
  9
$SURFU
 70
     6
  9
$SURFV
 70
     6
  9
$UCSNAME
  2

  9
$UCSORG
 10
0.0
 20
0.0
 30
0.0
  9
$UCSXDIR
 10
1.0
 20
0.0
 30
0.0
  9
$UCSYDIR
 10
0.0
 20
1.0
 30
0.0
  9
$PUCSNAME
  2

  9
$PUCSORG
 10
0.0
 20
0.0
 30
0.0
  9
$PUCSXDIR
 10
1.0
 20
0.0
 30
0.0
  9
$PUCSYDIR
 10
0.0
 20
1.0
 30
0.0
  9
$USERI1
 70
     1
  9
$USERI2
 70
     0
  9
$USERI3
 70
     0
  9
$USERI4
 70
     0
  9
$USERI5
 70
     0
  9
$USERR1
 40
0.0
  9
$USERR2
 40
0.0
  9
$USERR3
 40
0.0
  9
$USERR4
 40
0.0
  9
$USERR5
 40
0.0
  9
$WORLDVIEW
 70
     1
  9
$SHADEDGE
 70
     3
  9
$SHADEDIF
 70
    70
  9
$TILEMODE
 70
     1
  9
$MAXACTVP
 70
    16
  9
$PLIMCHECK
 70
     0
  9
$PEXTMIN
 10
1.0000000000000000E+020
 20
1.0000000000000000E+020
 30
1.0000000000000000E+020
  9
$PEXTMAX
 10
-1.0000000000000000E+020
 20
-1.0000000000000000E+020
 30
-1.0000000000000000E+020
  9
$PLIMMIN
 10
0.0
 20
0.0
  9
$PLIMMAX
 10
420.0
 20
297.0
  9
$UNITMODE
 70
     0
  9
$VISRETAIN
 70
     1
  9
$PLINEGEN
 70
     0
  9
$PSLTSCALE
 70
     1
  0
ENDSEC
  0
SECTION
  2
TABLES
  0
TABLE
  2
VPORT
 70
     1
  0
VPORT
  2
*ACTIVE
 70
     0
 10
0.0
 20
0.0
 11
1.0
 21
1.0
 12
81.620008146616144
 22
35.197900264225837
 13
0.0
 23
0.0
 14
7.0
 24
7.0
 15
7.0
 25
7.0
 16
0.0
 26
0.0
 36
1.0
 17
0.0
 27
0.0
 37
0.0
 40
286.01894609398352
 41
1.4647727272727269
 42
50.0
 43
0.0
 44
0.0
 50
0.0
 51
0.0
 71
     0
 72
  2000
 73
     1
 74
     0
 75
     0
 76
     1
 77
     0
 78
     0
  0
ENDTAB
  0
TABLE
  2
LTYPE
 70
    21
  0
LTYPE
  2
CONTINUOUS
 70
     0
  3
Solid line
 72
    65
 73
     0
 40
0.0
  0
LTYPE
  2
CENTER2
 70
     0
  3
___ _ ___ _ ___ _ ___ _ ___ _ ___ _ ___ _ ___ _
 72
    65
 73
     4
 40
1.125
 49
0.75
 49
-0.125
 49
0.125
 49
-0.125
  0
LTYPE
  2
HIDDEN2
 70
     0
  3
_ _ _ _ _ _ _ _ _ _ _ _ _ _ _ _ _ _ _ _ _ _ _ _
 72
    65
 73
     2
 40
0.1875
 49
0.125
 49
-0.0625
  0
LTYPE
  2
AM_ISO02W050
 70
     0
  3
__ __ __ __ __ __ __ __ __ __ __ __ __ __ __
 72
    65
 73
     2
 40
7.5
 49
6.0
 49
-1.5
  0
LTYPE
  2
AMCONSTR
 70
     0
  3
_______________________
 72
    65
 73
     2
 40
9999.0
 49
9999.0
 49
0.0
  0
LTYPE
  2
ACISOWELD
 70
     0
  3
_ _ _ _ _
 72
    65
 73
     2
 40
2.0
 49
2.0
 49
-1.0
  0
LTYPE
  2
ACISOTGB
 70
     0
  3
__ . . __ . .
 72
    65
 73
     6
 40
9.0
 49
4.0
 49
-1.0
 49
1.0
 49
-1.0
 49
1.0
 49
-1.0
  0
LTYPE
  2
ACISOTGL
 70
     0
  3
_ _ _ _ _
 72
    65
 73
     2
 40
3.0
 49
2.0
 49
-1.0
  0
LTYPE
  2
AM_ISO08W050
 70
     0
  3
____ . ____ . ____ . ____ . ____ . ____ . ____
 72
    65
 73
     4
 40
18.0
 49
12.0
 49
-1.5
 49
3.0
 49
-1.5
  0
LTYPE
  2
AM_ISO09W050
 70
     0
  3
_____ . . _____ . . _____ . . ____ .. ____
 72
    65
 73
     6
 40
22.5
 49
12.0
 49
-1.5
 49
3.0
 49
-1.5
 49
3.0
 49
-1.5
  0
LTYPE
  2
AM_ISO08W050X2
 70
     0
  3
__ . __ . __ . __ . __ . __
 72
    65
 73
     4
 40
9.0
 49
6.0
 49
-0.75
 49
1.5
 49
-0.75
  0
LTYPE
  2
AM_ISO02W050X2
 70
     0
  3
 _ _ _ _ _ _ _ _ _ _ _ _
 72
    65
 73
     2
 40
3.75
 49
3.0
 49
-0.75
  0
LTYPE
  2
AMZIGZAG
 70
     0
  3
/\/-/\/-/\/-/\/-/\/-/\/
 72
    65
 73
     2
 40
11.0001
 49
0.0001
 49
-11.0
  0
ENDTAB
  0
TABLE
  2
LAYER
 70
    10
  0
LAYER
  2
0
 70
     0
 62
     7
  6
CONTINUOUS
  0
LAYER
  2
DEFPOINTS
 70
     0
 62
     7
  6
CONTINUOUS
  0
LAYER
  2
245
 70
     0
 62
     2
  6
CENTER2
  0
LAYER
  2
240
 70
     0
 62
     4
  6
CONTINUOUS
  0
LAYER
  2
241
 70
     0
 62
   211
  6
CONTINUOUS
  0
LAYER
  2
242
 70
     0
 62
     3
  6
CONTINUOUS
  0
LAYER
  2
243
 70
     0
 62
   211
  6
HIDDEN2
  0
LAYER
  2
247
 70
     0
 62
    60
  6
CONTINUOUS
  0
LAYER
  2
250
 70
     0
 62
     3
  6
CONTINUOUS
  0
ENDTAB
  0
TABLE
  2
STYLE
 70
     8
  0
STYLE
  2
STANDARD
 70
     0
 40
0.0
 41
1.0
 50
0.0
 71
     0
 42
3.0
  3
romans.shx
  4
extfont.shx
  0
STYLE
  2
ACISOGDT
 70
     0
 40
0.0
 41
1.0
 50
0.0
 71
     0
 42
3.0
  3
amgdt.shx
  4
extfont.shx
  0
STYLE
  2
YOKO
 70
     0
 40
0.0
 41
1.0
 50
0.0
 71
     0
 42
3.0
  3
romans.shx
  4
extfont.shx
  0
STYLE
  2

 70
     1
 40
0.0
 41
1.0
 50
0.0
 71
     0
 42
3.0
  3
genltshp.shx
  4

  0
ENDTAB
  0
TABLE
  2
VIEW
 70
     0
  0
ENDTAB
  0
TABLE
  2
UCS
 70
     0
  0
ENDTAB
  0
TABLE
  2
APPID
 70
    38
  0
APPID
  2
ACAD
 70
     0
  0
APPID
  2
GLOBAL
 70
     0
  0
APPID
  2
DETAIL
 70
     0
  0
APPID
  2
GRPNAME
 70
     0
  0
APPID
  2
GPARA
 70
     0
  0
APPID
  2
MCAD_NO_VIS
 70
     0
  0
APPID
  2
ACAD_TEMP_GRAPHIC
 70
     0
  0
APPID
  2
ACATTRIBSERVICES
 70
     0
  0
APPID
  2
GENIUS_GENSCREG_15
 70
     0
  0
APPID
  2
GENIUS_GENODEF_13
 70
     0
  0
APPID
  2
GENIUS_GENOBJ-N-SDF_13
 70
     0
  0
APPID
  2
GENIUS_GENREC_14
 70
     0
  0
APPID
  2
GENIUS_GENOBJ-N-REC_13
 70
     0
  0
APPID
  2
GENIUS_GENDIMSH_14
 70
     0
  0
APPID
  2
GENIUS_GENOBJ-N-DIM_13
 70
     0
  0
APPID
  2
GENIUS_GENDIM_13
 70
     0
  0
APPID
  2
GENIUS_GENDTOL_13
 70
     0
  0
APPID
  2
GENIUS_GENOLIS_13
 70
     0
  0
APPID
  2
GENIUS_GENOENT_13
 70
     0
  0
APPID
  2
GENIUS_GENOBJ-F-FEM_13
 70
     0
  0
APPID
  2
GENIUS_GENOREF_13
 70
     0
  0
APPID
  2
GENIUS_GEFFEM_13
 70
     0
  0
APPID
  2
GENIUS_GEFFEMP_13
 70
     0
  0
APPID
  2
AD_DRAW
 70
     0
  0
APPID
  2
DESIGNERASSEMBLIES
 70
     0
  0
APPID
  2
ACADM_DIM_EDIT
 70
     0
  0
APPID
  2
AMDT_DM_ADJ
 70
     0
  0
APPID
  2
ITEMNAME
 70
     0
  0
APPID
  2
GENIUS_GENOBJ-N-FIL_13
 70
     0
  0
APPID
  2
GENIUS_GENFIL_13
 70
     0
  0
APPID
  2
GENIUS_GENOBJ-N-CHA_13
 70
     0
  0
APPID
  2
ACAECLAYERSTANDARD
 70
     0
  0
APPID
  2
ACAD_NAV_VCDISPLAY
 70
     0
  0
APPID
  2
GENIUS_GENOBJ-N-CEN_13
 70
     0
  0
APPID
  2
ACAD_EXEMPT_FROM_CAD_STANDARDS
 70
     0
  0
APPID
  2
ACAD_MLEADERVER
 70
     0
  0
APPID
  2
ACAD_DSTYLE_DIMBREAK
 70
     0
  0
APPID
  2
ACAD_DSTYLE_DIMJAG
 70
     0
  0
ENDTAB
  0
TABLE
  2
DIMSTYLE
 70
    29
  0
DIMSTYLE
  2
BIGT
 70
     0
  3

  4

  5
OPEN
  6

  7

 40
1.0
 41
2.2299999999999991
 42
0.5
 43
7.0
 44
1.0
 45
0.0
 46
0.0
 47
0.0
 48
0.01
140
2.7999999999999989
141
0.0
142
0.0
143
25.399999999999999
144
1.0
145
0.0
146
1.0
147
1.0
 71
     0
 72
     0
 73
     0
 74
     0
 75
     0
 76
     0
 77
     3
 78
     9
170
     0
171
     2
172
     1
173
     0
174
     1
175
     0
176
   256
177
   256
178
    40
  0
DIMSTYLE
  2
AM_ISO
 70
     0
  3

  4
"
  5

  6

  7

 40
1.0
 41
2.5
 42
1.0
 43
10.0
 44
1.0
 45
0.0
 46
0.0
 47
0.1
 48
0.1
140
3.5
141
0.0
142
0.0
143
0.0393701
144
1.0
145
0.0
146
0.71
147
1.5
 71
     0
 72
     0
 73
     0
 74
     0
 75
     0
 76
     0
 77
     1
 78
     8
170
     0
171
     2
172
     1
173
     0
174
     0
175
     0
176
   256
177
   256
178
     2
  0
DIMSTYLE
  2
AM_ISO$3
 70
     0
  3

  4
"
  5

  6

  7

 40
1.0
 41
2.5
 42
1.0
 43
10.0
 44
1.0
 45
0.0
 46
0.0
 47
0.1
 48
0.1
140
3.5
141
0.0
142
0.0
143
0.0393701
144
1.0
145
0.0
146
0.71
147
1.5
 71
     0
 72
     0
 73
     0
 74
     1
 75
     0
 76
     0
 77
     1
 78
     8
170
     0
171
     2
172
     0
173
     0
174
     0
175
     0
176
   256
177
   256
178
     2
  0
DIMSTYLE
  2
AM_ISO$4
 70
     0
  3

  4
"
  5

  6

  7

 40
1.0
 41
2.5
 42
1.0
 43
10.0
 44
1.0
 45
0.0
 46
0.0
 47
0.1
 48
0.1
140
3.5
141
0.0
142
0.0
143
0.0393701
144
1.0
145
0.0
146
0.71
147
1.5
 71
     0
 72
     0
 73
     0
 74
     1
 75
     0
 76
     0
 77
     1
 78
     8
170
     0
171
     2
172
     0
173
     0
174
     0
175
     0
176
   256
177
   256
178
     2
  0
DIMSTYLE
  2
AM_ISO$6
 70
     0
  3

  4
"
  5

  6

  7

 40
1.0
 41
2.5
 42
1.0
 43
10.0
 44
1.0
 45
0.0
 46
0.0
 47
0.1
 48
0.1
140
3.5
141
0.0
142
0.0
143
0.0393701
144
1.0
145
0.0
146
0.71
147
1.5
 71
     0
 72
     0
 73
     0
 74
     0
 75
     0
 76
     0
 77
     0
 78
     8
170
     0
171
     2
172
     1
173
     0
174
     0
175
     0
176
   256
177
   256
178
     2
  0
DIMSTYLE
  2
AM_ISO$7
 70
     0
  3

  4
"
  5

  6

  7

 40
1.0
 41
2.5
 42
1.0
 43
10.0
 44
1.0
 45
0.0
 46
0.0
 47
0.1
 48
0.1
140
5.0
141
0.0
142
0.0
143
0.0393701
144
1.0
145
0.0
146
0.71
147
1.5
 71
     0
 72
     0
 73
     0
 74
     0
 75
     0
 76
     0
 77
     1
 78
     8
170
     0
171
     2
172
     1
173
     0
174
     0
175
     0
176
   256
177
   256
178
     2
  0
DIMSTYLE
  2
AM_ISO$SF
 70
     0
  3

  4
"
  5

  6

  7

 40
1.0
 41
2.5
 42
1.0
 43
10.0
 44
1.0
 45
0.0
 46
0.0
 47
0.1
 48
0.1
140
3.5
141
0.0
142
0.0
143
0.0393701
144
1.0
145
0.0
146
0.71
147
1.5
 71
     0
 72
     0
 73
     0
 74
     0
 75
     1
 76
     1
 77
     1
 78
     8
170
     0
171
     2
172
     1
173
     0
174
     0
175
     0
176
   256
177
   256
178
     2
  0
DIMSTYLE
  2
AM_ISO$SH
 70
     0
  3

  4
"
  5

  6
GENAXEH
  7

 40
1.0
 41
2.5
 42
1.0
 43
10.0
 44
1.0
 45
0.0
 46
0.0
 47
0.1
 48
0.1
140
3.5
141
0.0
142
0.0
143
0.0393701
144
2.0
145
0.0
146
0.71
147
1.5
 71
     0
 72
     0
 73
     0
 74
     0
 75
     1
 76
     1
 77
     1
 78
     8
170
     0
171
     2
172
     1
173
     1
174
     0
175
     0
176
   256
177
   256
178
     2
  0
ENDTAB
  0
ENDSEC
  0
SECTION
  2
BLOCKS
  0
BLOCK
  8
0
  2
$MODEL_SPACE
 70
     0
 10
0.0
 20
0.0
 30
0.0
  3
$MODEL_SPACE
  1

  0
ENDBLK
  5
1C
  8
0
  0
BLOCK
 67
     1
  8
0
  2
$PAPER_SPACE
 70
     0
 10
0.0
 20
0.0
 30
0.0
  3
$PAPER_SPACE
  1

  0
ENDBLK
  5
19
 67
     1
  8
0
  0
BLOCK
  8
0
  2
_OPEN
 70
     0
 10
0.0
 20
0.0
 30
0.0
  3
_OPEN
  1

  0
LINE
  5
3E1A
  8
0
  6
BYBLOCK
 62
     0
 10
-1.0
 20
0.1666666666666666
 30
0.0
 11
0.0
 21
0.0
 31
0.0
  0
LINE
  5
3E1B
  8
0
  6
BYBLOCK
 62
     0
 10
-1.0
 20
-0.1666666666666666
 30
0.0
 11
0.0
 21
0.0
 31
0.0
  0
LINE
  5
3E1C
  8
0
  6
BYBLOCK
 62
     0
 10
0.0
 20
0.0
 30
0.0
 11
-1.0
 21
0.0
 31
0.0
  0
ENDBLK
  5
3E1D
  8
0
  0
BLOCK
  8
0
  2
GENAXEH
 70
     0
 10
0.0
 20
0.0
 30
0.0
  3
GENAXEH
  1

  0
LINE
  5
3E45
  8
0
 10
-1.0
 20
0.0
 30
0.0
 11
1.0
 21
0.0
 31
0.0
  0
ENDBLK
  5
3E46
  8
0
  0
ENDSEC
  0
SECTION
  2
ENTITIES
  0
TEXT
  5
42E7
  8
241
  6
CONTINUOUS
 10
-51.0
 20
42.0
 30
0.0
 40
5.0
  1
MGT12-070055-200
  7
YOKO
 11
-51.0
 21
42.0
 31
0.0
 73
     1
  0
LINE
  5
42EA
  8
245
  6
CENTER2
 10
-52.0
 20
0.0
 30
0.0
 11
201.0
 21
0.0
 31
0.0
  0
LINE
  5
42EB
  8
240
  6
CONTINUOUS
 10
-40.499999999999993
 20
8.0
 30
0.0
 11
-35.0
 21
8.0
 31
0.0
  0
LINE
  5
42EC
  8
240
  6
CONTINUOUS
 10
-40.499999999999993
 20
-8.0
 30
0.0
 11
-35.0
 21
-8.0
 31
0.0
  0
LINE
  5
42ED
  8
240
  6
CONTINUOUS
 10
-51.0
 20
-10.0
 30
0.0
 11
-42.5
 21
-10.0
 31
0.0
  0
LINE
  5
42EE
  8
240
  6
CONTINUOUS
 10
-40.499999999999993
 20
-8.0
 30
0.0
 11
-42.5
 21
-10.0
 31
0.0
  0
LINE
  5
42EF
  8
240
  6
CONTINUOUS
 10
-51.0
 20
10.0
 30
0.0
 11
-51.0
 21
-10.0
 31
0.0
  0
LINE
  5
42F0
  8
240
  6
CONTINUOUS
 10
-40.499999999999993
 20
8.0
 30
0.0
 11
-42.5
 21
10.0
 31
0.0
  0
LINE
  5
42F1
  8
240
  6
CONTINUOUS
 10
-51.0
 20
10.0
 30
0.0
 11
-42.5
 21
10.0
 31
0.0
  0
LINE
  5
42F2
  8
240
  6
CONTINUOUS
 10
200.0
 20
-10.0
 30
0.0
 11
200.0
 21
10.0
 31
0.0
  0
LINE
  5
42F3
  8
241
  6
CONTINUOUS
 10
181.0
 20
-10.15
 30
0.0
 11
181.0
 21
10.14999999999999
 31
0.0
  0
LINE
  5
42F4
  8
241
  6
CONTINUOUS
 10
182.19999999999999
 20
-10.0
 30
0.0
 11
182.19999999999999
 21
10.0
 31
0.0
  0
LINE
  5
42F5
  8
241
  6
CONTINUOUS
 10
179.0
 20
-8.1999999999999975
 30
0.0
 11
179.0
 21
8.1999999999999975
 31
0.0
  0
LINE
  5
42F6
  8
241
  6
CONTINUOUS
 10
178.0
 20
-8.1999999999999975
 30
0.0
 11
178.0
 21
8.1999999999999975
 31
0.0
  0
LINE
  5
42F7
  8
241
  6
CONTINUOUS
 10
0.0
 20
-13.5
 30
0.0
 11
0.0
 21
13.5
 31
0.0
  0
LINE
  5
42F8
  8
241
  6
CONTINUOUS
 10
0.93782217
 20
-10.35874398
 30
0.0
 11
0.93782217
 21
10.35874398
 31
0.0
  0
LINE
  5
42F9
  8
241
  6
CONTINUOUS
 10
-14.5
 20
-10.0
 30
0.0
 11
-14.5
 21
10.0
 31
0.0
  0
LINE
  5
42FA
  8
241
  6
CONTINUOUS
 10
-16.5
 20
-10.0
 30
0.0
 11
-16.5
 21
10.0
 31
0.0
  0
LINE
  5
42FB
  8
241
  6
CONTINUOUS
 10
-23.5
 20
-10.0
 30
0.0
 11
-23.5
 21
10.0
 31
0.0
  0
LINE
  5
42FC
  8
241
  6
CONTINUOUS
 10
-25.5
 20
-10.0
 30
0.0
 11
-25.5
 21
10.0
 31
0.0
  0
LINE
  5
42FD
  8
245
  6
CENTER2
 10
-35.0
 20
10.0
 30
0.0
 11
-35.0
 21
-10.0
 31
0.0
1001
GENIUS_GENOBJ-N-CEN_13
1002
{
1000
OWNER
1000
GEN
1002
}
1001
GENIUS_GENODEF_13
1002
{
1000
HIER
1070
     0
1002
}
1002
{
1000
MANEDIT
1070
     0
1002
}
1002
{
1000
NOSEL
1070
     0
1002
}
1002
{
1000
BEHIND
1070
     0
1002
}
1002
{
1000
OTHER
1070
     0
1002
}
1002
{
1000
REACTOR
1002
}
  0
LINE
  5
42FE
  8
240
  6
CONTINUOUS
 10
-29.5
 20
-8.0
 30
0.0
 11
-27.5
 21
-10.0
 31
0.0
  0
LINE
  5
42FF
  8
240
  6
CONTINUOUS
 10
-35.0
 20
-8.0
 30
0.0
 11
-29.5
 21
-8.0
 31
0.0
  0
LINE
  5
4300
  8
240
  6
CONTINUOUS
 10
-27.5
 20
-10.0
 30
0.0
 11
-6.5
 21
-10.0
 31
0.0
  0
LINE
  5
4301
  8
240
  6
CONTINUOUS
 10
-6.5000000099999991
 20
-13.0
 30
0.0
 11
-5.1262612799999987
 21
-13.5
 31
0.0
  0
LINE
  5
4302
  8
240
  6
CONTINUOUS
 10
0.0000000055125594
 20
-13.5
 30
0.0
 11
-5.1262612799999987
 21
-13.5
 31
0.0
  0
LINE
  5
4303
  8
240
  6
CONTINUOUS
 10
181.25980762
 20
-10.0
 30
0.0
 11
200.0
 21
-10.0
 31
0.0
  0
LINE
  5
4304
  8
240
  6
CONTINUOUS
 10
179.0
 20
-8.1999999999999975
 30
0.0
 11
178.0
 21
-8.1999999999999975
 31
0.0
  0
LINE
  5
4305
  8
240
  6
CONTINUOUS
 10
178.0
 20
-8.1999999999999975
 30
0.0
 11
178.0
 21
-10.0
 31
0.0
  0
ARC
  5
4306
  8
240
  6
CONTINUOUS
 10
1.7051491599999991
 20
-11.0
 30
0.0
 40
1.0
 50
90.0
 51
165.00000022
  0
LINE
  5
4307
  8
240
  6
CONTINUOUS
 10
178.0
 20
-10.0
 30
0.0
 11
1.7051491599999991
 21
-10.0
 31
0.0
  0
LINE
  5
4308
  8
240
  6
CONTINUOUS
 10
0.0000000055125594
 20
-13.5
 30
0.0
 11
0.73922333
 21
-10.741180959999999
 31
0.0
  0
LINE
  5
4309
  8
240
  6
CONTINUOUS
 10
179.0
 20
-8.1999999999999975
 30
0.0
 11
179.0
 21
-10.15
 31
0.0
  0
LINE
  5
430A
  8
240
  6
CONTINUOUS
 10
181.25980762
 20
-10.0
 30
0.0
 11
181.0
 21
-10.15
 31
0.0
  0
LINE
  5
430B
  8
240
  6
CONTINUOUS
 10
179.0
 20
-10.15
 30
0.0
 11
181.0
 21
-10.15
 31
0.0
  0
LINE
  5
430C
  8
240
  6
CONTINUOUS
 10
-29.5
 20
8.0
 30
0.0
 11
-27.5
 21
10.0
 31
0.0
  0
LINE
  5
430D
  8
240
  6
CONTINUOUS
 10
-35.0
 20
8.0
 30
0.0
 11
-29.5
 21
8.0
 31
0.0
  0
LINE
  5
430E
  8
240
  6
CONTINUOUS
 10
-27.5
 20
10.0
 30
0.0
 11
-6.5
 21
10.0
 31
0.0
  0
LINE
  5
430F
  8
241
  6
CONTINUOUS
 10
-6.5
 20
10.0
 30
0.0
 11
-6.5
 21
-10.0
 31
0.0
  0
LINE
  5
4310
  8
240
  6
CONTINUOUS
 10
-6.5000000099999991
 20
13.0
 30
0.0
 11
-5.1262612799999987
 21
13.5
 31
0.0
  0
LINE
  5
4311
  8
240
  6
CONTINUOUS
 10
0.0000000055125594
 20
13.5
 30
0.0
 11
-5.1262612799999987
 21
13.5
 31
0.0
  0
LINE
  5
4313
  8
240
  6
CONTINUOUS
 10
181.25980762
 20
10.0
 30
0.0
 11
200.0
 21
10.0
 31
0.0
  0
LINE
  5
4314
  8
240
  6
CONTINUOUS
 10
179.0
 20
8.1999999999999975
 30
0.0
 11
179.0
 21
10.15
 31
0.0
  0
LINE
  5
4315
  8
240
  6
CONTINUOUS
 10
178.0
 20
8.1999999999999975
 30
0.0
 11
178.0
 21
10.0
 31
0.0
  0
LINE
  5
4316
  8
240
  6
CONTINUOUS
 10
179.0
 20
8.1999999999999975
 30
0.0
 11
178.0
 21
8.1999999999999975
 31
0.0
  0
LINE
  5
431A
  8
240
  6
CONTINUOUS
 10
178.0
 20
10.0
 30
0.0
 11
1.7051491599999991
 21
10.0
 31
0.0
  0
LINE
  5
431B
  8
240
  6
CONTINUOUS
 10
0.0000000055125594
 20
13.5
 30
0.0
 11
0.73922333
 21
10.741180959999999
 31
0.0
  0
ARC
  5
431C
  8
240
  6
CONTINUOUS
 10
1.7051491599999991
 20
11.0
 30
0.0
 40
1.0
 50
194.99999977999991
 51
270.0
  0
LINE
  5
431D
  8
240
  6
CONTINUOUS
 10
181.25980762
 20
10.0
 30
0.0
 11
181.0
 21
10.15
 31
0.0
  0
LINE
  5
431E
  8
240
  6
CONTINUOUS
 10
179.0
 20
10.15
 30
0.0
 11
181.0
 21
10.15
 31
0.0
  0
LINE
  5
431F
  8
240
  6
CONTINUOUS
 10
-6.5
 20
10.0
 30
0.0
 11
-6.5000000099999991
 21
13.0
 31
0.0
  0
LINE
  5
4320
  8
240
  6
CONTINUOUS
 10
-6.5
 20
-10.0
 30
0.0
 11
-6.5000000099999991
 21
-13.0
 31
0.0
  0
LINE
  5
4321
  8
250
  6
CONTINUOUS
 10
0.0
 20
14.0
 30
0.0
 11
0.0
 21
29.0
 31
0.0
  0
LINE
  5
4322
  8
250
  6
CONTINUOUS
 10
200.0
 20
10.5
 30
0.0
 11
200.0
 21
29.0
 31
0.0
  0
LINE
  5
4323
  8
250
  6
CONTINUOUS
 10
2.2299999999999991
 20
28.0
 30
0.0
 11
197.77000000000001
 21
28.0
 31
0.0
  0
TEXT
  5
4330
  8
250
  6
CONTINUOUS
 10
91.2719413302314
 20
29.0
 30
0.0
 40
2.799999999999998
  1
200
1001
ACAD
1000
MTEXTBEGIN
1070
    73
1070
     1
1070
    44
1040
1.0
1070
    74
1070
     0
1000
MTEXTEND
  0
LINE
  5
4331
  8
250
  6
CONTINUOUS
 10
197.77000000000001
 20
28.371666666666659
 30
0.0
 11
200.0
 21
28.0
 31
0.0
  0
LINE
  5
4332
  8
250
  6
CONTINUOUS
 10
197.77000000000001
 20
27.62833333333333
 30
0.0
 11
200.0
 21
28.0
 31
0.0
  0
LINE
  5
4333
  8
250
  6
CONTINUOUS
 10
200.0
 20
28.0
 30
0.0
 11
197.77000000000001
 21
28.0
 31
0.0
  0
LINE
  5
4334
  8
250
  6
CONTINUOUS
 10
2.2299999999999991
 20
27.62833333333333
 30
0.0
 11
0.0
 21
28.0
 31
0.0
  0
LINE
  5
4335
  8
250
  6
CONTINUOUS
 10
2.2299999999999991
 20
28.371666666666659
 30
0.0
 11
0.0
 21
28.0
 31
0.0
  0
LINE
  5
4336
  8
250
  6
CONTINUOUS
 10
0.0
 20
28.0
 30
0.0
 11
2.2299999999999991
 21
28.0
 31
0.0
  0
LINE
  5
434B
  8
247
  6
CONTINUOUS
 10
3.7378221699999772
 20
-7.25
 30
0.0
 11
3.7378221700000069
 21
-4.4692307694020306
 31
0.0
  0
LINE
  5
434C
  8
247
  6
CONTINUOUS
 10
2.2378221700000061
 20
-6.7729360999927604
 30
0.0
 11
3.4978221699496062
 21
-7.134235286034424
 31
0.0
  0
LINE
  5
434D
  8
247
  6
CONTINUOUS
 10
2.8355144776684158
 20
-6.3950908421114141
 30
0.0
 11
2.8355144776684158
 21
-6.9443216113202171
 31
0.0
  0
ARC
  5
434E
  8
247
  6
CONTINUOUS
 10
2.4686536103764829
 20
-6.2523580411680921
 30
0.0
 40
0.2326029485596046
 50
72.997889675291987
 51
172.92416621851211
  0
ARC
  5
434F
  8
247
  6
CONTINUOUS
 10
2.4209560486168198
 20
-6.4294865340824572
 30
0.0
 40
0.4159828779215263
 50
4.7429368522006019
 51
73.849226273266453
1001
GENIUS_GENOBJ-N-FIL_13
1002
{
1000
OWNER
1000
GEN
1002
}
1001
GENIUS_GENODEF_13
1002
{
1000
HIER
1070
     0
1002
}
1002
{
1000
MANEDIT
1070
     0
1002
}
1002
{
1000
NOSEL
1070
     0
1002
}
1002
{
1000
BEHIND
1070
     0
1002
}
1002
{
1000
OTHER
1070
     0
1002
}
1002
{
1000
REACTOR
1002
}
  0
LINE
  5
4350
  8
247
  6
CONTINUOUS
 10
3.4978221699496062
 20
-6.5850045168256202
 30
0.0
 11
3.4978221699496062
 21
-7.134235286034424
 31
0.0
  0
LINE
  5
4351
  8
247
  6
CONTINUOUS
 10
2.2378221700000061
 20
-6.7729360999927604
 30
0.0
 11
2.2378221700000061
 21
-6.2237053307839547
 31
0.0
  0
ARC
  5
4352
  8
247
  6
CONTINUOUS
 10
3.0702723476607261
 20
-6.4269838857600803
 30
0.0
 40
0.2369143806452316
 50
65.990941652528804
 51
172.26344345906921
  0
ARC
  5
4353
  8
247
  6
CONTINUOUS
 10
3.072542366399567
 20
-6.627467966256174
 30
0.0
 40
0.4273944967417014
 50
5.7019851642579624
 51
77.27733843682222
1001
GENIUS_GENOBJ-N-FIL_13
1002
{
1000
OWNER
1000
GEN
1002
}
1001
GENIUS_GENODEF_13
1002
{
1000
HIER
1070
     0
1002
}
1002
{
1000
MANEDIT
1070
     0
1002
}
1002
{
1000
NOSEL
1070
     0
1002
}
1002
{
1000
BEHIND
1070
     0
1002
}
1002
{
1000
OTHER
1070
     0
1002
}
1002
{
1000
REACTOR
1002
}
  0
LINE
  5
4354
  8
247
  6
CONTINUOUS
 10
3.4978221699496062
 20
-6.010389132238001
 30
0.0
 11
2.2378221700000061
 21
-5.649089946196395
 31
0.0
  0
LINE
  5
4355
  8
247
  6
CONTINUOUS
 10
2.2378221700000061
 20
-4.7513976385447707
 30
0.0
 11
2.2378221700000061
 21
-4.989007018582126
 31
0.0
  0
LINE
  5
4356
  8
247
  6
CONTINUOUS
 10
3.4978221699496062
 20
-5.3652437923663561
 30
0.0
 11
3.4978221699496062
 21
-5.106782253915183
 31
0.0
  0
ARC
  5
4357
  8
247
  6
CONTINUOUS
 10
3.1128019270500351
 20
-4.6290899462420043
 30
0.0
 40
0.9461130345837279
 50
202.35948814152781
 51
254.99324854284609
  0
ARC
  5
4358
  8
247
  6
CONTINUOUS
 10
2.5773134851229051
 20
-4.9085068196799284
 30
0.0
 40
0.3740824078205668
 50
94.994589319075374
 51
155.1663289573037
1001
GENIUS_GENOBJ-N-FIL_13
1002
{
1000
OWNER
1000
GEN
1002
}
1001
GENIUS_GENODEF_13
1002
{
1000
HIER
1070
     0
1002
}
1002
{
1000
MANEDIT
1070
     0
1002
}
1002
{
1000
NOSEL
1070
     0
1002
}
1002
{
1000
BEHIND
1070
     0
1002
}
1002
{
1000
OTHER
1070
     0
1002
}
1002
{
1000
REACTOR
1002
}
  0
ARC
  5
4359
  8
247
  6
CONTINUOUS
 10
2.935083443181687
 20
-5.266510370619641
 30
0.0
 40
0.5849683289464192
 50
15.84609655578091
 51
82.325137004169122
  0
ARC
  5
435A
  8
247
  6
CONTINUOUS
 10
3.060704411182646
 20
-5.0211269832633443
 30
0.0
 40
0.5563167383215207
 50
249.71360167049701
 51
321.7887456564095
1001
GENIUS_GENOBJ-N-FIL_13
1002
{
1000
OWNER
1000
GEN
1002
}
1001
GENIUS_GENODEF_13
1002
{
1000
HIER
1070
     0
1002
}
1002
{
1000
MANEDIT
1070
     0
1002
}
1002
{
1000
NOSEL
1070
     0
1002
}
1002
{
1000
BEHIND
1070
     0
1002
}
1002
{
1000
OTHER
1070
     0
1002
}
1002
{
1000
REACTOR
1002
}
  0
LINE
  5
435B
  8
247
  6
CONTINUOUS
 10
3.0132067853536082
 20
-4.9775514846895694
 30
0.0
 11
3.0132067853536082
 21
-4.6867822539319919
 31
0.0
  0
ARC
  5
435C
  8
247
  6
CONTINUOUS
 10
2.9878221700000061
 20
-7.25
 30
0.0
 40
0.75
 50
180.0
 51
0.0
  0
LINE
  5
435D
  8
247
  6
CONTINUOUS
 10
2.2378221700000061
 20
-7.25
 30
0.0
 11
2.2378221700000061
 21
-6.9823076923483987
 31
0.0
  0
ARC
  5
435E
  8
247
  6
CONTINUOUS
 10
2.9878221700000061
 20
-4.469230769402003
 30
0.0
 40
0.75
 50
0.0
 51
180.0
  0
LINE
  5
4399
  8
243
  6
HIDDEN2
 10
170.9999999999998
 20
3.9597981814159762
 30
0.0
 11
170.99999999998909
 21
-3.959797767899885
 31
0.0
  0
LINE
  5
439A
  8
242
  6
HIDDEN2
 10
170.99999999998909
 20
-3.959797767899885
 30
0.0
 11
179.9999999999944
 21
0.000000206757818
 31
0.0
  0
LINE
  5
439B
  8
242
  6
HIDDEN2
 10
170.99999953006579
 20
0.0
 30
0.0
 11
179.99999999999989
 21
-3.959797767899885
 31
0.0
  0
LINE
  5
439C
  8
243
  6
HIDDEN2
 10
170.99999999998909
 20
-3.959797767899885
 30
0.0
 11
179.999999999989
 21
-3.959797767899885
 31
0.0
  0
LINE
  5
439D
  8
243
  6
HIDDEN2
 10
170.9999999999998
 20
3.9597981814159762
 30
0.0
 11
179.9999999999998
 21
3.9597981814159762
 31
0.0
  0
LINE
  5
439E
  8
242
  6
HIDDEN2
 10
170.9999999999998
 20
3.9597981814159762
 30
0.0
 11
179.9999999999944
 21
0.0000002067582727
 31
0.0
  0
LINE
  5
439F
  8
243
  6
HIDDEN2
 10
179.9999999999998
 20
3.9597981814159762
 30
0.0
 11
179.999999999989
 21
-3.959797767899885
 31
0.0
  0
LINE
  5
43A0
  8
243
  6
HIDDEN2
 10
179.9999999999896
 20
-3.4999997932423379
 30
0.0
 11
200.0
 21
-3.49999979324171
 31
0.0
  0
LINE
  5
43A1
  8
243
  6
HIDDEN2
 10
179.9999999999992
 20
3.5000002067588838
 30
0.0
 11
200.0
 21
3.5000002067582558
 31
0.0
  0
LINE
  5
43A2
  8
242
  6
HIDDEN2
 10
170.9999999999944
 20
0.0000002067580454
 30
0.0
 11
179.9999999999998
 21
3.9597981814159762
 31
0.0
  0
LINE
  5
43A3
  8
250
  6
CONTINUOUS
 10
179.23733925850479
 20
5.8518940764384091
 30
0.0
 11
178.0
 21
3.959797969999999
 31
0.0
  0
LINE
  5
43A4
  8
250
  6
CONTINUOUS
 10
178.55680324985241
 20
6.1509178338117421
 30
0.0
 11
178.0
 21
3.959797969999999
 31
0.0
  0
LINE
  5
43A5
  8
250
  6
CONTINUOUS
 10
178.0
 20
3.959797969999999
 30
0.0
 11
178.89707125417851
 21
6.001405955125076
 31
0.0
  0
POLYLINE
  5
43A6
  8
250
  6
CONTINUOUS
 66
     1
 10
0.0
 20
0.0
 30
0.0
1001
ACAD
1000
DSTYLE
1002
{
1070
     6
1000
OPEN
1070
   343
1005
594
1002
}
  0
VERTEX
  5
4521
  8
250
  6
CONTINUOUS
 10
178.89707125417851
 20
6.001405955125076
 30
0.0
  0
VERTEX
  5
4522
  8
250
  6
CONTINUOUS
 10
185.47971347000001
 20
20.982573670000001
 30
0.0
  0
SEQEND
  5
4523
  8
250
  6
CONTINUOUS
  0
LINE
  5
43A7
  8
250
  6
CONTINUOUS
 10
200.5
 20
-10.0
 30
0.0
 11
218.0
 21
-10.0
 31
0.0
  0
LINE
  5
43A8
  8
250
  6
CONTINUOUS
 10
200.5
 20
10.0
 30
0.0
 11
218.0
 21
10.0
 31
0.0
  0
LINE
  5
43A9
  8
250
  6
CONTINUOUS
 10
217.0
 20
-7.7699999999999987
 30
0.0
 11
217.0
 21
7.7699999999999987
 31
0.0
  0
LINE
  5
43AA
  8
250
  6
CONTINUOUS
 10
217.3716666741
 20
-7.7699999999999987
 30
0.0
 11
217.0
 21
-10.0
 31
0.0
  0
LINE
  5
43AB
  8
250
  6
CONTINUOUS
 10
216.6283333259
 20
-7.7699999999999987
 30
0.0
 11
217.0
 21
-10.0
 31
0.0
  0
LINE
  5
43AC
  8
250
  6
CONTINUOUS
 10
217.0
 20
-10.0
 30
0.0
 11
217.0
 21
-7.7699999999999987
 31
0.0
  0
LINE
  5
43AD
  8
250
  6
CONTINUOUS
 10
216.6283333259
 20
7.7699999999999987
 30
0.0
 11
217.0
 21
10.0
 31
0.0
  0
LINE
  5
43AE
  8
250
  6
CONTINUOUS
 10
217.3716666741
 20
7.7699999999999987
 30
0.0
 11
217.0
 21
10.0
 31
0.0
  0
LINE
  5
43AF
  8
250
  6
CONTINUOUS
 10
217.0
 20
10.0
 30
0.0
 11
217.0
 21
7.7699999999999987
 31
0.0
  0
TEXT
  5
43B0
  8
250
  6
CONTINUOUS
 10
216.0
 20
-3.9333333333333331
 30
0.0
 40
2.7999999999999989
  1
\U+220520
 50
90.0
1001
ACAD
1000
MTEXTBEGIN
1070
    73
1070
     1
1070
    44
1040
1.0
1070
    74
1070
     0
1000
MTEXTEND
  0
LINE
  5
43B1
  8
250
  6
CONTINUOUS
 10
200.5
 20
3.5
 30
0.0
 11
211.0
 21
3.5
 31
0.0
  0
LINE
  5
43B2
  8
250
  6
CONTINUOUS
 10
210.0
 20
-1.27
 30
0.0
 11
210.0
 21
1.27
 31
0.0
  0
LINE
  5
43B3
  8
250
  6
CONTINUOUS
 10
209.6283333259
 20
1.27
 30
0.0
 11
210.0
 21
3.5
 31
0.0
  0
LINE
  5
43B4
  8
250
  6
CONTINUOUS
 10
210.3716666741
 20
1.27
 30
0.0
 11
210.0
 21
3.5
 31
0.0
  0
LINE
  5
43B5
  8
250
  6
CONTINUOUS
 10
210.0
 20
3.5
 30
0.0
 11
210.0
 21
1.27
 31
0.0
  0
TEXT
  5
43B6
  8
250
  6
CONTINUOUS
 10
209.0
 20
-2.5999999999999992
 30
0.0
 40
2.7999999999999989
  1
\U+22057
 50
90.0
1001
ACAD
1000
MTEXTBEGIN
1070
    73
1070
     1
1070
    44
1040
1.0
1070
    74
1070
     0
1000
MTEXTEND
  0
TEXT
  5
43B7
  8
250
  6
CONTINUOUS
 10
186.87510622666659
 20
21.982573670000001
 30
0.0
 40
2.7999999999999989
  1
üá5.5
  7
YOKO
1001
ITEMNAME
1000
LNSP3
1001
ACAD
1000
MTEXTBEGIN
1070
    73
1070
     1
1070
    44
1040
1.0
1070
    74
1070
     0
1000
MTEXTEND
1000
MTEXTBEGIN
1070
    73
1070
     1
1070
    44
1040
1.0
1070
    74
1070
     0
1000
MTEXTEND
1000
MTEXTBEGIN
1070
    73
1070
     1
1070
    44
1040
1.0
1070
    74
1070
     0
1000
MTEXTEND
1000
MTEXTBEGIN
1070
    73
1070
     1
1070
    44
1040
1.0
1070
    74
1070
     0
1000
MTEXTEND
1000
MTEXTBEGIN
1070
    73
1070
     1
1070
    44
1040
1.0
1070
    74
1070
     0
1000
MTEXTEND
1000
MTEXTBEGIN
1070
    73
1070
     1
1070
    44
1040
1.0
1070
    74
1070
     0
1000
MTEXTEND
  0
LINE
  5
43B8
  8
250
  6
CONTINUOUS
 10
185.47971347000001
 20
20.982573670000001
 30
0.0
 11
199.31664050000001
 21
20.982573670000001
 31
0.0
1001
ITEMNAME
1000
LNSP2
  0
LINE
  5
43B9
  8
250
  6
CONTINUOUS
 10
200.5
 20
-3.5
 30
0.0
 11
211.0
 21
-3.5
 31
0.0
  0
LINE
  5
43BA
  8
250
  6
CONTINUOUS
 10
209.6283333259
 20
-1.27
 30
0.0
 11
210.0
 21
-3.5
 31
0.0
  0
LINE
  5
43BB
  8
250
  6
CONTINUOUS
 10
210.3716666741
 20
-1.27
 30
0.0
 11
210.0
 21
-3.5
 31
0.0
  0
LINE
  5
43BC
  8
250
  6
CONTINUOUS
 10
210.0
 20
-3.5
 30
0.0
 11
210.0
 21
-1.27
 31
0.0
  0
VIEWPORT
  5
22
 67
     1
  8
0
 10
261.51769911504419
 20
148.5
 30
0.0
 40
523.0353982300885
 41
297.0
 68
     1
 69
     1
1001
ACAD
1000
MVIEW
1002
{
1070
    16
1010
0.0
1020
0.0
1030
0.0
1010
0.0
1020
0.0
1030
1.0
1040
0.0
1040
297.0
1040
261.51769911504419
1040
148.5
1040
50.0
1040
0.0
1040
0.0
1070
     0
1070
   100
1070
     1
1070
     1
1070
     0
1070
     0
1070
     0
1070
     0
1040
0.0
1040
0.0
1040
0.0
1040
1.0
1040
1.0
1040
10.0
1040
10.0
1070
     0
1002
{
1002
}
1002
}
1001
GENIUS_GENODEF_13
1002
{
1000
HIER
1070
     0
1002
}
1002
{
1000
MANEDIT
1070
     0
1002
}
1002
{
1000
NOSEL
1070
     0
1002
}
1002
{
1000
BEHIND
1070
     0
1002
}
1002
{
1000
OTHER
1070
     0
1002
}
1002
{
1000
REACTOR
1002
}
1001
GENIUS_GENOBJ-N-SDF_13
1002
{
1000
OWNER
1000
GEN
1002
}
1001
GENIUS_GENSCREG_15
1000
PF
1040
1.0
1000
DF
1040
1.0
1000
MIN
1011
0.0
1021
0.0
1031
0.0
1021
0.0
1031
0.0
1000
MAX
1011
523.0353982300885
1021
0.0
1031
0.0
1021
297.0
1031
0.0
1000
FLAGS
1070
     4
  0
ENDSEC
  0
EOF
