  0
SECTION
  2
HEADER
  9
$ACADVER
  1
AC1009
  9
$INSBASE
 10
0.0
 20
0.0
 30
0.0
  9
$EXTMIN
 10
-36.989829550000032
 20
-24.36963154
 30
0.0
  9
$EXTMAX
 10
92.0
 20
54.0
 30
0.0
  9
$LIMMIN
 10
0.0
 20
0.0
  9
$LIMMAX
 10
297.0
 20
210.0
  9
$ORTHOMODE
 70
     1
  9
$REGENMODE
 70
     1
  9
$FILLMODE
 70
     1
  9
$QTEXTMODE
 70
     0
  9
$MIRRTEXT
 70
     1
  9
$DRAGMODE
 70
     2
  9
$LTSCALE
 40
10.0
  9
$OSMODE
 70
    35
  9
$ATTMODE
 70
     1
  9
$TEXTSIZE
 40
3.0
  9
$TRACEWID
 40
1.0
  9
$TEXTSTYLE
  7
YOKO
  9
$CLAYER
  8
240
  9
$CELTYPE
  6
BYLAYER
  9
$CECOLOR
 62
   256
  9
$DIMSCALE
 40
1.0
  9
$DIMASZ
 40
2.2299999999999991
  9
$DIMEXO
 40
0.5
  9
$DIMDLI
 40
7.0
  9
$DIMRND
 40
0.0
  9
$DIMDLE
 40
0.0
  9
$DIMEXE
 40
1.0
  9
$DIMTP
 40
0.0
  9
$DIMTM
 40
0.01
  9
$DIMTXT
 40
2.7999999999999989
  9
$DIMCEN
 40
0.0
  9
$DIMTSZ
 40
0.0
  9
$DIMTOL
 70
     0
  9
$DIMLIM
 70
     0
  9
$DIMTIH
 70
     0
  9
$DIMTOH
 70
     0
  9
$DIMSE1
 70
     0
  9
$DIMSE2
 70
     0
  9
$DIMTAD
 70
     3
  9
$DIMZIN
 70
     9
  9
$DIMBLK
  1
OPEN
  9
$DIMASO
 70
     1
  9
$DIMSHO
 70
     1
  9
$DIMPOST
  1

  9
$DIMAPOST
  1

  9
$DIMALT
 70
     0
  9
$DIMALTD
 70
     2
  9
$DIMALTF
 40
25.399999999999999
  9
$DIMLFAC
 40
1.0
  9
$DIMTOFL
 70
     1
  9
$DIMTVP
 40
0.0
  9
$DIMTIX
 70
     1
  9
$DIMSOXD
 70
     0
  9
$DIMSAH
 70
     0
  9
$DIMBLK1
  1

  9
$DIMBLK2
  1

  9
$DIMSTYLE
  2
BIGT
  9
$DIMCLRD
 70
   256
  9
$DIMCLRE
 70
   256
  9
$DIMCLRT
 70
    40
  9
$DIMTFAC
 40
1.0
  9
$DIMGAP
 40
1.0
  9
$LUNITS
 70
     2
  9
$LUPREC
 70
     6
  9
$SKETCHINC
 40
1.0
  9
$FILLETRAD
 40
5.0
  9
$AUNITS
 70
     0
  9
$AUPREC
 70
     6
  9
$MENU
  1
.
  9
$ELEVATION
 40
0.0
  9
$PELEVATION
 40
0.0
  9
$THICKNESS
 40
0.0
  9
$LIMCHECK
 70
     0
  9
$BLIPMODE
 70
     0
  9
$CHAMFERA
 40
0.2
  9
$CHAMFERB
 40
0.2
  9
$SKPOLY
 70
     0
  9
$TDCREATE
 40
2457724.684700232
  9
$TDUPDATE
 40
2457724.7131258221
  9
$TDINDWG
 40
0.0070004745
  9
$TDUSRTIMER
 40
0.0070004398
  9
$USRTIMER
 70
     1
  9
$ANGBASE
 50
0.0
  9
$ANGDIR
 70
     0
  9
$PDMODE
 70
     1
  9
$PDSIZE
 40
0.0
  9
$PLINEWID
 40
0.0
  9
$COORDS
 70
     1
  9
$SPLFRAME
 70
     0
  9
$SPLINETYPE
 70
     6
  9
$SPLINESEGS
 70
     4
  9
$ATTDIA
 70
     1
  9
$ATTREQ
 70
     1
  9
$HANDLING
 70
     1
  9
$HANDSEED
  5
4491
  9
$SURFTAB1
 70
     6
  9
$SURFTAB2
 70
     6
  9
$SURFTYPE
 70
     6
  9
$SURFU
 70
     6
  9
$SURFV
 70
     6
  9
$UCSNAME
  2

  9
$UCSORG
 10
0.0
 20
0.0
 30
0.0
  9
$UCSXDIR
 10
1.0
 20
0.0
 30
0.0
  9
$UCSYDIR
 10
0.0
 20
1.0
 30
0.0
  9
$PUCSNAME
  2

  9
$PUCSORG
 10
0.0
 20
0.0
 30
0.0
  9
$PUCSXDIR
 10
1.0
 20
0.0
 30
0.0
  9
$PUCSYDIR
 10
0.0
 20
1.0
 30
0.0
  9
$USERI1
 70
     1
  9
$USERI2
 70
     0
  9
$USERI3
 70
     0
  9
$USERI4
 70
     0
  9
$USERI5
 70
     0
  9
$USERR1
 40
0.0
  9
$USERR2
 40
0.0
  9
$USERR3
 40
0.0
  9
$USERR4
 40
0.0
  9
$USERR5
 40
0.0
  9
$WORLDVIEW
 70
     1
  9
$SHADEDGE
 70
     3
  9
$SHADEDIF
 70
    70
  9
$TILEMODE
 70
     1
  9
$MAXACTVP
 70
    16
  9
$PLIMCHECK
 70
     0
  9
$PEXTMIN
 10
1.0000000000000000E+020
 20
1.0000000000000000E+020
 30
1.0000000000000000E+020
  9
$PEXTMAX
 10
-1.0000000000000000E+020
 20
-1.0000000000000000E+020
 30
-1.0000000000000000E+020
  9
$PLIMMIN
 10
0.0
 20
0.0
  9
$PLIMMAX
 10
420.0
 20
297.0
  9
$UNITMODE
 70
     0
  9
$VISRETAIN
 70
     1
  9
$PLINEGEN
 70
     0
  9
$PSLTSCALE
 70
     1
  0
ENDSEC
  0
SECTION
  2
TABLES
  0
TABLE
  2
VPORT
 70
     1
  0
VPORT
  2
*ACTIVE
 70
     0
 10
0.0
 20
0.0
 11
1.0
 21
1.0
 12
30.006967123608931
 22
21.89896351476855
 13
0.0
 23
0.0
 14
7.0
 24
7.0
 15
7.0
 25
7.0
 16
0.0
 26
0.0
 36
1.0
 17
0.0
 27
0.0
 37
0.0
 40
110.63583687275209
 41
1.248762376237623
 42
50.0
 43
0.0
 44
0.0
 50
0.0
 51
0.0
 71
     0
 72
  2000
 73
     1
 74
     0
 75
     0
 76
     1
 77
     0
 78
     0
  0
ENDTAB
  0
TABLE
  2
LTYPE
 70
    16
  0
LTYPE
  2
CONTINUOUS
 70
     0
  3
Solid line
 72
    65
 73
     0
 40
0.0
  0
LTYPE
  2
CENTER2
 70
     0
  3
___ _ ___ _ ___ _ ___ _ ___ _ ___ _ ___ _ ___ _
 72
    65
 73
     4
 40
1.125
 49
0.75
 49
-0.125
 49
0.125
 49
-0.125
  0
LTYPE
  2
HIDDEN2
 70
     0
  3
_ _ _ _ _ _ _ _ _ _ _ _ _ _ _ _ _ _ _ _ _ _ _ _
 72
    65
 73
     2
 40
0.1875
 49
0.125
 49
-0.0625
  0
LTYPE
  2
PHANTOM2
 70
     0
  3
___ _ _ ___ _ _ ___ _ _ ___ _ _ ___ _ _ ___ _ _
 72
    65
 73
     6
 40
1.25
 49
0.625
 49
-0.125
 49
0.125
 49
-0.125
 49
0.125
 49
-0.125
  0
LTYPE
  2
AM_ISO02W050
 70
     0
  3
__ __ __ __ __ __ __ __ __ __ __ __ __ __ __
 72
    65
 73
     2
 40
7.5
 49
6.0
 49
-1.5
  0
LTYPE
  2
AMCONSTR
 70
     0
  3
_______________________
 72
    65
 73
     2
 40
9999.0
 49
9999.0
 49
0.0
  0
LTYPE
  2
ACISOWELD
 70
     0
  3
_ _ _ _ _
 72
    65
 73
     2
 40
2.0
 49
2.0
 49
-1.0
  0
LTYPE
  2
ACISOTGB
 70
     0
  3
__ . . __ . .
 72
    65
 73
     6
 40
9.0
 49
4.0
 49
-1.0
 49
1.0
 49
-1.0
 49
1.0
 49
-1.0
  0
LTYPE
  2
ACISOTGL
 70
     0
  3
_ _ _ _ _
 72
    65
 73
     2
 40
3.0
 49
2.0
 49
-1.0
  0
LTYPE
  2
ACJISTGB
 70
     0
  3
__ . . __ . .
 72
    65
 73
     6
 40
9.0
 49
4.0
 49
-1.0
 49
1.0
 49
-1.0
 49
1.0
 49
-1.0
  0
LTYPE
  2
ACJISTGL
 70
     0
  3
_ _ _ _ _
 72
    65
 73
     2
 40
3.0
 49
2.0
 49
-1.0
  0
ENDTAB
  0
TABLE
  2
LAYER
 70
     8
  0
LAYER
  2
0
 70
     0
 62
     7
  6
CONTINUOUS
  0
LAYER
  2
DEFPOINTS
 70
     0
 62
     7
  6
CONTINUOUS
  0
LAYER
  2
245
 70
     0
 62
     2
  6
CENTER2
  0
LAYER
  2
240
 70
     0
 62
     4
  6
CONTINUOUS
  0
LAYER
  2
241
 70
     0
 62
   211
  6
CONTINUOUS
  0
LAYER
  2
243
 70
     0
 62
   211
  6
HIDDEN2
  0
LAYER
  2
247
 70
     0
 62
    60
  6
CONTINUOUS
  0
LAYER
  2
250
 70
     0
 62
     3
  6
CONTINUOUS
  0
ENDTAB
  0
TABLE
  2
STYLE
 70
     7
  0
STYLE
  2
STANDARD
 70
     0
 40
0.0
 41
1.0
 50
0.0
 71
     0
 42
3.0
  3
romans.shx
  4
extfont.shx
  0
STYLE
  2
ACISOTS
 70
     0
 40
1.0
 41
1.0
 50
0.0
 71
     0
 42
3.0
  3
amgdt.shx
  4
extfont.shx
  0
STYLE
  2
ACISOGDT
 70
     0
 40
0.0
 41
1.0
 50
0.0
 71
     0
 42
3.0
  3
amgdt.shx
  4
extfont.shx
  0
STYLE
  2
ACJISTS
 70
     0
 40
1.0
 41
1.0
 50
0.0
 71
     0
 42
3.0
  3
amgdt.shx
  4
extfont.shx
  0
STYLE
  2
ACJISGDT
 70
     0
 40
0.0
 41
1.0
 50
0.0
 71
     0
 42
3.0
  3
amgdt.shx
  4
extfont.shx
  0
STYLE
  2
YOKO
 70
     0
 40
0.0
 41
1.0
 50
0.0
 71
     0
 42
3.0
  3
romans.shx
  4
extfont.shx
  0
ENDTAB
  0
TABLE
  2
VIEW
 70
     0
  0
ENDTAB
  0
TABLE
  2
UCS
 70
     0
  0
ENDTAB
  0
TABLE
  2
APPID
 70
    35
  0
APPID
  2
ACAD
 70
     0
  0
APPID
  2
GLOBAL
 70
     0
  0
APPID
  2
DETAIL
 70
     0
  0
APPID
  2
GRPNAME
 70
     0
  0
APPID
  2
GPARA
 70
     0
  0
APPID
  2
MCAD_NO_VIS
 70
     0
  0
APPID
  2
ACAD_TEMP_GRAPHIC
 70
     0
  0
APPID
  2
ACATTRIBSERVICES
 70
     0
  0
APPID
  2
GENIUS_GENSCREG_15
 70
     0
  0
APPID
  2
GENIUS_GENODEF_13
 70
     0
  0
APPID
  2
GENIUS_GENOBJ-N-SDF_13
 70
     0
  0
APPID
  2
GENIUS_GENREC_14
 70
     0
  0
APPID
  2
GENIUS_GENOBJ-N-REC_13
 70
     0
  0
APPID
  2
GENIUS_GENDIMSH_14
 70
     0
  0
APPID
  2
GENIUS_GENOBJ-N-DIM_13
 70
     0
  0
APPID
  2
GENIUS_GENDIM_13
 70
     0
  0
APPID
  2
GENIUS_GENDTOL_13
 70
     0
  0
APPID
  2
GENIUS_GENOLIS_13
 70
     0
  0
APPID
  2
GENIUS_GENOENT_13
 70
     0
  0
APPID
  2
GENIUS_GENOBJ-F-FEM_13
 70
     0
  0
APPID
  2
GENIUS_GENOREF_13
 70
     0
  0
APPID
  2
GENIUS_GEFFEM_13
 70
     0
  0
APPID
  2
GENIUS_GEFFEMP_13
 70
     0
  0
APPID
  2
AD_DRAW
 70
     0
  0
APPID
  2
DESIGNERASSEMBLIES
 70
     0
  0
APPID
  2
ACADM_DIM_EDIT
 70
     0
  0
APPID
  2
AMDT_DM_ADJ
 70
     0
  0
APPID
  2
ITEMNAME
 70
     0
  0
APPID
  2
GENIUS_GENOBJ-N-FIL_13
 70
     0
  0
APPID
  2
GENIUS_GENFIL_13
 70
     0
  0
APPID
  2
GENIUS_GENOBJ-N-CHA_13
 70
     0
  0
APPID
  2
ACAD_NAV_VCDISPLAY
 70
     0
  0
APPID
  2
ACAD_PSEXT
 70
     0
  0
APPID
  2
ACAD_EXEMPT_FROM_CAD_STANDARDS
 70
     0
  0
APPID
  2
ACAD_MLEADERVER
 70
     0
  0
ENDTAB
  0
TABLE
  2
DIMSTYLE
 70
    29
  0
DIMSTYLE
  2
BIGT
 70
     0
  3

  4

  5
OPEN
  6

  7

 40
1.0
 41
2.2299999999999991
 42
0.5
 43
7.0
 44
1.0
 45
0.0
 46
0.0
 47
0.0
 48
0.01
140
2.7999999999999989
141
0.0
142
0.0
143
25.399999999999999
144
1.0
145
0.0
146
1.0
147
1.0
 71
     0
 72
     0
 73
     0
 74
     0
 75
     0
 76
     0
 77
     3
 78
     9
170
     0
171
     2
172
     1
173
     0
174
     1
175
     0
176
   256
177
   256
178
    40
  0
DIMSTYLE
  2
AM_ISO
 70
     0
  3

  4
"
  5

  6

  7

 40
1.0
 41
2.5
 42
1.0
 43
10.0
 44
1.0
 45
0.0
 46
0.0
 47
0.1
 48
0.1
140
3.5
141
0.0
142
0.0
143
0.0393701
144
1.0
145
0.0
146
0.71
147
1.5
 71
     0
 72
     0
 73
     0
 74
     0
 75
     0
 76
     0
 77
     1
 78
     8
170
     0
171
     2
172
     1
173
     0
174
     0
175
     0
176
   256
177
   256
178
     2
  0
DIMSTYLE
  2
AM_ISO$3
 70
     0
  3

  4
"
  5

  6

  7

 40
1.0
 41
2.5
 42
1.0
 43
10.0
 44
1.0
 45
0.0
 46
0.0
 47
0.1
 48
0.1
140
3.5
141
0.0
142
0.0
143
0.0393701
144
1.0
145
0.0
146
0.71
147
1.5
 71
     0
 72
     0
 73
     0
 74
     1
 75
     0
 76
     0
 77
     1
 78
     8
170
     0
171
     2
172
     0
173
     0
174
     0
175
     0
176
   256
177
   256
178
     2
  0
DIMSTYLE
  2
AM_ISO$4
 70
     0
  3

  4
"
  5

  6

  7

 40
1.0
 41
2.5
 42
1.0
 43
10.0
 44
1.0
 45
0.0
 46
0.0
 47
0.1
 48
0.1
140
3.5
141
0.0
142
0.0
143
0.0393701
144
1.0
145
0.0
146
0.71
147
1.5
 71
     0
 72
     0
 73
     0
 74
     1
 75
     0
 76
     0
 77
     1
 78
     8
170
     0
171
     2
172
     0
173
     0
174
     0
175
     0
176
   256
177
   256
178
     2
  0
DIMSTYLE
  2
AM_ISO$6
 70
     0
  3

  4
"
  5

  6

  7

 40
1.0
 41
2.5
 42
1.0
 43
10.0
 44
1.0
 45
0.0
 46
0.0
 47
0.1
 48
0.1
140
3.5
141
0.0
142
0.0
143
0.0393701
144
1.0
145
0.0
146
0.71
147
1.5
 71
     0
 72
     0
 73
     0
 74
     0
 75
     0
 76
     0
 77
     0
 78
     8
170
     0
171
     2
172
     1
173
     0
174
     0
175
     0
176
   256
177
   256
178
     2
  0
DIMSTYLE
  2
AM_ISO$7
 70
     0
  3

  4
"
  5

  6

  7

 40
1.0
 41
2.5
 42
1.0
 43
10.0
 44
1.0
 45
0.0
 46
0.0
 47
0.1
 48
0.1
140
5.0
141
0.0
142
0.0
143
0.0393701
144
1.0
145
0.0
146
0.71
147
1.5
 71
     0
 72
     0
 73
     0
 74
     0
 75
     0
 76
     0
 77
     1
 78
     8
170
     0
171
     2
172
     1
173
     0
174
     0
175
     0
176
   256
177
   256
178
     2
  0
DIMSTYLE
  2
AM_ISO$SF
 70
     0
  3

  4
"
  5

  6

  7

 40
1.0
 41
2.5
 42
1.0
 43
10.0
 44
1.0
 45
0.0
 46
0.0
 47
0.1
 48
0.1
140
3.5
141
0.0
142
0.0
143
0.0393701
144
1.0
145
0.0
146
0.71
147
1.5
 71
     0
 72
     0
 73
     0
 74
     0
 75
     1
 76
     1
 77
     1
 78
     8
170
     0
171
     2
172
     1
173
     0
174
     0
175
     0
176
   256
177
   256
178
     2
  0
DIMSTYLE
  2
AM_ISO$SH
 70
     0
  3

  4
"
  5

  6
GENAXEH
  7

 40
1.0
 41
2.5
 42
1.0
 43
10.0
 44
1.0
 45
0.0
 46
0.0
 47
0.1
 48
0.1
140
3.5
141
0.0
142
0.0
143
0.0393701
144
2.0
145
0.0
146
0.71
147
1.5
 71
     0
 72
     0
 73
     0
 74
     0
 75
     1
 76
     1
 77
     1
 78
     8
170
     0
171
     2
172
     1
173
     1
174
     0
175
     0
176
   256
177
   256
178
     2
  0
DIMSTYLE
  2
BIGT$2
 70
     0
  3

  4

  5
OPEN
  6

  7

 40
1.0
 41
2.2299999999999991
 42
0.5
 43
7.0
 44
1.0
 45
0.0
 46
0.0
 47
0.0
 48
0.01
140
2.7999999999999989
141
0.0
142
0.0
143
25.399999999999999
144
1.0
145
0.0
146
1.0
147
1.0
 71
     0
 72
     0
 73
     0
 74
     0
 75
     0
 76
     0
 77
     3
 78
     9
170
     0
171
     2
172
     1
173
     0
174
     0
175
     0
176
   256
177
   256
178
    40
  0
DIMSTYLE
  2
BIGT$3
 70
     0
  3

  4

  5
OPEN
  6

  7

 40
1.0
 41
2.2299999999999991
 42
0.5
 43
2.5
 44
1.0
 45
0.0
 46
0.0
 47
0.0
 48
0.01
140
2.7999999999999989
141
0.0
142
0.0
143
25.399999999999999
144
1.0
145
0.0
146
1.0
147
1.0
 71
     0
 72
     0
 73
     0
 74
     0
 75
     0
 76
     0
 77
     3
 78
     9
170
     0
171
     2
172
     1
173
     0
174
     0
175
     0
176
   256
177
   256
178
    40
  0
DIMSTYLE
  2
BIGT$7
 70
     0
  3

  4

  5
OPEN
  6

  7

 40
0.0
 41
2.2299999999999991
 42
0.5
 43
7.0
 44
1.0
 45
0.0
 46
0.0
 47
0.0
 48
0.01
140
2.7999999999999989
141
0.0
142
0.0
143
25.399999999999999
144
1.0
145
0.0
146
1.0
147
1.0
 71
     0
 72
     0
 73
     0
 74
     0
 75
     0
 76
     0
 77
     3
 78
     9
170
     0
171
     2
172
     0
173
     0
174
     0
175
     0
176
   256
177
   256
178
    40
  0
DIMSTYLE
  2
BIGT$6
 70
     0
  3

  4

  5
OPEN
  6

  7

 40
1.0
 41
2.2299999999999991
 42
0.5
 43
2.5
 44
1.0
 45
0.0
 46
0.0
 47
0.0
 48
0.01
140
2.7999999999999989
141
0.0
142
0.0
143
25.399999999999999
144
1.0
145
0.0
146
1.0
147
1.0
 71
     0
 72
     0
 73
     0
 74
     0
 75
     0
 76
     0
 77
     3
 78
     9
170
     0
171
     2
172
     1
173
     0
174
     0
175
     0
176
   256
177
   256
178
    40
  0
DIMSTYLE
  2
BIGT$0
 70
     0
  3

  4

  5
OPEN
  6

  7

 40
1.0
 41
2.2299999999999991
 42
0.5
 43
7.0
 44
1.0
 45
0.0
 46
0.0
 47
0.0
 48
0.01
140
2.7999999999999989
141
0.0
142
0.0
143
25.399999999999999
144
1.0
145
0.0
146
1.0
147
1.0
 71
     0
 72
     0
 73
     0
 74
     0
 75
     0
 76
     0
 77
     3
 78
     9
170
     0
171
     2
172
     1
173
     0
174
     1
175
     0
176
   256
177
   256
178
    40
  0
DIMSTYLE
  2
BIGT$4
 70
     0
  3

  4

  5
OPEN
  6

  7

 40
1.0
 41
2.2299999999999991
 42
0.5
 43
2.5
 44
1.0
 45
0.0
 46
0.0
 47
0.0
 48
0.01
140
2.7999999999999989
141
0.0
142
0.0
143
25.399999999999999
144
1.0
145
0.0
146
1.0
147
1.0
 71
     0
 72
     0
 73
     0
 74
     0
 75
     0
 76
     0
 77
     3
 78
     9
170
     0
171
     2
172
     1
173
     0
174
     0
175
     0
176
   256
177
   256
178
    40
  0
DIMSTYLE
  2
BIGT$SH
 70
     0
  3

  4

  5
OPEN
  6

  7

 40
1.0
 41
2.2299999999999991
 42
0.5
 43
7.0
 44
1.0
 45
0.0
 46
0.0
 47
0.0
 48
0.0
140
2.7999999999999989
141
0.0
142
0.0
143
25.399999999999999
144
1.0
145
0.0
146
1.0
147
1.0
 71
     0
 72
     0
 73
     0
 74
     0
 75
     0
 76
     0
 77
     3
 78
     9
170
     0
171
     2
172
     1
173
     0
174
     0
175
     0
176
   256
177
   256
178
    40
  0
DIMSTYLE
  2
BIGT$SF
 70
     0
  3

  4

  5
OPEN
  6

  7

 40
1.0
 41
2.2299999999999991
 42
0.5
 43
7.0
 44
1.0
 45
0.0
 46
0.0
 47
0.0
 48
0.0
140
2.7999999999999989
141
0.0
142
0.0
143
25.399999999999999
144
1.0
145
0.0
146
1.0
147
1.0
 71
     0
 72
     0
 73
     0
 74
     0
 75
     0
 76
     0
 77
     3
 78
     9
170
     0
171
     2
172
     1
173
     0
174
     0
175
     0
176
   256
177
   256
178
    40
  0
DIMSTYLE
  2
TECHNICAL_OSAKA
 70
     0
  3

  4
"
  5
OPEN30
  6

  7

 40
1.0
 41
2.5
 42
1.0
 43
10.0
 44
1.0
 45
0.0
 46
0.0
 47
0.1
 48
0.1
140
2.7999999999999989
141
0.0
142
0.0
143
0.0393701
144
1.0
145
0.0
146
0.71
147
1.5
 71
     0
 72
     0
 73
     0
 74
     0
 75
     0
 76
     0
 77
     3
 78
     8
170
     0
171
     2
172
     1
173
     0
174
     0
175
     0
176
   256
177
   256
178
    40
  0
DIMSTYLE
  2
TECHNICAL_OSAKA$3
 70
     0
  3

  4
"
  5
OPEN30
  6

  7

 40
1.0
 41
2.5
 42
1.0
 43
10.0
 44
1.0
 45
0.0
 46
0.0
 47
0.1
 48
0.1
140
2.7999999999999989
141
0.0
142
0.0
143
0.0393701
144
1.0
145
0.0
146
0.71
147
1.5
 71
     0
 72
     0
 73
     0
 74
     1
 75
     0
 76
     0
 77
     3
 78
     8
170
     0
171
     2
172
     0
173
     0
174
     0
175
     0
176
   256
177
   256
178
    40
  0
DIMSTYLE
  2
TECHNICAL_OSAKA$4
 70
     0
  3

  4
"
  5
OPEN30
  6

  7

 40
1.0
 41
2.5
 42
1.0
 43
10.0
 44
1.0
 45
0.0
 46
0.0
 47
0.1
 48
0.1
140
2.7999999999999989
141
0.0
142
0.0
143
0.0393701
144
1.0
145
0.0
146
0.71
147
1.5
 71
     0
 72
     0
 73
     0
 74
     1
 75
     0
 76
     0
 77
     3
 78
     8
170
     0
171
     2
172
     0
173
     0
174
     0
175
     0
176
   256
177
   256
178
    40
  0
DIMSTYLE
  2
TECHNICAL_OSAKA$6
 70
     0
  3

  4
"
  5
OPEN30
  6

  7

 40
1.0
 41
2.5
 42
1.0
 43
10.0
 44
1.0
 45
0.0
 46
0.0
 47
0.1
 48
0.1
140
2.7999999999999989
141
0.0
142
0.0
143
0.0393701
144
1.0
145
0.0
146
0.71
147
1.5
 71
     0
 72
     0
 73
     0
 74
     0
 75
     0
 76
     0
 77
     0
 78
     8
170
     0
171
     2
172
     1
173
     0
174
     0
175
     0
176
   256
177
   256
178
    40
  0
DIMSTYLE
  2
TECHNICAL_OSAKA$7
 70
     0
  3

  4
"
  5
OPEN30
  6

  7

 40
1.0
 41
2.5
 42
1.0
 43
10.0
 44
1.0
 45
0.0
 46
0.0
 47
0.1
 48
0.1
140
2.7999999999999989
141
0.0
142
0.0
143
0.0393701
144
1.0
145
0.0
146
0.71
147
1.5
 71
     0
 72
     0
 73
     0
 74
     0
 75
     0
 76
     0
 77
     3
 78
     8
170
     0
171
     2
172
     1
173
     0
174
     0
175
     0
176
   256
177
   256
178
    40
  0
DIMSTYLE
  2
TECHNICAL_OSAKA$SF
 70
     0
  3

  4
"
  5
OPEN30
  6
OPEN30
  7
OPEN30
 40
1.0
 41
2.5
 42
1.0
 43
10.0
 44
1.0
 45
0.0
 46
0.0
 47
0.1
 48
0.1
140
3.5
141
0.0
142
0.0
143
0.0393701
144
1.0
145
0.0
146
0.71
147
1.5
 71
     0
 72
     0
 73
     0
 74
     0
 75
     1
 76
     1
 77
     3
 78
     8
170
     0
171
     2
172
     1
173
     0
174
     0
175
     0
176
   256
177
   256
178
    40
  0
DIMSTYLE
  2
TECHNICAL_OSAKA$SH
 70
     0
  3

  4
"
  5
OPEN30
  6
GENAXEH
  7
OPEN30
 40
1.0
 41
2.5
 42
1.0
 43
10.0
 44
1.0
 45
0.0
 46
0.0
 47
0.1
 48
0.1
140
3.5
141
0.0
142
0.0
143
0.0393701
144
2.0
145
0.0
146
0.71
147
1.5
 71
     0
 72
     0
 73
     0
 74
     0
 75
     1
 76
     1
 77
     3
 78
     8
170
     0
171
     2
172
     1
173
     1
174
     0
175
     0
176
   256
177
   256
178
    40
  0
ENDTAB
  0
ENDSEC
  0
SECTION
  2
BLOCKS
  0
BLOCK
  8
0
  2
$MODEL_SPACE
 70
     0
 10
0.0
 20
0.0
 30
0.0
  3
$MODEL_SPACE
  1

  0
ENDBLK
  5
1C
  8
0
  0
BLOCK
 67
     1
  8
0
  2
$PAPER_SPACE
 70
     0
 10
0.0
 20
0.0
 30
0.0
  3
$PAPER_SPACE
  1

  0
ENDBLK
  5
19
 67
     1
  8
0
  0
BLOCK
  8
0
  2
_OPEN
 70
     0
 10
0.0
 20
0.0
 30
0.0
  3
_OPEN
  1

  0
LINE
  5
4398
  8
0
  6
BYBLOCK
 62
     0
 10
-1.0
 20
0.1666666666666666
 30
0.0
 11
0.0
 21
0.0
 31
0.0
  0
LINE
  5
4399
  8
0
  6
BYBLOCK
 62
     0
 10
-1.0
 20
-0.1666666666666666
 30
0.0
 11
0.0
 21
0.0
 31
0.0
  0
LINE
  5
439A
  8
0
  6
BYBLOCK
 62
     0
 10
0.0
 20
0.0
 30
0.0
 11
-1.0
 21
0.0
 31
0.0
  0
ENDBLK
  5
439B
  8
0
  0
BLOCK
  8
0
  2
GENAXEH
 70
     0
 10
0.0
 20
0.0
 30
0.0
  3
GENAXEH
  1

  0
LINE
  5
43D3
  8
0
 10
-1.0
 20
0.0
 30
0.0
 11
1.0
 21
0.0
 31
0.0
  0
ENDBLK
  5
43D4
  8
0
  0
BLOCK
  8
0
  2
_OPEN30
 70
     0
 10
0.0
 20
0.0
 30
0.0
  3
_OPEN30
  1

  0
LINE
  5
440F
  8
0
  6
BYBLOCK
 62
     0
 10
-1.0
 20
0.26794919
 30
0.0
 11
0.0
 21
0.0
 31
0.0
  0
LINE
  5
4410
  8
0
  6
BYBLOCK
 62
     0
 10
0.0
 20
0.0
 30
0.0
 11
-1.0
 21
-0.26794919
 31
0.0
  0
LINE
  5
4411
  8
0
  6
BYBLOCK
 62
     0
 10
0.0
 20
0.0
 30
0.0
 11
-1.0
 21
0.0
 31
0.0
  0
ENDBLK
  5
4412
  8
0
  0
ENDSEC
  0
SECTION
  2
ENTITIES
  0
TEXT
  5
422C
  8
250
  6
CONTINUOUS
 10
-34.723162883333373
 20
-23.36963154
 30
0.0
 40
2.799999999999998
  1
HSK-E40
  7
YOKO
1001
ITEMNAME
1000
LNSP3
  0
LINE
  5
422D
  8
250
  6
CONTINUOUS
 10
-12.58982954999999
 20
-24.36963154
 30
0.0
 11
-36.989829550000032
 21
-24.36963154
 31
0.0
1001
ITEMNAME
1000
LNSP2
  0
LINE
  5
422E
  8
250
  6
CONTINUOUS
 10
-8.5279124051992312
 20
-16.590851337002281
 30
0.0
 11
-7.0910396300000089
 21
-14.84544801999999
 31
0.0
  0
LINE
  5
422F
  8
250
  6
CONTINUOUS
 10
-7.8841668550796271
 20
-16.962518003715392
 30
0.0
 11
-7.0910396300000089
 21
-14.84544801999999
 31
0.0
  0
LINE
  5
4230
  8
250
  6
CONTINUOUS
 10
-7.0910396300000089
 20
-14.84544801999999
 30
0.0
 11
-8.2060396301394007
 21
-16.776684670358801
 31
0.0
  0
POLYLINE
  5
4231
  8
250
  6
CONTINUOUS
 66
     1
 10
0.0
 20
0.0
 30
0.0
1001
ACAD
1000
DSTYLE
1002
{
1070
     6
1000
OPEN
1070
   343
1005
0
1002
}
  0
VERTEX
  5
4232
  8
250
  6
CONTINUOUS
 10
-8.2060396301394007
 20
-16.776684670358801
 30
0.0
  0
VERTEX
  5
4233
  8
250
  6
CONTINUOUS
 10
-12.58982954999999
 20
-24.36963154
 30
0.0
  0
SEQEND
  5
4234
  8
250
  6
CONTINUOUS
  0
LINE
  5
4235
  8
245
  6
CENTER2
 10
-21.0
 20
0.0
 30
0.0
 11
76.760523956243219
 21
0.0
 31
0.0
  0
LINE
  5
4236
  8
240
  6
CONTINUOUS
 10
0.0
 20
20.0
 30
0.0
 11
13.979274060000019
 21
20.0
 31
0.0
  0
LINE
  5
4237
  8
240
  6
CONTINUOUS
 10
0.0
 20
-20.0
 30
0.0
 11
13.979274060000019
 21
-20.0
 31
0.0
  0
LINE
  5
4238
  8
240
  6
CONTINUOUS
 10
-20.0
 20
-14.20000000469838
 30
0.0
 11
-20.0
 21
14.20000000469838
 31
0.0
  0
LINE
  5
4239
  8
241
  6
CONTINUOUS
 10
0.0
 20
-15.19999999947794
 30
0.0
 11
0.0
 21
15.19999999947794
 31
0.0
  0
LINE
  5
423A
  8
240
  6
CONTINUOUS
 10
-20.0
 20
-14.20000000469838
 30
0.0
 11
0.0
 21
-15.19999999947799
 31
0.0
  0
LINE
  5
423B
  8
240
  6
CONTINUOUS
 10
0.0
 20
-20.0
 30
0.0
 11
0.0
 21
-15.19999999947799
 31
0.0
  0
LINE
  5
423C
  8
240
  6
CONTINUOUS
 10
-20.0
 20
14.20000000469838
 30
0.0
 11
0.0
 21
15.19999999947799
 31
0.0
  0
LINE
  5
423D
  8
240
  6
CONTINUOUS
 10
0.0
 20
20.0
 30
0.0
 11
0.0
 21
15.19999999947799
 31
0.0
  0
LINE
  5
423E
  8
241
  6
CONTINUOUS
 10
17.0
 20
17.39999999999997
 30
0.0
 11
17.0
 21
-17.39999999999997
 31
0.0
  0
LINE
  5
423F
  8
241
  6
CONTINUOUS
 10
15.0
 20
17.39999999999997
 30
0.0
 11
15.0
 21
-17.39999999999997
 31
0.0
  0
LINE
  5
4240
  8
241
  6
CONTINUOUS
 10
18.020725939999981
 20
-20.0
 30
0.0
 11
18.020725939999981
 21
20.0
 31
0.0
  0
LINE
  5
4241
  8
241
  6
CONTINUOUS
 10
13.979274060000019
 20
-20.0
 30
0.0
 11
13.979274060000019
 21
20.0
 31
0.0
  0
LINE
  5
4242
  8
240
  6
CONTINUOUS
 10
20.0
 20
-20.0
 30
0.0
 11
20.0
 21
-15.627250694141891
 31
0.0
  0
LINE
  5
4243
  8
240
  6
CONTINUOUS
 10
17.0
 20
-18.232050810000018
 30
0.0
 11
18.020725939999981
 21
-20.0
 31
0.0
  0
LINE
  5
4244
  8
240
  6
CONTINUOUS
 10
15.0
 20
-17.39999999999997
 30
0.0
 11
15.0
 21
-18.232050810000018
 31
0.0
  0
LINE
  5
4245
  8
240
  6
CONTINUOUS
 10
17.0
 20
-17.39999999999997
 30
0.0
 11
17.0
 21
-18.232050810000018
 31
0.0
  0
LINE
  5
4246
  8
240
  6
CONTINUOUS
 10
15.0
 20
-17.39999999999997
 30
0.0
 11
17.0
 21
-17.39999999999997
 31
0.0
  0
LINE
  5
4247
  8
240
  6
CONTINUOUS
 10
15.0
 20
-18.232050810000018
 30
0.0
 11
13.979274060000019
 21
-20.0
 31
0.0
  0
LINE
  5
4248
  8
240
  6
CONTINUOUS
 10
18.020725939999981
 20
-20.0
 30
0.0
 11
20.0
 21
-20.0
 31
0.0
  0
LINE
  5
4249
  8
240
  6
CONTINUOUS
 10
17.0
 20
18.232050810000018
 30
0.0
 11
18.020725939999981
 21
20.0
 31
0.0
  0
LINE
  5
424A
  8
240
  6
CONTINUOUS
 10
17.0
 20
17.39999999999997
 30
0.0
 11
17.0
 21
18.232050810000018
 31
0.0
  0
LINE
  5
424B
  8
240
  6
CONTINUOUS
 10
15.0
 20
17.39999999999997
 30
0.0
 11
17.0
 21
17.39999999999997
 31
0.0
  0
LINE
  5
424C
  8
240
  6
CONTINUOUS
 10
15.0
 20
17.39999999999997
 30
0.0
 11
15.0
 21
18.232050810000018
 31
0.0
  0
LINE
  5
424D
  8
240
  6
CONTINUOUS
 10
15.0
 20
18.232050810000018
 30
0.0
 11
13.979274060000019
 21
20.0
 31
0.0
  0
LINE
  5
424E
  8
240
  6
CONTINUOUS
 10
18.020725939999981
 20
20.0
 30
0.0
 11
20.0
 21
20.0
 31
0.0
  0
LINE
  5
424F
  8
247
  6
CONTINUOUS
 10
6.4999999999999432
 20
-10.75
 30
0.0
 11
6.5
 21
-6.1153846156699929
 31
0.0
  0
LINE
  5
4250
  8
247
  6
CONTINUOUS
 10
4.0
 20
-9.9548934999879162
 30
0.0
 11
6.0999999999160082
 21
-10.557058810057351
 31
0.0
  0
LINE
  5
4251
  8
247
  6
CONTINUOUS
 10
4.996153846113998
 20
-9.3251514035190421
 30
0.0
 11
4.996153846113998
 21
-10.240536018867029
 31
0.0
  0
ARC
  5
4252
  8
247
  6
CONTINUOUS
 10
4.384719067294097
 20
-9.0872634019468101
 30
0.0
 40
0.3876715809326743
 50
72.997889675292214
 51
172.92416621851351
  0
ARC
  5
4253
  8
247
  6
CONTINUOUS
 10
4.305223131028014
 20
-9.3824775568041314
 30
0.0
 40
0.6933047965358768
 50
4.7429368522022122
 51
73.849226273266751
1001
GENIUS_GENOBJ-N-FIL_13
1002
{
1000
OWNER
1000
GEN
1002
}
1001
GENIUS_GENODEF_13
1002
{
1000
HIER
1070
     0
1002
}
1002
{
1000
MANEDIT
1070
     0
1002
}
1002
{
1000
NOSEL
1070
     0
1002
}
1002
{
1000
BEHIND
1070
     0
1002
}
1002
{
1000
OTHER
1070
     0
1002
}
1002
{
1000
REACTOR
1002
}
  0
LINE
  5
4254
  8
247
  6
CONTINUOUS
 10
6.0999999999160082
 20
-9.6416741947093634
 30
0.0
 11
6.0999999999160082
 21
-10.557058810057351
 31
0.0
  0
LINE
  5
4255
  8
247
  6
CONTINUOUS
 10
4.0
 20
-9.9548934999879748
 30
0.0
 11
4.0
 21
-9.0395088846399272
 31
0.0
  0
ARC
  5
4256
  8
247
  6
CONTINUOUS
 10
5.3874169627678707
 20
-9.3783064762668555
 30
0.0
 40
0.394857301075386
 50
65.990941652528889
 51
172.26344345906909
  0
ARC
  5
4257
  8
247
  6
CONTINUOUS
 10
5.3912003273325668
 20
-9.7124466104269231
 30
0.0
 40
0.7123241612361686
 50
5.701985164256504
 51
77.277338436822006
1001
GENIUS_GENOBJ-N-FIL_13
1002
{
1000
OWNER
1000
GEN
1002
}
1001
GENIUS_GENODEF_13
1002
{
1000
HIER
1070
     0
1002
}
1002
{
1000
MANEDIT
1070
     0
1002
}
1002
{
1000
NOSEL
1070
     0
1002
}
1002
{
1000
BEHIND
1070
     0
1002
}
1002
{
1000
OTHER
1070
     0
1002
}
1002
{
1000
REACTOR
1002
}
  0
LINE
  5
4258
  8
247
  6
CONTINUOUS
 10
6.0999999999160082
 20
-8.6839818870633945
 30
0.0
 11
4.0
 21
-8.0818165769939583
 31
0.0
  0
LINE
  5
4259
  8
247
  6
CONTINUOUS
 10
4.0
 20
-6.585662730907984
 30
0.0
 11
4.0
 21
-6.981678364303546
 31
0.0
  0
LINE
  5
425A
  8
247
  6
CONTINUOUS
 10
6.0999999999160082
 20
-7.6087396539439851
 30
0.0
 11
6.0999999999160082
 21
-7.177970423191935
 31
0.0
  0
ARC
  5
425B
  8
247
  6
CONTINUOUS
 10
5.4582995950833579
 20
-6.3818165770699684
 30
0.0
 40
1.576855057639547
 50
202.3594881415259
 51
254.99324854284649
  0
ARC
  5
425C
  8
247
  6
CONTINUOUS
 10
4.5658188585381341
 20
-6.8475113661332321
 30
0.0
 40
0.6234706797009447
 50
94.994589319075317
 51
155.1663289573041
1001
GENIUS_GENOBJ-N-FIL_13
1002
{
1000
OWNER
1000
GEN
1002
}
1001
GENIUS_GENODEF_13
1002
{
1000
HIER
1070
     0
1002
}
1002
{
1000
MANEDIT
1070
     0
1002
}
1002
{
1000
NOSEL
1070
     0
1002
}
1002
{
1000
BEHIND
1070
     0
1002
}
1002
{
1000
OTHER
1070
     0
1002
}
1002
{
1000
REACTOR
1002
}
  0
ARC
  5
425D
  8
247
  6
CONTINUOUS
 10
5.1621021219694381
 20
-7.4441839510327554
 30
0.0
 40
0.9749472149106983
 50
15.846096555780679
 51
82.325137004169278
  0
ARC
  5
425E
  8
247
  6
CONTINUOUS
 10
5.371470401971064
 20
-7.0352116387722381
 30
0.0
 40
0.9271945638692009
 50
249.7136016704969
 51
321.78874565641081
1001
GENIUS_GENOBJ-N-FIL_13
1002
{
1000
OWNER
1000
GEN
1002
}
1001
GENIUS_GENODEF_13
1002
{
1000
HIER
1070
     0
1002
}
1002
{
1000
MANEDIT
1070
     0
1002
}
1002
{
1000
NOSEL
1070
     0
1002
}
1002
{
1000
BEHIND
1070
     0
1002
}
1002
{
1000
OTHER
1070
     0
1002
}
1002
{
1000
REACTOR
1002
}
  0
LINE
  5
425F
  8
247
  6
CONTINUOUS
 10
5.2923076922559744
 20
-6.9625858078159668
 30
0.0
 11
5.2923076922559744
 21
-6.4779704232199711
 31
0.0
  0
ARC
  5
4260
  8
247
  6
CONTINUOUS
 10
5.25
 20
-10.75
 30
0.0
 40
1.25
 50
180.0
 51
0.0
  0
LINE
  5
4261
  8
247
  6
CONTINUOUS
 10
4.0
 20
-10.75
 30
0.0
 11
4.0
 21
-10.30384615391398
 31
0.0
  0
ARC
  5
4262
  8
247
  6
CONTINUOUS
 10
5.25
 20
-6.1153846156699929
 30
0.0
 40
1.25
 50
0.0
 51
180.0
  0
LINE
  5
4273
  8
240
  6
CONTINUOUS
 10
75.0
 20
-7.9999999999999778
 30
0.0
 11
75.0
 21
7.9999999999999822
 31
0.0
  0
LINE
  5
4274
  8
240
  6
CONTINUOUS
 10
75.0
 20
-7.9999999999999778
 30
0.0
 11
24.738320218785269
 21
-10.63410302036902
 31
0.0
  0
LINE
  5
4275
  8
240
  6
CONTINUOUS
 10
75.0
 20
7.9999999999999822
 30
0.0
 11
24.73832021878528
 21
10.63410302036884
 31
0.0
  0
LINE
  5
4276
  8
243
  6
HIDDEN2
 10
75.0
 20
4.9999999999999698
 30
0.0
 11
42.999999999999659
 21
5.0
 31
0.0
  0
ARC
  5
427F
  8
240
  6
CONTINUOUS
 10
25.0
 20
-15.627250694141891
 30
0.0
 40
5.0
 50
93.00000000000027
 51
180.0
1001
GENIUS_GENODEF_13
1002
{
1000
HIER
1070
     0
1002
}
1002
{
1000
MANEDIT
1070
     0
1002
}
1002
{
1000
NOSEL
1070
     0
1002
}
1002
{
1000
BEHIND
1070
     0
1002
}
1002
{
1000
OTHER
1070
     0
1002
}
1002
{
1000
REACTOR
1002
}
1001
GENIUS_GENOBJ-N-FIL_13
1002
{
1000
OWNER
1000
GEN
1002
}
  0
ARC
  5
4281
  8
240
  6
CONTINUOUS
 10
25.0
 20
15.62725069414171
 30
0.0
 40
5.0
 50
180.0
 51
266.99999999999989
1001
GENIUS_GENODEF_13
1002
{
1000
HIER
1070
     0
1002
}
1002
{
1000
MANEDIT
1070
     0
1002
}
1002
{
1000
NOSEL
1070
     0
1002
}
1002
{
1000
BEHIND
1070
     0
1002
}
1002
{
1000
OTHER
1070
     0
1002
}
1002
{
1000
REACTOR
1002
}
1001
GENIUS_GENOBJ-N-FIL_13
1002
{
1000
OWNER
1000
GEN
1002
}
  0
LINE
  5
4282
  8
240
  6
CONTINUOUS
 10
20.0
 20
15.62725069414171
 30
0.0
 11
20.0
 21
20.0
 31
0.0
  0
LINE
  5
4283
  8
241
  6
CONTINUOUS
 10
20.0
 20
15.62725069414171
 30
0.0
 11
20.0
 21
-15.627250694141891
 31
0.0
  0
LINE
  5
4284
  8
243
  6
HIDDEN2
 10
75.0
 20
-4.9999999999999698
 30
0.0
 11
42.999999999999659
 21
-5.0
 31
0.0
  0
TEXT
  5
42BF
  8
241
  6
CONTINUOUS
 10
-20.0
 20
49.0
 30
0.0
 40
5.0
  1
HSK-E40-SRC10S-75
  7
YOKO
 11
-20.0
 21
49.0
 31
0.0
 73
     1
  0
LINE
  5
42C0
  8
250
  6
CONTINUOUS
 10
43.0
 20
5.5
 30
0.0
 11
43.0
 21
22.0
 31
0.0
  0
LINE
  5
42C1
  8
250
  6
CONTINUOUS
 10
75.0
 20
8.5006861729989431
 30
0.0
 11
75.0
 21
22.0
 31
0.0
  0
LINE
  5
42C2
  8
250
  6
CONTINUOUS
 10
45.22999999999999
 20
21.0
 30
0.0
 11
72.769999999999996
 21
21.0
 31
0.0
  0
LINE
  5
42C3
  8
250
  6
CONTINUOUS
 10
45.22999999999999
 20
20.62833333333333
 30
0.0
 11
43.0
 21
21.0
 31
0.0
  0
LINE
  5
42C4
  8
250
  6
CONTINUOUS
 10
45.22999999999999
 20
21.37166666666667
 30
0.0
 11
43.0
 21
21.0
 31
0.0
  0
LINE
  5
42C5
  8
250
  6
CONTINUOUS
 10
43.0
 20
21.0
 30
0.0
 11
45.22999999999999
 21
21.0
 31
0.0
  0
LINE
  5
42C6
  8
250
  6
CONTINUOUS
 10
72.769999999999996
 20
21.37166666666667
 30
0.0
 11
75.0
 21
21.0
 31
0.0
  0
LINE
  5
42C7
  8
250
  6
CONTINUOUS
 10
72.769999999999996
 20
20.62833333333333
 30
0.0
 11
75.0
 21
21.0
 31
0.0
  0
LINE
  5
42C8
  8
250
  6
CONTINUOUS
 10
75.0
 20
21.0
 30
0.0
 11
72.769999999999996
 21
21.0
 31
0.0
  0
TEXT
  5
42C9
  8
250
  6
CONTINUOUS
 10
56.333333333333329
 20
22.0
 30
0.0
 40
2.7999999999999989
  1
32
1001
ACAD
1000
MTEXTBEGIN
1070
    73
1070
     1
1070
    44
1040
1.0
1070
    74
1070
     0
1000
MTEXTEND
  0
LINE
  5
42CA
  8
250
  6
CONTINUOUS
 10
19.0
 20
6.0
 30
0.0
 11
19.0
 21
29.0
 31
0.0
  0
LINE
  5
42CB
  8
250
  6
CONTINUOUS
 10
75.0
 20
8.5006861729989431
 30
0.0
 11
75.0
 21
29.0
 31
0.0
  0
LINE
  5
42CC
  8
250
  6
CONTINUOUS
 10
21.23
 20
28.0
 30
0.0
 11
72.769999999999996
 21
28.0
 31
0.0
  0
LINE
  5
42CD
  8
250
  6
CONTINUOUS
 10
21.23
 20
27.62833333333333
 30
0.0
 11
19.0
 21
28.0
 31
0.0
  0
LINE
  5
42CE
  8
250
  6
CONTINUOUS
 10
21.23
 20
28.371666666666659
 30
0.0
 11
19.0
 21
28.0
 31
0.0
  0
LINE
  5
42CF
  8
250
  6
CONTINUOUS
 10
19.0
 20
28.0
 30
0.0
 11
21.23
 21
28.0
 31
0.0
  0
LINE
  5
42D0
  8
250
  6
CONTINUOUS
 10
72.769999999999996
 20
28.371666666666659
 30
0.0
 11
75.0
 21
28.0
 31
0.0
  0
LINE
  5
42D1
  8
250
  6
CONTINUOUS
 10
72.769999999999996
 20
27.62833333333333
 30
0.0
 11
75.0
 21
28.0
 31
0.0
  0
LINE
  5
42D2
  8
250
  6
CONTINUOUS
 10
75.0
 20
28.0
 30
0.0
 11
72.769999999999996
 21
28.0
 31
0.0
  0
TEXT
  5
42D3
  8
250
  6
CONTINUOUS
 10
36.373333333333342
 20
29.0
 30
0.0
 40
2.7999999999999989
  1
üimax.56üj
1001
ACAD
1000
MTEXTBEGIN
1070
    73
1070
     1
1070
    44
1040
1.0
1070
    74
1070
     0
1000
MTEXTEND
  0
LINE
  5
42D4
  8
250
  6
CONTINUOUS
 10
0.0
 20
20.5
 30
0.0
 11
0.0
 21
36.0
 31
0.0
  0
LINE
  5
42D5
  8
250
  6
CONTINUOUS
 10
75.0
 20
8.5006861729989431
 30
0.0
 11
75.0
 21
36.0
 31
0.0
  0
LINE
  5
42D6
  8
250
  6
CONTINUOUS
 10
2.2299999999999991
 20
35.0
 30
0.0
 11
72.769999999999996
 21
35.0
 31
0.0
  0
LINE
  5
42D7
  8
250
  6
CONTINUOUS
 10
2.2299999999999991
 20
34.62833333333333
 30
0.0
 11
0.0
 21
35.0
 31
0.0
  0
LINE
  5
42D8
  8
250
  6
CONTINUOUS
 10
2.2299999999999991
 20
35.37166666666667
 30
0.0
 11
0.0
 21
35.0
 31
0.0
  0
LINE
  5
42D9
  8
250
  6
CONTINUOUS
 10
0.0
 20
35.0
 30
0.0
 11
2.2299999999999991
 21
35.0
 31
0.0
  0
LINE
  5
42DA
  8
250
  6
CONTINUOUS
 10
72.769999999999996
 20
35.37166666666667
 30
0.0
 11
75.0
 21
35.0
 31
0.0
  0
LINE
  5
42DB
  8
250
  6
CONTINUOUS
 10
72.769999999999996
 20
34.62833333333333
 30
0.0
 11
75.0
 21
35.0
 31
0.0
  0
LINE
  5
42DC
  8
250
  6
CONTINUOUS
 10
75.0
 20
35.0
 30
0.0
 11
72.769999999999996
 21
35.0
 31
0.0
  0
TEXT
  5
42DD
  8
250
  6
CONTINUOUS
 10
34.833333333333343
 20
36.0
 30
0.0
 40
2.7999999999999989
  1
75
1001
ACAD
1000
MTEXTBEGIN
1070
    73
1070
     1
1070
    44
1040
1.0
1070
    74
1070
     0
1000
MTEXTEND
  0
LINE
  5
42DE
  8
250
  6
CONTINUOUS
 10
75.5
 20
-8.0
 30
0.0
 11
92.0
 21
-8.0
 31
0.0
  0
LINE
  5
42DF
  8
250
  6
CONTINUOUS
 10
75.5
 20
8.0
 30
0.0
 11
92.0
 21
8.0
 31
0.0
  0
LINE
  5
42E0
  8
250
  6
CONTINUOUS
 10
91.0
 20
-5.7699999999999987
 30
0.0
 11
91.0
 21
5.7699999999999987
 31
0.0
  0
LINE
  5
42E1
  8
250
  6
CONTINUOUS
 10
91.37166666666667
 20
-5.7699999999999987
 30
0.0
 11
91.0
 21
-8.0
 31
0.0
  0
LINE
  5
42E2
  8
250
  6
CONTINUOUS
 10
90.62833333333333
 20
-5.7699999999999987
 30
0.0
 11
91.0
 21
-8.0
 31
0.0
  0
LINE
  5
42E3
  8
250
  6
CONTINUOUS
 10
91.0
 20
-8.0
 30
0.0
 11
91.0
 21
-5.7699999999999987
 31
0.0
  0
LINE
  5
42E4
  8
250
  6
CONTINUOUS
 10
90.62833333333333
 20
5.7699999999999987
 30
0.0
 11
91.0
 21
8.0
 31
0.0
  0
LINE
  5
42E5
  8
250
  6
CONTINUOUS
 10
91.37166666666667
 20
5.7699999999999987
 30
0.0
 11
91.0
 21
8.0
 31
0.0
  0
LINE
  5
42E6
  8
250
  6
CONTINUOUS
 10
91.0
 20
8.0
 30
0.0
 11
91.0
 21
5.7699999999999987
 31
0.0
  0
TEXT
  5
42E7
  8
250
  6
CONTINUOUS
 10
89.999999999999986
 20
-3.9333333333333331
 30
0.0
 40
2.7999999999999989
  1
\U+220516
 50
90.0
1001
ACAD
1000
MTEXTBEGIN
1070
    73
1070
     1
1070
    44
1040
1.0
1070
    74
1070
     0
1000
MTEXTEND
  0
LINE
  5
42E8
  8
250
  6
CONTINUOUS
 10
75.5
 20
5.0
 30
0.0
 11
85.0
 21
5.0
 31
0.0
  0
LINE
  5
42E9
  8
250
  6
CONTINUOUS
 10
84.0
 20
-2.77
 30
0.0
 11
84.0
 21
2.77
 31
0.0
  0
LINE
  5
42EA
  8
250
  6
CONTINUOUS
 10
83.628333333333316
 20
2.77
 30
0.0
 11
84.0
 21
5.0
 31
0.0
  0
LINE
  5
42EB
  8
250
  6
CONTINUOUS
 10
84.371666666666684
 20
2.77
 30
0.0
 11
84.0
 21
5.0
 31
0.0
  0
LINE
  5
42EC
  8
250
  6
CONTINUOUS
 10
84.0
 20
5.0
 30
0.0
 11
84.0
 21
2.77
 31
0.0
  0
TEXT
  5
42ED
  8
250
  6
CONTINUOUS
 10
82.999999999999986
 20
-3.9333333333333331
 30
0.0
 40
2.7999999999999989
  1
\U+220510
 50
90.0
1001
ACAD
1000
MTEXTBEGIN
1070
    73
1070
     1
1070
    44
1040
1.0
1070
    74
1070
     0
1000
MTEXTEND
  0
LINE
  5
42EE
  8
250
  6
CONTINUOUS
 10
75.5
 20
-5.0
 30
0.0
 11
85.0
 21
-5.0
 31
0.0
  0
LINE
  5
42EF
  8
250
  6
CONTINUOUS
 10
83.628333333333316
 20
-2.77
 30
0.0
 11
84.0
 21
-5.0
 31
0.0
  0
LINE
  5
42F0
  8
250
  6
CONTINUOUS
 10
84.371666666666684
 20
-2.77
 30
0.0
 11
84.0
 21
-5.0
 31
0.0
  0
LINE
  5
42F1
  8
250
  6
CONTINUOUS
 10
84.0
 20
-5.0
 30
0.0
 11
84.0
 21
-2.77
 31
0.0
  0
VIEWPORT
  5
22
 67
     1
  8
0
 10
261.51769911504419
 20
148.5
 30
0.0
 40
523.0353982300885
 41
297.0
 68
     1
 69
     1
1001
ACAD
1000
MVIEW
1002
{
1070
    16
1010
0.0
1020
0.0
1030
0.0
1010
0.0
1020
0.0
1030
1.0
1040
0.0
1040
297.0
1040
261.51769911504419
1040
148.5
1040
50.0
1040
0.0
1040
0.0
1070
     0
1070
   100
1070
     1
1070
     1
1070
     0
1070
     0
1070
     0
1070
     0
1040
0.0
1040
0.0
1040
0.0
1040
1.0
1040
1.0
1040
10.0
1040
10.0
1070
     0
1002
{
1002
}
1002
}
1001
GENIUS_GENODEF_13
1002
{
1000
HIER
1070
     0
1002
}
1002
{
1000
MANEDIT
1070
     0
1002
}
1002
{
1000
NOSEL
1070
     0
1002
}
1002
{
1000
BEHIND
1070
     0
1002
}
1002
{
1000
OTHER
1070
     0
1002
}
1002
{
1000
REACTOR
1002
}
1001
GENIUS_GENOBJ-N-SDF_13
1002
{
1000
OWNER
1000
GEN
1002
}
1001
GENIUS_GENSCREG_15
1000
PF
1040
1.0
1000
DF
1040
1.0
1000
MIN
1011
0.0
1021
0.0
1031
0.0
1021
0.0
1031
0.0
1000
MAX
1011
523.0353982300885
1021
0.0
1031
0.0
1021
297.0
1031
0.0
1000
FLAGS
1070
     4
  0
ENDSEC
  0
EOF
