  0
SECTION
  2
HEADER
  9
$ACADVER
  1
AC1009
  9
$INSBASE
 10
0.0
 20
0.0
 30
0.0
  9
$EXTMIN
 10
-47.838889869785127
 20
-34.848424506484321
 30
0.0
  9
$EXTMAX
 10
122.1257923890392
 20
68.000000000000014
 30
0.0
  9
$LIMMIN
 10
0.0
 20
0.0
  9
$LIMMAX
 10
297.0
 20
210.0
  9
$ORTHOMODE
 70
     1
  9
$REGENMODE
 70
     1
  9
$FILLMODE
 70
     1
  9
$QTEXTMODE
 70
     0
  9
$MIRRTEXT
 70
     1
  9
$DRAGMODE
 70
     2
  9
$LTSCALE
 40
10.0
  9
$OSMODE
 70
    47
  9
$ATTMODE
 70
     1
  9
$TEXTSIZE
 40
3.0
  9
$TRACEWID
 40
1.0
  9
$TEXTSTYLE
  7
YOKO
  9
$CLAYER
  8
240
  9
$CELTYPE
  6
BYLAYER
  9
$CECOLOR
 62
   256
  9
$DIMSCALE
 40
1.0
  9
$DIMASZ
 40
2.0
  9
$DIMEXO
 40
0.5
  9
$DIMDLI
 40
2.5
  9
$DIMRND
 40
0.0
  9
$DIMDLE
 40
0.0
  9
$DIMEXE
 40
1.0
  9
$DIMTP
 40
0.0
  9
$DIMTM
 40
0.0
  9
$DIMTXT
 40
2.799999999999998
  9
$DIMCEN
 40
0.0
  9
$DIMTSZ
 40
0.0
  9
$DIMTOL
 70
     0
  9
$DIMLIM
 70
     0
  9
$DIMTIH
 70
     0
  9
$DIMTOH
 70
     0
  9
$DIMSE1
 70
     0
  9
$DIMSE2
 70
     0
  9
$DIMTAD
 70
     3
  9
$DIMZIN
 70
     8
  9
$DIMBLK
  1

  9
$DIMASO
 70
     1
  9
$DIMSHO
 70
     1
  9
$DIMPOST
  1

  9
$DIMAPOST
  1

  9
$DIMALT
 70
     0
  9
$DIMALTD
 70
     2
  9
$DIMALTF
 40
25.399999999999999
  9
$DIMLFAC
 40
1.0
  9
$DIMTOFL
 70
     1
  9
$DIMTVP
 40
0.0
  9
$DIMTIX
 70
     1
  9
$DIMSOXD
 70
     0
  9
$DIMSAH
 70
     1
  9
$DIMBLK1
  1
OPEN
  9
$DIMBLK2
  1
OPEN
  9
$DIMSTYLE
  2
BIGT
  9
$DIMCLRD
 70
   256
  9
$DIMCLRE
 70
   256
  9
$DIMCLRT
 70
    40
  9
$DIMTFAC
 40
1.0
  9
$DIMGAP
 40
1.0
  9
$LUNITS
 70
     2
  9
$LUPREC
 70
     3
  9
$SKETCHINC
 40
1.0
  9
$FILLETRAD
 40
3.0
  9
$AUNITS
 70
     0
  9
$AUPREC
 70
     3
  9
$MENU
  1
.
  9
$ELEVATION
 40
0.0
  9
$PELEVATION
 40
0.0
  9
$THICKNESS
 40
0.0
  9
$LIMCHECK
 70
     0
  9
$BLIPMODE
 70
     0
  9
$CHAMFERA
 40
10.0
  9
$CHAMFERB
 40
10.0
  9
$SKPOLY
 70
     0
  9
$TDCREATE
 40
2456454.4089237852
  9
$TDUPDATE
 40
2457673.665236678
  9
$TDINDWG
 40
0.0328540856
  9
$TDUSRTIMER
 40
0.0328408796
  9
$USRTIMER
 70
     1
  9
$ANGBASE
 50
0.0
  9
$ANGDIR
 70
     0
  9
$PDMODE
 70
     0
  9
$PDSIZE
 40
-5.0
  9
$PLINEWID
 40
0.0
  9
$COORDS
 70
     1
  9
$SPLFRAME
 70
     0
  9
$SPLINETYPE
 70
     6
  9
$SPLINESEGS
 70
     8
  9
$ATTDIA
 70
     1
  9
$ATTREQ
 70
     1
  9
$HANDLING
 70
     1
  9
$HANDSEED
  5
1ABA
  9
$SURFTAB1
 70
     6
  9
$SURFTAB2
 70
     6
  9
$SURFTYPE
 70
     6
  9
$SURFU
 70
     6
  9
$SURFV
 70
     6
  9
$UCSNAME
  2

  9
$UCSORG
 10
0.0
 20
0.0
 30
0.0
  9
$UCSXDIR
 10
1.0
 20
0.0
 30
0.0
  9
$UCSYDIR
 10
0.0
 20
1.0
 30
0.0
  9
$PUCSNAME
  2

  9
$PUCSORG
 10
0.0
 20
0.0
 30
0.0
  9
$PUCSXDIR
 10
1.0
 20
0.0
 30
0.0
  9
$PUCSYDIR
 10
0.0
 20
1.0
 30
0.0
  9
$USERI1
 70
     1
  9
$USERI2
 70
     0
  9
$USERI3
 70
     0
  9
$USERI4
 70
     0
  9
$USERI5
 70
     0
  9
$USERR1
 40
0.0
  9
$USERR2
 40
0.0
  9
$USERR3
 40
0.0
  9
$USERR4
 40
0.0
  9
$USERR5
 40
0.0
  9
$WORLDVIEW
 70
     1
  9
$SHADEDGE
 70
     3
  9
$SHADEDIF
 70
    70
  9
$TILEMODE
 70
     1
  9
$MAXACTVP
 70
    16
  9
$PLIMCHECK
 70
     0
  9
$PEXTMIN
 10
1.0000000000000000E+020
 20
1.0000000000000000E+020
 30
1.0000000000000000E+020
  9
$PEXTMAX
 10
-1.0000000000000000E+020
 20
-1.0000000000000000E+020
 30
-1.0000000000000000E+020
  9
$PLIMMIN
 10
0.0
 20
0.0
  9
$PLIMMAX
 10
420.0
 20
297.0
  9
$UNITMODE
 70
     0
  9
$VISRETAIN
 70
     0
  9
$PLINEGEN
 70
     0
  9
$PSLTSCALE
 70
     1
  0
ENDSEC
  0
SECTION
  2
TABLES
  0
TABLE
  2
VPORT
 70
     1
  0
VPORT
  2
*ACTIVE
 70
     0
 10
0.0
 20
0.0
 11
1.0
 21
1.0
 12
39.455800780631122
 22
17.861050852134468
 13
0.0
 23
0.0
 14
7.0
 24
7.0
 15
7.0
 25
7.0
 16
0.0
 26
0.0
 36
1.0
 17
0.0
 27
0.0
 37
0.0
 40
116.8929202829151
 41
1.5020920502092041
 42
50.0
 43
0.0
 44
0.0
 50
0.0
 51
0.0
 71
     0
 72
 20000
 73
     1
 74
     0
 75
     1
 76
     1
 77
     0
 78
     0
  0
ENDTAB
  0
TABLE
  2
LTYPE
 70
    16
  0
LTYPE
  2
CONTINUOUS
 70
     0
  3
Solid line
 72
    65
 73
     0
 40
0.0
  0
LTYPE
  2
CENTER2
 70
     0
  3
___ _ ___ _ ___ _ ___ _ ___ _ ___ _ ___ _ ___ _
 72
    65
 73
     4
 40
1.125
 49
0.75
 49
-0.125
 49
0.125
 49
-0.125
  0
LTYPE
  2
HIDDEN2
 70
     0
  3
_ _ _ _ _ _ _ _ _ _ _ _ _ _ _ _ _ _ _ _ _ _ _ _
 72
    65
 73
     2
 40
0.1875
 49
0.125
 49
-0.0625
  0
LTYPE
  2
PHANTOM2
 70
     0
  3
___ _ _ ___ _ _ ___ _ _ ___ _ _ ___ _ _ ___ _ _
 72
    65
 73
     6
 40
1.25
 49
0.625
 49
-0.125
 49
0.125
 49
-0.125
 49
0.125
 49
-0.125
  0
LTYPE
  2
AMCONSTR
 70
     0
  3
_______________________
 72
    65
 73
     2
 40
9999.0
 49
9999.0
 49
0.0
  0
LTYPE
  2
AM_ISO02W050
 70
     0
  3
__ __ __ __ __ __ __ __ __ __ __ __ __ __ __
 72
    65
 73
     2
 40
7.5
 49
6.0
 49
-1.5
  0
LTYPE
  2
ACJISTGB
 70
     0
  3
__ . . __ . .
 72
    65
 73
     6
 40
9.0
 49
4.0
 49
-1.0
 49
1.0
 49
-1.0
 49
1.0
 49
-1.0
  0
LTYPE
  2
ACJISTGL
 70
     0
  3
_ _ _ _ _
 72
    65
 73
     2
 40
3.0
 49
2.0
 49
-1.0
  0
LTYPE
  2
ACISOWELD
 70
     0
  3
_ _ _ _ _
 72
    65
 73
     2
 40
2.0
 49
2.0
 49
-1.0
  0
LTYPE
  2
ACISOTGB
 70
     0
  3
__ . . __ . .
 72
    65
 73
     6
 40
9.0
 49
4.0
 49
-1.0
 49
1.0
 49
-1.0
 49
1.0
 49
-1.0
  0
LTYPE
  2
ACISOTGL
 70
     0
  3
_ _ _ _ _
 72
    65
 73
     2
 40
3.0
 49
2.0
 49
-1.0
  0
ENDTAB
  0
TABLE
  2
LAYER
 70
     8
  0
LAYER
  2
0
 70
     0
 62
     7
  6
CONTINUOUS
  0
LAYER
  2
240
 70
     0
 62
     4
  6
CONTINUOUS
  0
LAYER
  2
241
 70
     0
 62
   211
  6
CONTINUOUS
  0
LAYER
  2
245
 70
     0
 62
     2
  6
CENTER2
  0
LAYER
  2
250
 70
     0
 62
     3
  6
CONTINUOUS
  0
LAYER
  2
DEFPOINTS
 70
     0
 62
     7
  6
CONTINUOUS
  0
LAYER
  2
243
 70
     0
 62
   211
  6
HIDDEN2
  0
LAYER
  2
247
 70
     0
 62
    60
  6
CONTINUOUS
  0
ENDTAB
  0
TABLE
  2
STYLE
 70
     8
  0
STYLE
  2
STANDARD
 70
     0
 40
0.0
 41
1.0
 50
0.0
 71
     0
 42
2.799999999999998
  3
romans.shx
  4
BIGFONT.SHX
  0
STYLE
  2
YOKO
 70
     0
 40
0.0
 41
1.0
 50
0.0
 71
     0
 42
3.0
  3
romans.shx
  4
extfont.shx
  0
STYLE
  2
ACJISTS
 70
     0
 40
1.0
 41
1.0
 50
0.0
 71
     0
 42
3.0
  3
amgdt.shx
  4
extfont.shx
  0
STYLE
  2
ACJISGDT
 70
     0
 40
0.0
 41
1.0
 50
0.0
 71
     0
 42
3.0
  3
amgdt.shx
  4
extfont.shx
  0
STYLE
  2
ACISOTS
 70
     0
 40
1.0
 41
1.0
 50
0.0
 71
     0
 42
3.0
  3
amgdt.shx
  4
extfont.shx
  0
STYLE
  2
ACISOGDT
 70
     0
 40
0.0
 41
1.0
 50
0.0
 71
     0
 42
3.0
  3
amgdt.shx
  4
extfont.shx
  0
ENDTAB
  0
TABLE
  2
VIEW
 70
     0
  0
ENDTAB
  0
TABLE
  2
UCS
 70
     0
  0
ENDTAB
  0
TABLE
  2
APPID
 70
    44
  0
APPID
  2
ACAD
 70
     0
  0
APPID
  2
GLOBAL
 70
     0
  0
APPID
  2
DETAIL
 70
     0
  0
APPID
  2
GRPNAME
 70
     0
  0
APPID
  2
GPARA
 70
     0
  0
APPID
  2
DCO15
 70
     0
  0
APPID
  2
ITEMNAME
 70
     0
  0
APPID
  2
GRADE_0
 70
     0
  0
APPID
  2
GENIUS_GENODEF_13
 70
     0
  0
APPID
  2
GENIUS_GENOBJ-N-FIL_13
 70
     0
  0
APPID
  2
ACAD_PSEXT
 70
     0
  0
APPID
  2
ACAD_EXEMPT_FROM_CAD_STANDARDS
 70
     0
  0
APPID
  2
MCAD_NO_VIS
 70
     0
  0
APPID
  2
ACAD_TEMP_GRAPHIC
 70
     0
  0
APPID
  2
ACATTRIBSERVICES
 70
     0
  0
APPID
  2
GENIUS_GENSCREG_15
 70
     0
  0
APPID
  2
GENIUS_GENOBJ-N-SDF_13
 70
     0
  0
APPID
  2
GENIUS_GENREC_14
 70
     0
  0
APPID
  2
GENIUS_GENOBJ-N-REC_13
 70
     0
  0
APPID
  2
GENIUS_GENDIMSH_14
 70
     0
  0
APPID
  2
GENIUS_GENOBJ-N-DIM_13
 70
     0
  0
APPID
  2
GENIUS_GENDIM_13
 70
     0
  0
APPID
  2
GENIUS_GENDTOL_13
 70
     0
  0
APPID
  2
GENIUS_GENOLIS_13
 70
     0
  0
APPID
  2
GENIUS_GENOENT_13
 70
     0
  0
APPID
  2
GENIUS_GENOBJ-F-FEM_13
 70
     0
  0
APPID
  2
GENIUS_GENOREF_13
 70
     0
  0
APPID
  2
GENIUS_GEFFEM_13
 70
     0
  0
APPID
  2
GENIUS_GEFFEMP_13
 70
     0
  0
APPID
  2
AD_DRAW
 70
     0
  0
APPID
  2
DESIGNERASSEMBLIES
 70
     0
  0
APPID
  2
ACADM_DIM_EDIT
 70
     0
  0
APPID
  2
AMDT_DM_ADJ
 70
     0
  0
APPID
  2
GENIUS_GENFIL_13
 70
     0
  0
APPID
  2
GENIUS_GENOBJ-N-CHA_13
 70
     0
  0
APPID
  2
ACAD_NAV_VCDISPLAY
 70
     0
  0
APPID
  2
ACAECLAYERSTANDARD
 70
     0
  0
APPID
  2
ACAD_DSTYLE_DIMJAG
 70
     0
  0
APPID
  2
ACAD_DSTYLE_DIMBREAK
 70
     0
  0
APPID
  2
ACAD_MLEADERVER
 70
     0
  0
APPID
  2
ACAD_DSTYLE_DIMARC_LENGTH_
 70
     0
  0
APPID
  2
ACAD_DSTYLE_DIM_LINETYPE
 70
     0
  0
APPID
  2
ACAD_DSTYLE_DIM_EXT1_LINETYPE
 70
     0
  0
APPID
  2
ACAD_DSTYLE_DIM_EXT2_LINETYPE
 70
     0
  0
ENDTAB
  0
TABLE
  2
DIMSTYLE
 70
    29
  0
DIMSTYLE
  2
BIGT
 70
     0
  3

  4

  5
OPEN
  6

  7

 40
1.0
 41
2.2299999999999991
 42
0.5
 43
7.0
 44
1.0
 45
0.0
 46
0.0
 47
0.0
 48
0.01
140
2.7999999999999989
141
0.0
142
0.0
143
25.399999999999999
144
1.0
145
0.0
146
1.0
147
1.0
 71
     0
 72
     0
 73
     0
 74
     0
 75
     0
 76
     0
 77
     3
 78
     9
170
     0
171
     2
172
     1
173
     0
174
     1
175
     0
176
   256
177
   256
178
    40
  0
DIMSTYLE
  2
BIGT$0
 70
     0
  3

  4

  5
OPEN
  6

  7

 40
1.0
 41
2.2299999999999991
 42
0.5
 43
7.0
 44
1.0
 45
0.0
 46
0.0
 47
0.0
 48
0.01
140
2.7999999999999989
141
0.0
142
0.0
143
25.399999999999999
144
1.0
145
0.0
146
1.0
147
1.0
 71
     0
 72
     0
 73
     0
 74
     0
 75
     0
 76
     0
 77
     3
 78
     9
170
     0
171
     2
172
     1
173
     0
174
     1
175
     0
176
   256
177
   256
178
    40
  0
DIMSTYLE
  2
BIGT$2
 70
     0
  3

  4

  5
OPEN
  6

  7

 40
1.0
 41
2.2299999999999991
 42
0.5
 43
7.0
 44
1.0
 45
0.0
 46
0.0
 47
0.0
 48
0.01
140
2.7999999999999989
141
0.0
142
0.0
143
25.399999999999999
144
1.0
145
0.0
146
1.0
147
1.0
 71
     0
 72
     0
 73
     0
 74
     0
 75
     0
 76
     0
 77
     3
 78
     9
170
     0
171
     2
172
     1
173
     0
174
     0
175
     0
176
   256
177
   256
178
    40
  0
DIMSTYLE
  2
BIGT$3
 70
     0
  3

  4

  5
OPEN
  6

  7

 40
1.0
 41
2.2299999999999991
 42
0.5
 43
2.5
 44
1.0
 45
0.0
 46
0.0
 47
0.0
 48
0.01
140
2.7999999999999989
141
0.0
142
0.0
143
25.399999999999999
144
1.0
145
0.0
146
1.0
147
1.0
 71
     0
 72
     0
 73
     0
 74
     0
 75
     0
 76
     0
 77
     3
 78
     9
170
     0
171
     2
172
     1
173
     0
174
     0
175
     0
176
   256
177
   256
178
    40
  0
DIMSTYLE
  2
BIGT$4
 70
     0
  3

  4

  5
OPEN
  6

  7

 40
1.0
 41
2.2299999999999991
 42
0.5
 43
2.5
 44
1.0
 45
0.0
 46
0.0
 47
0.0
 48
0.01
140
2.7999999999999989
141
0.0
142
0.0
143
25.399999999999999
144
1.0
145
0.0
146
1.0
147
1.0
 71
     0
 72
     0
 73
     0
 74
     0
 75
     0
 76
     0
 77
     3
 78
     9
170
     0
171
     2
172
     1
173
     0
174
     0
175
     0
176
   256
177
   256
178
    40
  0
DIMSTYLE
  2
BIGT$6
 70
     0
  3

  4

  5
OPEN
  6

  7

 40
1.0
 41
2.2299999999999991
 42
0.5
 43
2.5
 44
1.0
 45
0.0
 46
0.0
 47
0.0
 48
0.01
140
2.7999999999999989
141
0.0
142
0.0
143
25.399999999999999
144
1.0
145
0.0
146
1.0
147
1.0
 71
     0
 72
     0
 73
     0
 74
     0
 75
     0
 76
     0
 77
     3
 78
     9
170
     0
171
     2
172
     1
173
     0
174
     0
175
     0
176
   256
177
   256
178
    40
  0
DIMSTYLE
  2
BIGT$7
 70
     0
  3

  4

  5
OPEN
  6

  7

 40
0.0
 41
2.2299999999999991
 42
0.5
 43
7.0
 44
1.0
 45
0.0
 46
0.0
 47
0.0
 48
0.01
140
2.7999999999999989
141
0.0
142
0.0
143
25.399999999999999
144
1.0
145
0.0
146
1.0
147
1.0
 71
     0
 72
     0
 73
     0
 74
     0
 75
     0
 76
     0
 77
     3
 78
     9
170
     0
171
     2
172
     0
173
     0
174
     0
175
     0
176
   256
177
   256
178
    40
  0
DIMSTYLE
  2
BIGT$SF
 70
     0
  3

  4

  5
OPEN
  6

  7

 40
1.0
 41
2.2299999999999991
 42
0.5
 43
7.0
 44
1.0
 45
0.0
 46
0.0
 47
0.0
 48
0.0
140
2.7999999999999989
141
0.0
142
0.0
143
25.399999999999999
144
1.0
145
0.0
146
1.0
147
1.0
 71
     0
 72
     0
 73
     0
 74
     0
 75
     0
 76
     0
 77
     3
 78
     9
170
     0
171
     2
172
     1
173
     0
174
     0
175
     0
176
   256
177
   256
178
    40
  0
DIMSTYLE
  2
BIGT$SH
 70
     0
  3

  4

  5
OPEN
  6

  7

 40
1.0
 41
2.2299999999999991
 42
0.5
 43
7.0
 44
1.0
 45
0.0
 46
0.0
 47
0.0
 48
0.0
140
2.7999999999999989
141
0.0
142
0.0
143
25.399999999999999
144
1.0
145
0.0
146
1.0
147
1.0
 71
     0
 72
     0
 73
     0
 74
     0
 75
     0
 76
     0
 77
     3
 78
     9
170
     0
171
     2
172
     1
173
     0
174
     0
175
     0
176
   256
177
   256
178
    40
  0
DIMSTYLE
  2
AM_ISO
 70
     0
  3

  4
"
  5

  6

  7

 40
1.0
 41
2.5
 42
1.0
 43
10.0
 44
1.0
 45
0.0
 46
0.0
 47
0.1
 48
0.1
140
3.5
141
0.0
142
0.0
143
0.0393701
144
1.0
145
0.0
146
0.71
147
1.5
 71
     0
 72
     0
 73
     0
 74
     0
 75
     0
 76
     0
 77
     1
 78
     8
170
     0
171
     2
172
     1
173
     0
174
     0
175
     0
176
   256
177
   256
178
     2
  0
DIMSTYLE
  2
AM_ISO$3
 70
     0
  3

  4
"
  5

  6

  7

 40
1.0
 41
2.5
 42
1.0
 43
10.0
 44
1.0
 45
0.0
 46
0.0
 47
0.1
 48
0.1
140
3.5
141
0.0
142
0.0
143
0.0393701
144
1.0
145
0.0
146
0.71
147
1.5
 71
     0
 72
     0
 73
     0
 74
     1
 75
     0
 76
     0
 77
     1
 78
     8
170
     0
171
     2
172
     0
173
     0
174
     0
175
     0
176
   256
177
   256
178
     2
  0
DIMSTYLE
  2
AM_ISO$4
 70
     0
  3

  4
"
  5

  6

  7

 40
1.0
 41
2.5
 42
1.0
 43
10.0
 44
1.0
 45
0.0
 46
0.0
 47
0.1
 48
0.1
140
3.5
141
0.0
142
0.0
143
0.0393701
144
1.0
145
0.0
146
0.71
147
1.5
 71
     0
 72
     0
 73
     0
 74
     1
 75
     0
 76
     0
 77
     1
 78
     8
170
     0
171
     2
172
     0
173
     0
174
     0
175
     0
176
   256
177
   256
178
     2
  0
DIMSTYLE
  2
AM_ISO$6
 70
     0
  3

  4
"
  5

  6

  7

 40
1.0
 41
2.5
 42
1.0
 43
10.0
 44
1.0
 45
0.0
 46
0.0
 47
0.1
 48
0.1
140
3.5
141
0.0
142
0.0
143
0.0393701
144
1.0
145
0.0
146
0.71
147
1.5
 71
     0
 72
     0
 73
     0
 74
     0
 75
     0
 76
     0
 77
     0
 78
     8
170
     0
171
     2
172
     1
173
     0
174
     0
175
     0
176
   256
177
   256
178
     2
  0
DIMSTYLE
  2
AM_ISO$7
 70
     0
  3

  4
"
  5

  6

  7

 40
1.0
 41
2.5
 42
1.0
 43
10.0
 44
1.0
 45
0.0
 46
0.0
 47
0.1
 48
0.1
140
5.0
141
0.0
142
0.0
143
0.0393701
144
1.0
145
0.0
146
0.71
147
1.5
 71
     0
 72
     0
 73
     0
 74
     0
 75
     0
 76
     0
 77
     1
 78
     8
170
     0
171
     2
172
     1
173
     0
174
     0
175
     0
176
   256
177
   256
178
     2
  0
DIMSTYLE
  2
AM_ISO$SF
 70
     0
  3

  4
"
  5

  6

  7

 40
1.0
 41
2.5
 42
1.0
 43
10.0
 44
1.0
 45
0.0
 46
0.0
 47
0.1
 48
0.1
140
3.5
141
0.0
142
0.0
143
0.0393701
144
1.0
145
0.0
146
0.71
147
1.5
 71
     0
 72
     0
 73
     0
 74
     0
 75
     1
 76
     1
 77
     1
 78
     8
170
     0
171
     2
172
     1
173
     0
174
     0
175
     0
176
   256
177
   256
178
     2
  0
DIMSTYLE
  2
AM_ISO$SH
 70
     0
  3

  4
"
  5

  6
GENAXEH
  7

 40
1.0
 41
2.5
 42
1.0
 43
10.0
 44
1.0
 45
0.0
 46
0.0
 47
0.1
 48
0.1
140
3.5
141
0.0
142
0.0
143
0.0393701
144
2.0
145
0.0
146
0.71
147
1.5
 71
     0
 72
     0
 73
     0
 74
     0
 75
     1
 76
     1
 77
     1
 78
     8
170
     0
171
     2
172
     1
173
     1
174
     0
175
     0
176
   256
177
   256
178
     2
  0
DIMSTYLE
  2
TECHNICAL_OSAKA
 70
     0
  3

  4
"
  5
OPEN30
  6

  7

 40
1.0
 41
2.5
 42
1.0
 43
10.0
 44
1.0
 45
0.0
 46
0.0
 47
0.1
 48
0.1
140
2.7999999999999989
141
0.0
142
0.0
143
0.0393701
144
1.0
145
0.0
146
0.71
147
1.5
 71
     0
 72
     0
 73
     0
 74
     0
 75
     0
 76
     0
 77
     3
 78
     8
170
     0
171
     2
172
     1
173
     0
174
     0
175
     0
176
   256
177
   256
178
    40
  0
DIMSTYLE
  2
TECHNICAL_OSAKA$3
 70
     0
  3

  4
"
  5
OPEN30
  6

  7

 40
1.0
 41
2.5
 42
1.0
 43
10.0
 44
1.0
 45
0.0
 46
0.0
 47
0.1
 48
0.1
140
2.7999999999999989
141
0.0
142
0.0
143
0.0393701
144
1.0
145
0.0
146
0.71
147
1.5
 71
     0
 72
     0
 73
     0
 74
     1
 75
     0
 76
     0
 77
     3
 78
     8
170
     0
171
     2
172
     0
173
     0
174
     0
175
     0
176
   256
177
   256
178
    40
  0
DIMSTYLE
  2
TECHNICAL_OSAKA$4
 70
     0
  3

  4
"
  5
OPEN30
  6

  7

 40
1.0
 41
2.5
 42
1.0
 43
10.0
 44
1.0
 45
0.0
 46
0.0
 47
0.1
 48
0.1
140
2.7999999999999989
141
0.0
142
0.0
143
0.0393701
144
1.0
145
0.0
146
0.71
147
1.5
 71
     0
 72
     0
 73
     0
 74
     1
 75
     0
 76
     0
 77
     3
 78
     8
170
     0
171
     2
172
     0
173
     0
174
     0
175
     0
176
   256
177
   256
178
    40
  0
DIMSTYLE
  2
TECHNICAL_OSAKA$6
 70
     0
  3

  4
"
  5
OPEN30
  6

  7

 40
1.0
 41
2.5
 42
1.0
 43
10.0
 44
1.0
 45
0.0
 46
0.0
 47
0.1
 48
0.1
140
2.7999999999999989
141
0.0
142
0.0
143
0.0393701
144
1.0
145
0.0
146
0.71
147
1.5
 71
     0
 72
     0
 73
     0
 74
     0
 75
     0
 76
     0
 77
     0
 78
     8
170
     0
171
     2
172
     1
173
     0
174
     0
175
     0
176
   256
177
   256
178
    40
  0
DIMSTYLE
  2
TECHNICAL_OSAKA$7
 70
     0
  3

  4
"
  5
OPEN30
  6

  7

 40
1.0
 41
2.5
 42
1.0
 43
10.0
 44
1.0
 45
0.0
 46
0.0
 47
0.1
 48
0.1
140
2.7999999999999989
141
0.0
142
0.0
143
0.0393701
144
1.0
145
0.0
146
0.71
147
1.5
 71
     0
 72
     0
 73
     0
 74
     0
 75
     0
 76
     0
 77
     3
 78
     8
170
     0
171
     2
172
     1
173
     0
174
     0
175
     0
176
   256
177
   256
178
    40
  0
DIMSTYLE
  2
TECHNICAL_OSAKA$SF
 70
     0
  3

  4
"
  5
OPEN30
  6
OPEN30
  7
OPEN30
 40
1.0
 41
2.5
 42
1.0
 43
10.0
 44
1.0
 45
0.0
 46
0.0
 47
0.1
 48
0.1
140
3.5
141
0.0
142
0.0
143
0.0393701
144
1.0
145
0.0
146
0.71
147
1.5
 71
     0
 72
     0
 73
     0
 74
     0
 75
     1
 76
     1
 77
     3
 78
     8
170
     0
171
     2
172
     1
173
     0
174
     0
175
     0
176
   256
177
   256
178
    40
  0
DIMSTYLE
  2
TECHNICAL_OSAKA$SH
 70
     0
  3

  4
"
  5
OPEN30
  6
GENAXEH
  7
OPEN30
 40
1.0
 41
2.5
 42
1.0
 43
10.0
 44
1.0
 45
0.0
 46
0.0
 47
0.1
 48
0.1
140
3.5
141
0.0
142
0.0
143
0.0393701
144
2.0
145
0.0
146
0.71
147
1.5
 71
     0
 72
     0
 73
     0
 74
     0
 75
     1
 76
     1
 77
     3
 78
     8
170
     0
171
     2
172
     1
173
     1
174
     0
175
     0
176
   256
177
   256
178
    40
  0
ENDTAB
  0
ENDSEC
  0
SECTION
  2
BLOCKS
  0
BLOCK
  8
0
  2
$MODEL_SPACE
 70
     0
 10
0.0
 20
0.0
 30
0.0
  3
$MODEL_SPACE
  1

  0
ENDBLK
  5
1C
  8
0
  0
BLOCK
 67
     1
  8
0
  2
$PAPER_SPACE
 70
     0
 10
0.0
 20
0.0
 30
0.0
  3
$PAPER_SPACE
  1

  0
ENDBLK
  5
19
 67
     1
  8
0
  0
BLOCK
  8
0
  2
_OPEN
 70
     0
 10
0.0
 20
0.0
 30
0.0
  3
_OPEN
  1

  0
LINE
  5
1999
  8
0
  6
BYBLOCK
 62
     0
 10
-1.0
 20
0.1666666666666666
 30
0.0
 11
0.0
 21
0.0
 31
0.0
  0
LINE
  5
199A
  8
0
  6
BYBLOCK
 62
     0
 10
-1.0
 20
-0.1666666666666666
 30
0.0
 11
0.0
 21
0.0
 31
0.0
  0
LINE
  5
199B
  8
0
  6
BYBLOCK
 62
     0
 10
0.0
 20
0.0
 30
0.0
 11
-1.0
 21
0.0
 31
0.0
  0
ENDBLK
  5
199C
  8
0
  0
BLOCK
  8
0
  2
矢印なし
 70
     0
 10
0.0
 20
0.0
 30
0.0
  3
矢印なし
  1

  0
ENDBLK
  5
6E5
  8
0
  0
BLOCK
  8
0
  2
GENAXEH
 70
     0
 10
0.0
 20
0.0
 30
0.0
  3
GENAXEH
  1

  0
LINE
  5
19D4
  8
0
 10
-1.0
 20
0.0
 30
0.0
 11
1.0
 21
0.0
 31
0.0
  0
ENDBLK
  5
19D5
  8
0
  0
BLOCK
  8
0
  2
_OPEN30
 70
     0
 10
0.0
 20
0.0
 30
0.0
  3
_OPEN30
  1

  0
LINE
  5
1A10
  8
0
  6
BYBLOCK
 62
     0
 10
-1.0
 20
0.26794919
 30
0.0
 11
0.0
 21
0.0
 31
0.0
  0
LINE
  5
1A11
  8
0
  6
BYBLOCK
 62
     0
 10
0.0
 20
0.0
 30
0.0
 11
-1.0
 21
-0.26794919
 31
0.0
  0
LINE
  5
1A12
  8
0
  6
BYBLOCK
 62
     0
 10
0.0
 20
0.0
 30
0.0
 11
-1.0
 21
0.0
 31
0.0
  0
ENDBLK
  5
1A13
  8
0
  0
BLOCK
  8
0
  2
*U7
 70
     1
 10
0.0
 20
0.0
 30
0.0
  3
*U7
  1

  0
TEXT
  5
1A8C
  8
250
 10
82.541450724593872
 20
22.132763881701351
 30
0.0
 40
2.799999999999998
  1
MGT3
  7
YOKO
  0
ENDBLK
  5
1A8E
  8
0
  0
BLOCK
  8
0
  2
*U8
 70
     1
 10
0.0
 20
0.0
 30
0.0
  3
*U8
  1

  0
TEXT
  5
1A90
  8
250
 10
105.8591257223726
 20
21.987935254493149
 30
0.0
 40
2.799999999999998
  1
NBC4S
  7
YOKO
  0
ENDBLK
  5
1A92
  8
0
  0
BLOCK
  8
0
  2
*U9
 70
     1
 10
0.0
 20
0.0
 30
0.0
  3
*U9
  1

  0
TEXT
  5
1AAC
  8
250
 10
70.678090371083428
 20
-5.0659914980706091
 30
0.0
 40
2.7999999999999989
  1
\U+2205
 50
90.0
  0
TEXT
  5
1AAD
  8
250
 10
70.678090371083428
 20
-2.532658164737275
 30
0.0
 40
2.799999999999998
  1
20
 50
90.0
  0
ENDBLK
  5
1AAF
  8
0
  0
ENDSEC
  0
SECTION
  2
ENTITIES
  0
INSERT
  5
6E6
  8
245
  2
矢印なし
 10
175.62382696643769
 20
90.551235716905978
 30
0.0
  0
TEXT
  5
A6F
  8
241
  6
CONTINUOUS
 10
-32.000000000000043
 20
63.0
 30
0.0
 40
5.0
  1
HSK-A63-MGT3-100
  7
YOKO
 11
-32.000000000000043
 21
63.0
 31
0.0
 73
     1
  0
INSERT
  5
B6C
  8
240
  2
*U7
 10
0.0
 20
0.0
 30
0.0
  0
LINE
  5
B6D
  8
250
  6
CONTINUOUS
 10
80.274784057927178
 20
21.132763881701351
 30
0.0
 11
95.741450724593875
 21
21.132763881701351
 31
0.0
1001
ITEMNAME
1000
LNSP2
  0
LINE
  5
DE8
  8
250
  6
CONTINUOUS
 10
111.5
 20
5.419563484192337
 30
0.0
 11
111.5
 21
-5.4892182291245026
 31
0.0
  0
LINE
  5
DE9
  8
250
  6
CONTINUOUS
 10
100.5
 20
2.0000000099999751
 30
0.0
 11
112.5
 21
2.0000000099999751
 31
0.0
  0
INSERT
  5
10AF
  8
240
  2
*U8
 10
0.0
 20
0.0
 30
0.0
  0
LINE
  5
10B0
  8
250
  6
CONTINUOUS
 10
103.5924590557059
 20
20.987935254493149
 30
0.0
 11
122.1257923890392
 21
20.987935254493149
 31
0.0
1001
ITEMNAME
1000
LNSP2
  0
LINE
  5
1518
  8
245
  6
CENTER2
 10
-32.000000000000043
 20
0.0
 30
0.0
 11
101.0
 21
0.0
 31
0.0
  0
LINE
  5
1565
  8
240
  6
CONTINUOUS
 10
34.000000000000291
 20
25.00000000000027
 30
0.0
 11
34.000000000000291
 21
13.00000000000014
 31
0.0
  0
ARC
  5
1566
  8
240
  6
CONTINUOUS
 10
37.000000000000291
 20
13.00000000000014
 30
0.0
 40
3.0
 50
180.0
 51
270.0
  0
LINE
  5
1567
  8
240
  6
CONTINUOUS
 10
26.000000000000711
 20
25.000000000000401
 30
0.0
 11
34.000000000000291
 21
25.00000000000027
 31
0.0
  0
LINE
  5
1569
  8
240
  6
CONTINUOUS
 10
34.000000000000291
 20
-25.000000000000249
 30
0.0
 11
34.000000000000291
 21
-13.000000000000609
 31
0.0
  0
ARC
  5
156A
  8
240
  6
CONTINUOUS
 10
37.000000000000291
 20
-13.000000000000609
 30
0.0
 40
3.0
 50
90.000000000001606
 51
180.0
  0
LINE
  5
156C
  8
240
  6
CONTINUOUS
 10
26.000000000000401
 20
-25.00000000000054
 30
0.0
 11
34.000000000000291
 21
-25.000000000000249
 31
0.0
  0
LINE
  5
156D
  8
241
  6
CONTINUOUS
 10
34.000000000000313
 20
-13.00000000000062
 30
0.0
 11
34.00000000000027
 21
13.00000000000062
 31
0.0
  0
LINE
  5
1574
  8
240
  6
CONTINUOUS
 10
77.99999999999325
 20
-9.9999999999996767
 30
0.0
 11
37.000000000000227
 21
-10.00000000000054
 31
0.0
  0
LINE
  5
1575
  8
240
  6
CONTINUOUS
 10
77.99999999999325
 20
9.9999999999995364
 30
0.0
 11
37.00000000000022
 21
10.00000000000046
 31
0.0
  0
LINE
  5
1578
  8
241
  6
CONTINUOUS
 10
66.199999999990354
 20
9.9999999999999023
 30
0.0
 11
66.199999999990354
 21
-9.9999999999998845
 31
0.0
  0
LINE
  5
1579
  8
241
  6
CONTINUOUS
 10
64.999999999990294
 20
10.000000000000011
 30
0.0
 11
64.999999999990294
 21
-9.9999999999999947
 31
0.0
  0
LINE
  5
157A
  8
241
  6
CONTINUOUS
 10
63.999999999990287
 20
10.000000000000011
 30
0.0
 11
63.999999999990067
 21
-9.9999999999999947
 31
0.0
  0
LINE
  5
157B
  8
241
  6
CONTINUOUS
 10
62.799999999990483
 20
10.000000000000011
 30
0.0
 11
62.799999999990483
 21
-9.9999999999999947
 31
0.0
  0
ARC
  5
1581
  8
240
  6
CONTINUOUS
 10
85.050986707256854
 20
5.6500000000000021
 30
0.0
 40
0.3999999999999821
 50
209.9999999922866
 51
269.99999999228118
1001
GRPNAME
1000
PASTMD04
  0
ARC
  5
1585
  8
240
  6
CONTINUOUS
 10
85.050986707256854
 20
-5.6500000000000021
 30
0.0
 40
0.4000000000000057
 50
90.000000064274687
 51
150.00000006427069
1001
GRPNAME
1000
PASTMD04
  0
LINE
  5
1586
  8
240
  6
CONTINUOUS
 10
85.050986707256854
 20
-5.2499999030379172
 30
0.0
 11
85.499998474121128
 21
-5.2499999030388649
 31
0.0
1001
GRPNAME
1000
PASTMD0E
  0
LINE
  5
1588
  8
240
  6
CONTINUOUS
 10
84.704576545743009
 20
5.4500000000000171
 30
0.0
 11
84.517175660326686
 21
5.7745878549245324
 31
0.0
1001
GRPNAME
1000
PASTMD04
  0
LINE
  5
158A
  8
240
  6
CONTINUOUS
 10
85.050986707256854
 20
5.2500000969624523
 30
0.0
 11
85.499998474121085
 21
5.2500000969631957
 31
0.0
1001
GRPNAME
1000
PASTMD0E
  0
LINE
  5
15A3
  8
240
  6
CONTINUOUS
 10
77.999999999995453
 20
6.7499999999999822
 30
0.0
 11
83.954020599750294
 21
6.75
 31
0.0
  0
LINE
  5
15A5
  8
240
  6
CONTINUOUS
 10
83.954020599750294
 20
6.75
 30
0.0
 11
84.704575949697031
 21
5.4499999999998181
 31
0.0
  0
LINE
  5
15A6
  8
240
  6
CONTINUOUS
 10
83.954020599750336
 20
-6.75
 30
0.0
 11
84.704575949697031
 21
-5.4500000000000446
 31
0.0
  0
LINE
  5
15A8
  8
240
  6
CONTINUOUS
 10
77.999999999995453
 20
-6.7499999999999858
 30
0.0
 11
83.954020599750336
 21
-6.75
 31
0.0
  0
LINE
  5
15A9
  8
241
  6
CONTINUOUS
 10
83.954020599750223
 20
-3.649987813100096
 30
0.0
 11
83.954020599750223
 21
-3.092329219213068
 31
0.0
  0
ARC
  5
15AB
  8
241
  6
CONTINUOUS
 10
81.560163701882814
 20
-5.1541180517821186
 30
0.0
 40
2.8271820992615959
 50
325.63395310609701
 51
32.142346755458149
  0
LINE
  5
15AC
  8
241
  6
CONTINUOUS
 10
83.954020599750223
 20
-3.6499878131002088
 30
0.0
 11
77.999999999997556
 21
-3.6499878131002048
 31
0.0
  0
LINE
  5
15AD
  8
241
  6
CONTINUOUS
 10
83.954020599749981
 20
-3.0923292192136378
 30
0.0
 11
77.999999999997954
 21
-3.0923292192136378
 31
0.0
  0
LINE
  5
15AE
  8
241
  6
CONTINUOUS
 10
83.954020599750223
 20
3.649987813100096
 30
0.0
 11
83.954020599750223
 21
3.092329219213068
 31
0.0
  0
ARC
  5
15AF
  8
241
  6
CONTINUOUS
 10
73.128703052448088
 20
0.0
 30
0.0
 40
11.258330249194501
 50
344.05763139437039
 51
15.9423686056296
  0
ARC
  5
15B0
  8
241
  6
CONTINUOUS
 10
81.560163701882814
 20
5.1541180517821186
 30
0.0
 40
2.8271820992615959
 50
327.85765324454189
 51
34.366046893902983
  0
LINE
  5
15B1
  8
241
  6
CONTINUOUS
 10
83.954020599750223
 20
3.6499878131002088
 30
0.0
 11
78.000000000002544
 21
3.6499878131002048
 31
0.0
  0
LINE
  5
15B2
  8
241
  6
CONTINUOUS
 10
83.954020599749981
 20
3.0923292192136378
 30
0.0
 11
78.00000000000216
 21
3.0923292192136378
 31
0.0
  0
LINE
  5
15B3
  8
240
  6
CONTINUOUS
 10
77.99999999999325
 20
9.9999999999995364
 30
0.0
 11
77.999999999995453
 21
6.7499999999999822
 31
0.0
  0
LINE
  5
15B4
  8
241
  6
CONTINUOUS
 10
77.999999999995495
 20
6.75
 30
0.0
 11
78.000000000004647
 21
-6.75
 31
0.0
  0
LINE
  5
15B5
  8
240
  6
CONTINUOUS
 10
77.99999999999325
 20
-9.9999999999996767
 30
0.0
 11
77.999999999995453
 21
-6.7499999999999858
 31
0.0
  0
LINE
  5
15C0
  8
250
  6
CONTINUOUS
 10
34.000000000000291
 20
25.500000000000259
 30
0.0
 11
34.000000000000291
 21
43.0
 31
0.0
  0
LINE
  5
15C1
  8
250
  6
CONTINUOUS
 10
100.0
 20
6.5000000499999979
 30
0.0
 11
100.0
 21
43.0
 31
0.0
  0
LINE
  5
15C2
  8
250
  6
CONTINUOUS
 10
36.000000000000291
 20
42.0
 30
0.0
 11
98.000000000000043
 21
42.0
 31
0.0
  0
LINE
  5
15C6
  8
250
  6
CONTINUOUS
 10
-0.0000000000000283
 20
32.000000000000057
 30
0.0
 11
-0.0000000000000272
 21
49.999999999999908
 31
0.0
  0
LINE
  5
15C7
  8
250
  6
CONTINUOUS
 10
100.0
 20
6.5000000499999979
 30
0.0
 11
100.0
 21
49.999999999999908
 31
0.0
  0
LINE
  5
15C8
  8
250
  6
CONTINUOUS
 10
1.9999999999999709
 20
48.999999999999908
 30
0.0
 11
98.0
 21
48.999999999999908
 31
0.0
  0
LINE
  5
15CC
  8
250
  6
CONTINUOUS
 10
77.999999999993918
 20
10.499999999999529
 30
0.0
 11
77.999999999993932
 21
36.0
 31
0.0
  0
LINE
  5
15CD
  8
250
  6
CONTINUOUS
 10
100.0
 20
6.5000000499999979
 30
0.0
 11
100.0
 21
36.0
 31
0.0
  0
LINE
  5
15CE
  8
250
  6
CONTINUOUS
 10
79.999999999993932
 20
35.0
 30
0.0
 11
98.0
 21
35.0
 31
0.0
  0
LINE
  5
15D4
  8
250
  6
CONTINUOUS
 10
71.678090371083442
 20
-7.9999999999997691
 30
0.0
 11
71.678090371083442
 21
7.9999999999997717
 31
0.0
  0
INSERT
  5
15D7
  8
240
  2
*U9
 10
0.0
 20
0.0
 30
0.0
  0
LINE
  5
15D8
  8
250
  6
CONTINUOUS
 10
100.5
 20
-6.0000007100000241
 30
0.0
 11
119.5
 21
-6.0000007100000268
 31
0.0
  0
LINE
  5
15D9
  8
250
  6
CONTINUOUS
 10
100.5
 20
6.0000000499999713
 30
0.0
 11
119.5
 21
6.0000000499999668
 31
0.0
  0
LINE
  5
15DA
  8
250
  6
CONTINUOUS
 10
118.5
 20
-3.7700007100000281
 30
0.0
 11
118.5
 21
3.77000004999997
 31
0.0
  0
LINE
  5
15E0
  8
250
  6
CONTINUOUS
 10
111.5
 20
5.419563484192337
 30
0.0
 11
111.5
 21
-0.229999990000024
 31
0.0
  0
TEXT
  5
15E1
  8
250
  6
CONTINUOUS
 10
110.5
 20
-8.800000000000022
 30
0.0
 40
3.0
  1
max.\U+03C64
 50
90.0
1001
ITEMNAME
1000
DI010
1001
ACAD
1000
MTEXTBEGIN
1070
    73
1070
     1
1070
    44
1040
1.0
1070
    74
1070
     0
1000
MTEXTEND
  0
POLYLINE
  5
15E3
  8
250
  6
CONTINUOUS
 66
     1
 10
0.0
 20
0.0
 30
0.0
1001
ACAD
1000
DSTYLE
1002
{
1070
    41
1040
2.0
1070
   140
1040
2.799999999999998
1002
}
  0
VERTEX
  5
1AB0
  8
250
  6
CONTINUOUS
 10
95.939170631515424
 20
7.732050858816458
 30
0.0
  0
VERTEX
  5
1AB1
  8
250
  6
CONTINUOUS
 10
103.5924590557059
 20
20.987935254493149
 30
0.0
  0
SEQEND
  5
1AB2
  8
250
  6
CONTINUOUS
  0
POLYLINE
  5
15E5
  8
250
  6
CONTINUOUS
 66
     1
 10
0.0
 20
0.0
 30
0.0
1001
ACAD
1000
DSTYLE
1002
{
1070
    41
1040
2.0
1002
}
  0
VERTEX
  5
1AB3
  8
250
  6
CONTINUOUS
 10
74.847279834002265
 20
11.73205080756861
 30
0.0
  0
VERTEX
  5
1AB4
  8
250
  6
CONTINUOUS
 10
80.274784057927178
 20
21.132763881701351
 30
0.0
  0
SEQEND
  5
1AB5
  8
250
  6
CONTINUOUS
  0
LINE
  5
15E6
  8
250
  6
CONTINUOUS
 10
71.344757037750114
 20
7.9999999999997717
 30
0.0
 11
71.678090371083442
 21
9.9999999999997726
 31
0.0
  0
LINE
  5
15E7
  8
250
  6
CONTINUOUS
 10
72.011423704416771
 20
7.9999999999997717
 30
0.0
 11
71.678090371083442
 21
9.9999999999997726
 31
0.0
  0
LINE
  5
15E8
  8
250
  6
CONTINUOUS
 10
71.678090371083442
 20
9.9999999999997726
 30
0.0
 11
71.678090371083442
 21
7.9999999999997717
 31
0.0
  0
LINE
  5
15E9
  8
250
  6
CONTINUOUS
 10
72.011423704416771
 20
-7.9999999999997673
 30
0.0
 11
71.678090371083442
 21
-9.9999999999997673
 31
0.0
  0
LINE
  5
15EA
  8
250
  6
CONTINUOUS
 10
71.344757037750114
 20
-7.9999999999997673
 30
0.0
 11
71.678090371083442
 21
-9.9999999999997673
 31
0.0
  0
LINE
  5
15EB
  8
250
  6
CONTINUOUS
 10
71.678090371083442
 20
-9.9999999999997673
 30
0.0
 11
71.678090371083442
 21
-7.9999999999997673
 31
0.0
  0
LINE
  5
15EC
  8
250
  6
CONTINUOUS
 10
75.13595496859709
 20
11.565384140901941
 30
0.0
 11
73.847279834002279
 21
9.9999999999997264
 31
0.0
  0
LINE
  5
15ED
  8
250
  6
CONTINUOUS
 10
74.558604699407454
 20
11.898717474235269
 30
0.0
 11
73.847279834002279
 21
9.9999999999997264
 31
0.0
  0
LINE
  5
15EE
  8
250
  6
CONTINUOUS
 10
73.847279834002279
 20
9.9999999999997264
 30
0.0
 11
74.847279834002279
 21
11.73205080756861
 31
0.0
  0
LINE
  5
15EF
  8
250
  6
CONTINUOUS
 10
96.227845766110235
 20
7.5653841921497911
 30
0.0
 11
94.939170631515424
 21
6.0000000512475804
 31
0.0
  0
LINE
  5
15F0
  8
250
  6
CONTINUOUS
 10
95.650495496920598
 20
7.898717525483125
 30
0.0
 11
94.939170631515424
 21
6.0000000512475804
 31
0.0
  0
LINE
  5
15F1
  8
250
  6
CONTINUOUS
 10
94.939170631515424
 20
6.0000000512475804
 30
0.0
 11
95.939170631515424
 21
7.732050858816458
 31
0.0
  0
TEXT
  5
15F2
  8
250
  6
CONTINUOUS
 10
117.5
 20
-4.038095568095259
 30
0.0
 40
3.0
  1
\U+2205
 50
90.0
1001
ACAD
1000
MTEXTBEGIN
1070
    73
1070
     1
1070
    44
1040
1.0
1070
    74
1070
     0
1000
MTEXTEND
  0
TEXT
  5
15F3
  8
250
  6
CONTINUOUS
 10
117.40000000000001
 20
-1.3238098538095451
 30
0.0
 40
2.799999999999998
  1
12
 50
90.0
1001
ACAD
1000
MTEXTBEGIN
1070
    73
1070
     1
1070
    44
1040
1.0
1070
    74
1070
     0
1000
MTEXTEND
  0
LINE
  5
15F4
  8
250
  6
CONTINUOUS
 10
118.1283333333333
 20
3.7700000499999682
 30
0.0
 11
118.5
 21
6.0000000499999668
 31
0.0
  0
LINE
  5
15F5
  8
250
  6
CONTINUOUS
 10
118.8716666666666
 20
3.7700000499999682
 30
0.0
 11
118.5
 21
6.0000000499999668
 31
0.0
  0
LINE
  5
15F6
  8
250
  6
CONTINUOUS
 10
118.5
 20
6.0000000499999668
 30
0.0
 11
118.5
 21
3.7700000499999682
 31
0.0
  0
LINE
  5
15F7
  8
250
  6
CONTINUOUS
 10
118.8716666666666
 20
-3.7700007100000281
 30
0.0
 11
118.5
 21
-6.0000007100000268
 31
0.0
  0
LINE
  5
15F8
  8
250
  6
CONTINUOUS
 10
118.1283333333333
 20
-3.7700007100000281
 30
0.0
 11
118.5
 21
-6.0000007100000268
 31
0.0
  0
LINE
  5
15F9
  8
250
  6
CONTINUOUS
 10
118.5
 20
-6.0000007100000268
 30
0.0
 11
118.5
 21
-3.7700007100000281
 31
0.0
  0
TEXT
  5
15FA
  8
250
  6
CONTINUOUS
 10
64.266666666666836
 20
43.0
 30
0.0
 40
2.799999999999998
  1
66
1001
ACAD
1000
MTEXTBEGIN
1070
    73
1070
     1
1070
    44
1040
1.0
1070
    74
1070
     0
1000
MTEXTEND
  0
LINE
  5
15FB
  8
250
  6
CONTINUOUS
 10
98.0
 20
42.333333333333329
 30
0.0
 11
100.0
 21
42.0
 31
0.0
  0
LINE
  5
15FC
  8
250
  6
CONTINUOUS
 10
98.0
 20
41.666666666666657
 30
0.0
 11
100.0
 21
42.0
 31
0.0
  0
LINE
  5
15FD
  8
250
  6
CONTINUOUS
 10
100.0
 20
42.0
 30
0.0
 11
98.0
 21
42.0
 31
0.0
  0
LINE
  5
15FE
  8
250
  6
CONTINUOUS
 10
36.000000000000291
 20
41.666666666666657
 30
0.0
 11
34.000000000000291
 21
42.0
 31
0.0
  0
LINE
  5
15FF
  8
250
  6
CONTINUOUS
 10
36.000000000000291
 20
42.333333333333329
 30
0.0
 11
34.000000000000291
 21
42.0
 31
0.0
  0
LINE
  5
1600
  8
250
  6
CONTINUOUS
 10
34.000000000000291
 20
42.0
 30
0.0
 11
36.000000000000291
 21
42.0
 31
0.0
  0
TEXT
  5
1601
  8
250
  6
CONTINUOUS
 10
86.333333333330245
 20
36.0
 30
0.0
 40
2.799999999999998
  1
22
1001
ACAD
1000
MTEXTBEGIN
1070
    73
1070
     1
1070
    44
1040
1.0
1070
    74
1070
     0
1000
MTEXTEND
  0
LINE
  5
1602
  8
250
  6
CONTINUOUS
 10
98.0
 20
35.333333333333343
 30
0.0
 11
100.0
 21
35.0
 31
0.0
  0
LINE
  5
1603
  8
250
  6
CONTINUOUS
 10
98.0
 20
34.666666666666671
 30
0.0
 11
100.0
 21
35.0
 31
0.0
  0
LINE
  5
1604
  8
250
  6
CONTINUOUS
 10
100.0
 20
35.0
 30
0.0
 11
98.0
 21
35.0
 31
0.0
  0
LINE
  5
1605
  8
250
  6
CONTINUOUS
 10
79.999999999993932
 20
34.666666666666671
 30
0.0
 11
77.999999999993932
 21
35.0
 31
0.0
  0
LINE
  5
1606
  8
250
  6
CONTINUOUS
 10
79.999999999993932
 20
35.333333333333343
 30
0.0
 11
77.999999999993932
 21
35.0
 31
0.0
  0
LINE
  5
1607
  8
250
  6
CONTINUOUS
 10
77.999999999993932
 20
35.0
 30
0.0
 11
79.999999999993932
 21
35.0
 31
0.0
  0
TEXT
  5
1608
  8
250
  6
CONTINUOUS
 10
45.799999999999997
 20
49.999999999999893
 30
0.0
 40
2.799999999999998
  1
100
1001
ACAD
1000
MTEXTBEGIN
1070
    73
1070
     1
1070
    44
1040
1.0
1070
    74
1070
     0
1000
MTEXTEND
  0
LINE
  5
1609
  8
250
  6
CONTINUOUS
 10
98.0
 20
49.333333333333243
 30
0.0
 11
100.0
 21
48.999999999999908
 31
0.0
  0
LINE
  5
160A
  8
250
  6
CONTINUOUS
 10
98.0
 20
48.666666666666572
 30
0.0
 11
100.0
 21
48.999999999999908
 31
0.0
  0
LINE
  5
160B
  8
250
  6
CONTINUOUS
 10
100.0
 20
48.999999999999908
 30
0.0
 11
98.0
 21
48.999999999999908
 31
0.0
  0
LINE
  5
160C
  8
250
  6
CONTINUOUS
 10
1.999999999999972
 20
48.666666666666572
 30
0.0
 11
-0.0000000000000273
 21
48.999999999999908
 31
0.0
  0
LINE
  5
160D
  8
250
  6
CONTINUOUS
 10
1.999999999999972
 20
49.333333333333243
 30
0.0
 11
-0.0000000000000273
 21
48.999999999999908
 31
0.0
  0
LINE
  5
160E
  8
250
  6
CONTINUOUS
 10
-0.0000000000000273
 20
48.999999999999908
 30
0.0
 11
1.999999999999972
 21
48.999999999999908
 31
0.0
  0
LINE
  5
1615
  8
250
  6
CONTINUOUS
 10
100.5
 20
-2.0000000099999751
 30
0.0
 11
112.5
 21
-2.0000000099999751
 31
0.0
  0
LINE
  5
1616
  8
250
  6
CONTINUOUS
 10
111.1283333333333
 20
4.2300000099999737
 30
0.0
 11
111.5
 21
2.0000000099999751
 31
0.0
  0
LINE
  5
1617
  8
250
  6
CONTINUOUS
 10
111.8716666666667
 20
4.2300000099999737
 30
0.0
 11
111.5
 21
2.0000000099999751
 31
0.0
  0
LINE
  5
1618
  8
250
  6
CONTINUOUS
 10
111.1283333333333
 20
-4.2300000099999737
 30
0.0
 11
111.5
 21
-2.0000000099999751
 31
0.0
  0
LINE
  5
1619
  8
250
  6
CONTINUOUS
 10
111.8716666666667
 20
-4.2300000099999737
 30
0.0
 11
111.5
 21
-2.0000000099999751
 31
0.0
  0
LINE
  5
168E
  8
240
  6
CONTINUOUS
 10
87.759806089999984
 20
-6.0000007100000001
 30
0.0
 11
100.0
 21
-6.0000007100000001
 31
0.0
1001
GRPNAME
1000
PASTMD0F
  0
LINE
  5
168F
  8
240
  6
CONTINUOUS
 10
87.759807229999979
 20
6.0000000499999979
 30
0.0
 11
100.0
 21
6.0000000499999979
 31
0.0
1001
GRPNAME
1000
PASTMD0F
  0
LINE
  5
1690
  8
240
  6
CONTINUOUS
 10
87.759806089999984
 20
-6.0000007100000001
 30
0.0
 11
87.499998470000037
 21
-6.1500007099999952
 31
0.0
  0
LINE
  5
1691
  8
240
  6
CONTINUOUS
 10
85.499998470000051
 20
-6.1500007099999952
 30
0.0
 11
87.499998470000037
 21
-6.1500007099999952
 31
0.0
1001
GRPNAME
1000
PASTMD0J
  0
LINE
  5
1692
  8
240
  6
CONTINUOUS
 10
85.499998470000051
 20
-5.2499999999999991
 30
0.0
 11
85.499998470000051
 21
-6.1500007099999952
 31
0.0
1001
GRPNAME
1000
PASTMD0F
  0
LINE
  5
1693
  8
241
  6
CONTINUOUS
 10
87.499998470000037
 20
6.150000709999996
 30
0.0
 11
87.499998470000037
 21
-6.1500007100000023
 31
0.0
1001
GRPNAME
1000
PASTMD0J
  0
LINE
  5
1694
  8
240
  6
CONTINUOUS
 10
85.499998470000037
 20
5.2500000000000009
 30
0.0
 11
85.499998470000051
 21
6.1500007099999943
 31
0.0
1001
GRPNAME
1000
PASTMD0F
  0
LINE
  5
1695
  8
241
  6
CONTINUOUS
 10
85.499998470000037
 20
5.2500000000000053
 30
0.0
 11
85.499998470000037
 21
-5.2500001000000003
 31
0.0
  0
LINE
  5
1696
  8
240
  6
CONTINUOUS
 10
87.759807229999979
 20
6.0000000499999979
 30
0.0
 11
87.499998470000037
 21
6.150000709999996
 31
0.0
  0
LINE
  5
1697
  8
240
  6
CONTINUOUS
 10
85.499998470000051
 20
6.1500007099999943
 30
0.0
 11
87.499998470000037
 21
6.150000709999996
 31
0.0
1001
GRPNAME
1000
PASTMD0J
  0
LINE
  5
1698
  8
240
  6
CONTINUOUS
 10
100.0
 20
-6.0000007100000001
 30
0.0
 11
100.0
 21
6.0000000499999979
 31
0.0
1001
GRPNAME
1000
PASTMD0F
  0
LINE
  5
1699
  8
243
  6
HIDDEN2
 10
86.875958157790933
 20
2.7000000000000131
 30
0.0
 11
96.55738573121404
 21
3.5470151594218331
 31
0.0
1001
GRPNAME
1000
00000007
  0
LINE
  5
169A
  8
243
  6
HIDDEN2
 10
76.000000000000057
 20
1.999999999999988
 30
0.0
 11
98.499999999999986
 21
2.0000000000000111
 31
0.0
1001
GRPNAME
1000
00000007
  0
LINE
  5
169B
  8
243
  6
HIDDEN2
 10
75.999999999999972
 20
2.6999999999999988
 30
0.0
 11
86.875958157790933
 21
2.7000000000000131
 31
0.0
  0
LINE
  5
169C
  8
243
  6
HIDDEN2
 10
75.999999999999972
 20
2.6999999999999988
 30
0.0
 11
76.000000000000895
 21
-2.6999999999999731
 31
0.0
  0
LINE
  5
169D
  8
243
  6
HIDDEN2
 10
98.499999999999986
 20
3.300000000000026
 30
0.0
 11
98.499999999999986
 21
-3.3000000000000211
 31
0.0
1001
GRPNAME
1000
00000007
  0
LINE
  5
169E
  8
243
  6
HIDDEN2
 10
96.699999999999974
 20
3.3000000000000012
 30
0.0
 11
97.299999999999983
 21
3.2999999999999869
 31
0.0
1001
GRPNAME
1000
00000007
  0
LINE
  5
169F
  8
243
  6
HIDDEN2
 10
96.699999999999974
 20
3.3000000000000012
 30
0.0
 11
96.55738573121404
 21
3.5470151594218371
 31
0.0
1001
GRPNAME
1000
00000007
  0
LINE
  5
16A0
  8
243
  6
HIDDEN2
 10
97.700000000000031
 20
3.7000000000000011
 30
0.0
 11
98.100000000000023
 21
3.7000000000000011
 31
0.0
1001
GRPNAME
1000
00000007
  0
LINE
  5
16A1
  8
243
  6
HIDDEN2
 10
97.700000000000031
 20
3.7000000000000011
 30
0.0
 11
97.299999999999983
 21
3.2999999999999869
 31
0.0
  0
LINE
  5
16A2
  8
243
  6
HIDDEN2
 10
98.100000000000023
 20
3.7000000000000011
 30
0.0
 11
98.499999999999986
 21
3.300000000000026
 31
0.0
1001
GRPNAME
1000
00000007
  0
LINE
  5
16A3
  8
243
  6
HIDDEN2
 10
86.875958157790933
 20
-2.6999999999999948
 30
0.0
 11
96.55738573121404
 21
-3.5470151594218229
 31
0.0
1001
GRPNAME
1000
00000007
  0
LINE
  5
16A4
  8
243
  6
HIDDEN2
 10
76.000000000000028
 20
-1.9999999999999629
 30
0.0
 11
98.499999999999986
 21
-2.0000000000000022
 31
0.0
1001
GRPNAME
1000
00000007
  0
LINE
  5
16A5
  8
243
  6
HIDDEN2
 10
76.000000000000895
 20
-2.6999999999999731
 30
0.0
 11
86.875958157790933
 21
-2.6999999999999948
 31
0.0
  0
LINE
  5
16A6
  8
243
  6
HIDDEN2
 10
96.699999999999974
 20
-3.2999999999999901
 30
0.0
 11
97.299999999999983
 21
-3.2999999999999772
 31
0.0
1001
GRPNAME
1000
00000007
  0
LINE
  5
16A7
  8
243
  6
HIDDEN2
 10
96.699999999999974
 20
-3.2999999999999901
 30
0.0
 11
96.55738573121404
 21
-3.5470151594218269
 31
0.0
1001
GRPNAME
1000
00000007
  0
LINE
  5
16A8
  8
243
  6
HIDDEN2
 10
97.700000000000031
 20
-3.6999999999999948
 30
0.0
 11
98.09999999999998
 21
-3.6999999999999948
 31
0.0
1001
GRPNAME
1000
00000007
  0
LINE
  5
16A9
  8
243
  6
HIDDEN2
 10
97.700000000000031
 20
-3.6999999999999948
 30
0.0
 11
97.299999999999983
 21
-3.2999999999999772
 31
0.0
  0
LINE
  5
16AA
  8
243
  6
HIDDEN2
 10
98.09999999999998
 20
-3.6999999999999948
 30
0.0
 11
98.499999999999986
 21
-3.3000000000000211
 31
0.0
1001
GRPNAME
1000
00000007
  0
LINE
  5
1723
  8
240
  6
CONTINUOUS
 10
0.0
 20
-24.315000000000001
 30
0.0
 11
-31.999999999999972
 21
-22.714999999999971
 31
0.0
  0
CIRCLE
  5
1724
  8
241
  6
CONTINUOUS
 10
-9.0000000000000284
 20
0.0
 30
0.0
 40
3.75
  0
LINE
  5
1725
  8
240
  6
CONTINUOUS
 10
-31.999999999999972
 20
-22.714999999999971
 30
0.0
 11
-31.999999999999989
 21
-6.2699999999998113
 31
0.0
  0
ARC
  5
1726
  8
240
  6
CONTINUOUS
 10
-27.500000000000028
 20
-4.76999999999998
 30
0.0
 40
1.499999999999984
 50
270.0
 51
0.0
  0
LINE
  5
1727
  8
243
  6
HIDDEN2
 10
-27.500000000000028
 20
-6.26999999999998
 30
0.0
 11
-23.500000000000028
 21
-6.26999999999998
 31
0.0
  0
LINE
  5
1728
  8
240
  6
CONTINUOUS
 10
-31.999999999999989
 20
-6.2699999999998113
 30
0.0
 11
-27.500000000000028
 21
-6.26999999999998
 31
0.0
  0
LINE
  5
1729
  8
240
  6
CONTINUOUS
 10
-26.000000000000028
 20
-4.76999999999998
 30
0.0
 11
-26.000000000000028
 21
4.76999999999998
 31
0.0
  0
LINE
  5
172A
  8
243
  6
HIDDEN2
 10
-22.000000000000028
 20
-4.76999999999998
 30
0.0
 11
-22.000000000000028
 21
4.76999999999998
 31
0.0
  0
ARC
  5
172B
  8
243
  6
HIDDEN2
 10
-23.500000000000028
 20
-4.76999999999998
 30
0.0
 40
1.499999999999984
 50
270.0
 51
0.0
  0
LINE
  5
172C
  8
240
  6
CONTINUOUS
 10
19.874999999999972
 20
-28.897595264191828
 30
0.0
 11
21.377499074759239
 21
-31.5
 31
0.0
  0
LINE
  5
172D
  8
240
  6
CONTINUOUS
 10
16.124999999999972
 20
-28.897595264191828
 30
0.0
 11
14.622500925240701
 21
-31.5
 31
0.0
  0
LINE
  5
172E
  8
241
  6
CONTINUOUS
 10
21.377499074759239
 20
-24.336187047275931
 30
0.0
 11
21.377499074759239
 21
-31.5
 31
0.0
  0
LINE
  5
172F
  8
241
  6
CONTINUOUS
 10
14.622500925240701
 20
-24.336187047275931
 30
0.0
 11
14.622500925240701
 21
-31.5
 31
0.0
  0
LINE
  5
1730
  8
240
  6
CONTINUOUS
 10
21.377499074759239
 20
-31.5
 30
0.0
 11
25.99999999999989
 21
-31.499999999999829
 31
0.0
  0
LINE
  5
1731
  8
240
  6
CONTINUOUS
 10
0.0
 20
-31.50000000000006
 30
0.0
 11
14.622500925240701
 21
-31.5
 31
0.0
  0
LINE
  5
1732
  8
241
  6
CONTINUOUS
 10
12.99999999999997
 20
-8.0
 30
0.0
 11
26.00000000000006
 21
-8.0
 31
0.0
  0
LINE
  5
1733
  8
241
  6
CONTINUOUS
 10
21.377499074759239
 20
-24.336187047275931
 30
0.0
 11
25.999999999999972
 21
-24.336187047275931
 31
0.0
  0
LINE
  5
1734
  8
241
  6
CONTINUOUS
 10
19.874999999999972
 20
-20.0
 30
0.0
 11
25.999999999999972
 21
-20.0
 31
0.0
  0
LINE
  5
1735
  8
240
  6
CONTINUOUS
 10
0.0
 20
-31.50000000000006
 30
0.0
 11
0.0
 21
-24.315000000000001
 31
0.0
  0
LINE
  5
1736
  8
241
  6
CONTINUOUS
 10
4.999999999999714
 20
-24.336187047275931
 30
0.0
 11
14.622500925240701
 21
-24.336187047275931
 31
0.0
  0
ARC
  5
1737
  8
241
  6
CONTINUOUS
 10
12.111713903655611
 20
-28.0
 30
0.0
 40
8.0
 50
90.0
 51
152.74338069083771
  0
LINE
  5
1738
  8
241
  6
CONTINUOUS
 10
14.622500925240701
 20
-8.0
 30
0.0
 11
14.622500925240701
 21
-20.0
 31
0.0
  0
LINE
  5
1739
  8
241
  6
CONTINUOUS
 10
16.124999999999972
 20
-8.0
 30
0.0
 11
16.124999999999972
 21
-27.5
 31
0.0
  0
LINE
  5
173A
  8
241
  6
CONTINUOUS
 10
19.874999999999972
 20
-8.0
 30
0.0
 11
19.874999999999972
 21
-27.499999999999559
 31
0.0
  0
LINE
  5
173B
  8
241
  6
CONTINUOUS
 10
21.377499074759239
 20
-8.0
 30
0.0
 11
21.377499074759239
 21
-20.0
 31
0.0
  0
LINE
  5
173C
  8
241
  6
CONTINUOUS
 10
14.622500925240701
 20
-24.336187047275931
 30
0.0
 11
16.124999999999972
 21
-20.858355928812841
 31
0.0
  0
LINE
  5
173D
  8
241
  6
CONTINUOUS
 10
12.111713903655611
 20
-20.0
 30
0.0
 11
16.124999999999972
 21
-20.0
 31
0.0
  0
LINE
  5
173E
  8
240
  6
CONTINUOUS
 10
16.124999999999741
 20
-27.5
 30
0.0
 11
19.875000000001311
 21
-27.499999999998892
 31
0.0
  0
LINE
  5
173F
  8
240
  6
CONTINUOUS
 10
16.124999999999741
 20
-27.5
 30
0.0
 11
16.124999999999972
 21
-28.897595264191828
 31
0.0
  0
LINE
  5
1740
  8
240
  6
CONTINUOUS
 10
19.875000000001311
 20
-27.499999999998892
 30
0.0
 11
19.874999999999972
 21
-28.897595264191828
 31
0.0
  0
LINE
  5
1741
  8
241
  6
CONTINUOUS
 10
21.377499074759239
 20
-24.336187047275931
 30
0.0
 11
19.874999999999972
 21
-20.858355928812841
 31
0.0
  0
LINE
  5
1742
  8
241
  6
CONTINUOUS
 10
0.0
 20
-24.315000000000001
 30
0.0
 11
0.0
 21
24.31500000000003
 31
0.0
  0
LINE
  5
1743
  8
240
  6
CONTINUOUS
 10
25.99999999999989
 20
-31.499999999999829
 30
0.0
 11
25.999999999999631
 21
-25.0
 31
0.0
  0
LINE
  5
1744
  8
241
  6
CONTINUOUS
 10
26.0
 20
-25.00000000000006
 30
0.0
 11
26.0
 21
25.00000000000011
 31
0.0
  0
LINE
  5
1745
  8
240
  6
CONTINUOUS
 10
0.0
 20
24.31500000000003
 30
0.0
 11
-31.999999999999972
 21
22.714999999999971
 31
0.0
  0
ARC
  5
1746
  8
240
  6
CONTINUOUS
 10
-27.500000000000028
 20
4.76999999999998
 30
0.0
 40
1.499999999999984
 50
0.0
 51
90.0
  0
LINE
  5
1747
  8
243
  6
HIDDEN2
 10
-27.500000000000028
 20
6.26999999999998
 30
0.0
 11
-23.500000000000028
 21
6.26999999999998
 31
0.0
  0
LINE
  5
1748
  8
240
  6
CONTINUOUS
 10
-31.999999999999989
 20
6.2699999999998113
 30
0.0
 11
-27.500000000000028
 21
6.26999999999998
 31
0.0
  0
ARC
  5
1749
  8
243
  6
HIDDEN2
 10
-23.500000000000028
 20
4.76999999999998
 30
0.0
 40
1.499999999999984
 50
0.0
 51
90.0
  0
LINE
  5
174A
  8
240
  6
CONTINUOUS
 10
19.874999999999972
 20
28.897595264191871
 30
0.0
 11
21.377499074759239
 21
31.5
 31
0.0
  0
LINE
  5
174B
  8
240
  6
CONTINUOUS
 10
16.124999999999972
 20
28.897595264191871
 30
0.0
 11
14.622500925240701
 21
31.5
 31
0.0
  0
LINE
  5
174C
  8
240
  6
CONTINUOUS
 10
21.377499074759239
 20
31.5
 30
0.0
 11
25.99999999999989
 21
31.499999999999829
 31
0.0
  0
LINE
  5
174D
  8
240
  6
CONTINUOUS
 10
0.0
 20
31.50000000000006
 30
0.0
 11
14.622500925240701
 21
31.5
 31
0.0
  0
LINE
  5
174E
  8
241
  6
CONTINUOUS
 10
12.99999999999997
 20
8.0
 30
0.0
 11
26.00000000000006
 21
8.0
 31
0.0
  0
LINE
  5
174F
  8
240
  6
CONTINUOUS
 10
0.0
 20
31.50000000000006
 30
0.0
 11
0.0
 21
24.31500000000003
 31
0.0
  0
LINE
  5
1750
  8
241
  6
CONTINUOUS
 10
14.622500925240701
 20
8.0
 30
0.0
 11
14.622500925240841
 21
31.49999999999995
 31
0.0
  0
LINE
  5
1751
  8
241
  6
CONTINUOUS
 10
16.124999999999972
 20
8.0
 30
0.0
 11
16.124999999999972
 21
27.5
 31
0.0
  0
LINE
  5
1752
  8
241
  6
CONTINUOUS
 10
19.874999999999972
 20
8.0
 30
0.0
 11
19.874999999999972
 21
27.499999999999559
 31
0.0
  0
LINE
  5
1753
  8
241
  6
CONTINUOUS
 10
21.377499074759239
 20
8.0
 30
0.0
 11
21.377499074759388
 21
31.49999999999989
 31
0.0
  0
LINE
  5
1754
  8
240
  6
CONTINUOUS
 10
16.124999999999741
 20
27.5
 30
0.0
 11
19.875000000001311
 21
27.49999999999886
 31
0.0
  0
LINE
  5
1755
  8
240
  6
CONTINUOUS
 10
16.124999999999741
 20
27.5
 30
0.0
 11
16.124999999999972
 21
28.897595264191871
 31
0.0
  0
LINE
  5
1756
  8
240
  6
CONTINUOUS
 10
19.875000000001311
 20
27.49999999999886
 30
0.0
 11
19.874999999999972
 21
28.897595264191871
 31
0.0
  0
LINE
  5
1757
  8
240
  6
CONTINUOUS
 10
25.99999999999989
 20
31.499999999999829
 30
0.0
 11
25.999999999999631
 21
25.0
 31
0.0
  0
LINE
  5
1758
  8
250
  6
CONTINUOUS
 10
-18.436872775073201
 20
-25.210403317106
 30
0.0
 11
-17.0
 21
-23.465000000000028
 31
0.0
  0
LINE
  5
1759
  8
250
  6
CONTINUOUS
 10
-17.793127224926788
 20
-25.582069983772669
 30
0.0
 11
-17.0
 21
-23.465000000000028
 31
0.0
  0
LINE
  5
175A
  8
250
  6
CONTINUOUS
 10
-17.0
 20
-23.465000000000028
 30
0.0
 11
-18.114999999999998
 21
-25.396236650439331
 31
0.0
  0
LINE
  5
175B
  8
250
  6
CONTINUOUS
 10
-18.114999999999998
 20
-25.396236650439331
 30
0.0
 11
-23.572223203118501
 21
-34.848424506484321
 31
0.0
  0
TEXT
  5
175C
  8
250
  6
CONTINUOUS
 10
-45.572223203118497
 20
-33.848424506484321
 30
0.0
 40
2.799999999999998
  1
HSK-A63
  7
YOKO
1001
ITEMNAME
1000
LNSP3
  0
LINE
  5
175D
  8
250
  6
CONTINUOUS
 10
-23.572223203118501
 20
-34.848424506484321
 30
0.0
 11
-47.838889869785127
 21
-34.848424506484321
 31
0.0
1001
ITEMNAME
1000
LNSP2
  0
LINE
  5
175E
  8
240
  6
CONTINUOUS
 10
-31.999999999999972
 20
22.714999999999971
 30
0.0
 11
-31.999999999999989
 21
6.2699999999998113
 31
0.0
  0
LINE
  5
175F
  8
247
  6
CONTINUOUS
 10
6.5
 20
-17.250000000070031
 30
0.0
 11
6.5
 21
-10.557692308030029
 31
0.0
  0
ARC
  5
1760
  8
247
  6
CONTINUOUS
 10
4.7500000000699742
 20
-17.250000000070031
 30
0.0
 40
1.7499999999299991
 50
180.0
 51
0.0
  0
ARC
  5
1761
  8
247
  6
CONTINUOUS
 10
4.7500000000699742
 20
-10.557692308030029
 30
0.0
 40
1.7499999999299991
 50
0.0
 51
180.0
  0
LINE
  5
1762
  8
247
  6
CONTINUOUS
 10
3.000000000140004
 20
-16.38461538472
 30
0.0
 11
6.0000000000200071
 21
-17.244851541962021
 31
0.0
  0
LINE
  5
1763
  8
247
  6
CONTINUOUS
 10
4.423076923160008
 20
-15.48498381833582
 30
0.0
 11
4.423076923160008
 21
-16.792676125975841
 31
0.0
  0
ARC
  5
1764
  8
247
  6
CONTINUOUS
 10
3.54959866770298
 20
-15.14514381608978
 30
0.0
 40
0.5538165441895349
 50
72.997889675291773
 51
172.92416621851359
  0
ARC
  5
1765
  8
247
  6
CONTINUOUS
 10
3.4360330444657721
 20
-15.56687832302879
 30
0.0
 40
0.9904354236226808
 50
4.7429368522022122
 51
73.849226273266297
1001
GENIUS_GENOBJ-N-FIL_13
1002
{
1000
OWNER
1000
GEN
1002
}
1001
GENIUS_GENODEF_13
1002
{
1000
HIER
1070
     0
1002
}
1002
{
1000
MANEDIT
1070
     0
1002
}
1002
{
1000
NOSEL
1070
     0
1002
}
1002
{
1000
BEHIND
1070
     0
1002
}
1002
{
1000
OTHER
1070
     0
1002
}
1002
{
1000
REACTOR
1002
}
  0
LINE
  5
1766
  8
247
  6
CONTINUOUS
 10
6.0000000000200071
 20
-15.937159234321991
 30
0.0
 11
6.0000000000200071
 21
-17.244851541962021
 31
0.0
  0
LINE
  5
1767
  8
247
  6
CONTINUOUS
 10
3.000000000140004
 20
-16.38461538472
 30
0.0
 11
3.000000000140004
 21
-15.07692307707998
 31
0.0
  0
ARC
  5
1768
  8
247
  6
CONTINUOUS
 10
4.9820242326655348
 20
-15.56091963654694
 30
0.0
 40
0.5640818586791229
 50
65.990941652528889
 51
172.26344345906909
  0
ARC
  5
1769
  8
247
  6
CONTINUOUS
 10
4.987429039186563
 20
-16.038262685347028
 30
0.0
 40
1.0176059446230981
 50
5.7019851642564632
 51
77.277338436822376
1001
GENIUS_GENOBJ-N-FIL_13
1002
{
1000
OWNER
1000
GEN
1002
}
1001
GENIUS_GENODEF_13
1002
{
1000
HIER
1070
     0
1002
}
1002
{
1000
MANEDIT
1070
     0
1002
}
1002
{
1000
NOSEL
1070
     0
1002
}
1002
{
1000
BEHIND
1070
     0
1002
}
1002
{
1000
OTHER
1070
     0
1002
}
1002
{
1000
REACTOR
1002
}
  0
LINE
  5
176A
  8
247
  6
CONTINUOUS
 10
6.0000000000200071
 20
-14.28331308054203
 30
0.0
 11
3.000000000140004
 21
-13.423076923300011
 31
0.0
  0
LINE
  5
176B
  8
247
  6
CONTINUOUS
 10
3.000000000140004
 20
-11.00000000032003
 30
0.0
 11
3.000000000140004
 21
-11.565736619456629
 31
0.0
  0
LINE
  5
176C
  8
247
  6
CONTINUOUS
 10
6.0000000000200071
 20
-12.461538461799989
 30
0.0
 11
6.0000000000200071
 21
-11.846153846440011
 31
0.0
  0
ARC
  5
176D
  8
247
  6
CONTINUOUS
 10
5.0832851359733668
 20
-10.708791209122859
 30
0.0
 40
2.2526500823422122
 50
202.35948814152559
 51
254.99324854284609
  0
ARC
  5
176E
  8
247
  6
CONTINUOUS
 10
3.8083126551945261
 20
-11.37406947921323
 30
0.0
 40
0.8906723995727782
 50
94.994589319075317
 51
155.1663289573039
1001
GENIUS_GENOBJ-N-FIL_13
1002
{
1000
OWNER
1000
GEN
1002
}
1001
GENIUS_GENODEF_13
1002
{
1000
HIER
1070
     0
1002
}
1002
{
1000
MANEDIT
1070
     0
1002
}
1002
{
1000
NOSEL
1070
     0
1002
}
1002
{
1000
BEHIND
1070
     0
1002
}
1002
{
1000
OTHER
1070
     0
1002
}
1002
{
1000
REACTOR
1002
}
  0
ARC
  5
176F
  8
247
  6
CONTINUOUS
 10
4.660145888667782
 20
-12.22645888621258
 30
0.0
 40
1.392781735586712
 50
15.8460965557808
 51
82.325137004169065
  0
ARC
  5
1770
  8
247
  6
CONTINUOUS
 10
4.9592434315272831
 20
-11.64221272584035
 30
0.0
 40
1.324563662670287
 50
249.7136016704969
 51
321.78874565641053
1001
GENIUS_GENOBJ-N-FIL_13
1002
{
1000
OWNER
1000
GEN
1002
}
1001
GENIUS_GENODEF_13
1002
{
1000
HIER
1070
     0
1002
}
1002
{
1000
MANEDIT
1070
     0
1002
}
1002
{
1000
NOSEL
1070
     0
1002
}
1002
{
1000
BEHIND
1070
     0
1002
}
1002
{
1000
OTHER
1070
     0
1002
}
1002
{
1000
REACTOR
1002
}
  0
LINE
  5
1771
  8
247
  6
CONTINUOUS
 10
4.846153846219976
 20
-11.53846153875997
 30
0.0
 11
4.846153846219976
 21
-10.84615384647998
 31
0.0
  0
ARC
  5
1772
  8
241
  6
CONTINUOUS
 10
12.99999999999997
 20
0.0
 30
0.0
 40
8.0
 50
90.0
 51
270.0
  0
LINE
  5
1773
  8
247
  6
CONTINUOUS
 10
3.000000000139976
 20
-17.250000000070031
 30
0.0
 11
3.000000000139976
 21
-16.576923077020009
 31
0.0
  0
VIEWPORT
  5
22
 67
     1
  8
0
 10
261.51769911504419
 20
148.5
 30
0.0
 40
523.0353982300885
 41
297.0
 68
     1
 69
     1
1001
ACAD
1000
MVIEW
1002
{
1070
    16
1010
0.0
1020
0.0
1030
0.0
1010
0.0
1020
0.0
1030
1.0
1040
0.0
1040
297.0
1040
261.51769911504419
1040
148.5
1040
50.0
1040
0.0
1040
0.0
1070
     0
1070
   100
1070
     1
1070
     1
1070
     0
1070
     0
1070
     0
1070
     0
1040
0.0
1040
0.0
1040
0.0
1040
1.0
1040
1.0
1040
10.0
1040
10.0
1070
     0
1002
{
1002
}
1002
}
1001
GENIUS_GENOBJ-N-SDF_13
1002
{
1000
OWNER
1000
GEN
1002
}
1001
GENIUS_GENODEF_13
1002
{
1000
HIER
1070
     0
1002
}
1002
{
1000
MANEDIT
1070
     0
1002
}
1002
{
1000
NOSEL
1070
     0
1002
}
1002
{
1000
BEHIND
1070
     0
1002
}
1002
{
1000
OTHER
1070
     0
1002
}
1002
{
1000
REACTOR
1002
}
1001
GENIUS_GENSCREG_15
1000
PF
1040
1.0
1000
DF
1040
1.0
1000
MIN
1011
0.0
1021
0.0
1031
0.0
1021
0.0
1031
0.0
1000
MAX
1011
523.0353982300885
1021
0.0
1031
0.0
1021
297.0
1031
0.0
1000
FLAGS
1070
     4
  0
ENDSEC
  0
EOF
