  0
SECTION
  2
HEADER
  9
$ACADVER
  1
AC1009
  9
$INSBASE
 10
0.0
 20
0.0
 30
0.0
  9
$EXTMIN
 10
-47.853166090401032
 20
-34.853838266914863
 30
-0.0015258207003583
  9
$EXTMAX
 10
107.6267380467575
 20
61.002779545331578
 30
0.0000000349246037
  9
$LIMMIN
 10
0.0
 20
0.0
  9
$LIMMAX
 10
420.0
 20
297.0
  9
$ORTHOMODE
 70
     1
  9
$REGENMODE
 70
     1
  9
$FILLMODE
 70
     1
  9
$QTEXTMODE
 70
     0
  9
$MIRRTEXT
 70
     1
  9
$DRAGMODE
 70
     2
  9
$LTSCALE
 40
10.0
  9
$OSMODE
 70
    47
  9
$ATTMODE
 70
     1
  9
$TEXTSIZE
 40
3.0
  9
$TRACEWID
 40
1.0
  9
$TEXTSTYLE
  7
YOKO
  9
$CLAYER
  8
240
  9
$CELTYPE
  6
BYLAYER
  9
$CECOLOR
 62
   256
  9
$DIMSCALE
 40
1.0
  9
$DIMASZ
 40
2.0
  9
$DIMEXO
 40
2.0
  9
$DIMDLI
 40
2.5
  9
$DIMRND
 40
0.0
  9
$DIMDLE
 40
0.0
  9
$DIMEXE
 40
2.0
  9
$DIMTP
 40
0.0
  9
$DIMTM
 40
0.0
  9
$DIMTXT
 40
4.0
  9
$DIMCEN
 40
0.0
  9
$DIMTSZ
 40
0.0
  9
$DIMTOL
 70
     0
  9
$DIMLIM
 70
     0
  9
$DIMTIH
 70
     0
  9
$DIMTOH
 70
     0
  9
$DIMSE1
 70
     0
  9
$DIMSE2
 70
     0
  9
$DIMTAD
 70
     3
  9
$DIMZIN
 70
     8
  9
$DIMBLK
  1

  9
$DIMASO
 70
     1
  9
$DIMSHO
 70
     1
  9
$DIMPOST
  1

  9
$DIMAPOST
  1

  9
$DIMALT
 70
     0
  9
$DIMALTD
 70
     2
  9
$DIMALTF
 40
25.399999999999999
  9
$DIMLFAC
 40
1.0
  9
$DIMTOFL
 70
     1
  9
$DIMTVP
 40
0.0
  9
$DIMTIX
 70
     1
  9
$DIMSOXD
 70
     0
  9
$DIMSAH
 70
     1
  9
$DIMBLK1
  1
OPEN
  9
$DIMBLK2
  1
OPEN
  9
$DIMSTYLE
  2
BIGT
  9
$DIMCLRD
 70
   256
  9
$DIMCLRE
 70
   256
  9
$DIMCLRT
 70
    40
  9
$DIMTFAC
 40
1.0
  9
$DIMGAP
 40
1.0
  9
$LUNITS
 70
     2
  9
$LUPREC
 70
     3
  9
$SKETCHINC
 40
1.0
  9
$FILLETRAD
 40
1.0
  9
$AUNITS
 70
     0
  9
$AUPREC
 70
     3
  9
$MENU
  1
.
  9
$ELEVATION
 40
0.0
  9
$PELEVATION
 40
0.0
  9
$THICKNESS
 40
0.0
  9
$LIMCHECK
 70
     0
  9
$BLIPMODE
 70
     0
  9
$CHAMFERA
 40
10.0
  9
$CHAMFERB
 40
10.0
  9
$SKPOLY
 70
     0
  9
$TDCREATE
 40
2455040.3862004401
  9
$TDUPDATE
 40
2457673.6657295371
  9
$TDINDWG
 40
0.1126809259
  9
$TDUSRTIMER
 40
0.1126803935
  9
$USRTIMER
 70
     1
  9
$ANGBASE
 50
0.0
  9
$ANGDIR
 70
     0
  9
$PDMODE
 70
     1
  9
$PDSIZE
 40
-5.0
  9
$PLINEWID
 40
0.0
  9
$COORDS
 70
     1
  9
$SPLFRAME
 70
     0
  9
$SPLINETYPE
 70
     6
  9
$SPLINESEGS
 70
     8
  9
$ATTDIA
 70
     1
  9
$ATTREQ
 70
     1
  9
$HANDLING
 70
     1
  9
$HANDSEED
  5
1B97
  9
$SURFTAB1
 70
     6
  9
$SURFTAB2
 70
     6
  9
$SURFTYPE
 70
     6
  9
$SURFU
 70
     6
  9
$SURFV
 70
     6
  9
$UCSNAME
  2

  9
$UCSORG
 10
0.0
 20
0.0
 30
0.0
  9
$UCSXDIR
 10
1.0
 20
0.0
 30
0.0
  9
$UCSYDIR
 10
0.0
 20
1.0
 30
0.0
  9
$PUCSNAME
  2

  9
$PUCSORG
 10
0.0
 20
0.0
 30
0.0
  9
$PUCSXDIR
 10
1.0
 20
0.0
 30
0.0
  9
$PUCSYDIR
 10
0.0
 20
1.0
 30
0.0
  9
$USERI1
 70
     1
  9
$USERI2
 70
     0
  9
$USERI3
 70
     0
  9
$USERI4
 70
     0
  9
$USERI5
 70
     0
  9
$USERR1
 40
0.0
  9
$USERR2
 40
0.0
  9
$USERR3
 40
0.0
  9
$USERR4
 40
0.0
  9
$USERR5
 40
0.0
  9
$WORLDVIEW
 70
     1
  9
$SHADEDGE
 70
     3
  9
$SHADEDIF
 70
    70
  9
$TILEMODE
 70
     1
  9
$MAXACTVP
 70
    16
  9
$PLIMCHECK
 70
     0
  9
$PEXTMIN
 10
1.0000000000000000E+020
 20
1.0000000000000000E+020
 30
1.0000000000000000E+020
  9
$PEXTMAX
 10
-1.0000000000000000E+020
 20
-1.0000000000000000E+020
 30
-1.0000000000000000E+020
  9
$PLIMMIN
 10
0.0
 20
0.0
  9
$PLIMMAX
 10
420.0
 20
297.0
  9
$UNITMODE
 70
     0
  9
$VISRETAIN
 70
     0
  9
$PLINEGEN
 70
     0
  9
$PSLTSCALE
 70
     1
  0
ENDSEC
  0
SECTION
  2
TABLES
  0
TABLE
  2
VPORT
 70
     1
  0
VPORT
  2
*ACTIVE
 70
     0
 10
0.0
 20
0.0
 11
1.0
 21
1.0
 12
29.886785978178231
 22
13.07447063920835
 13
0.0
 23
0.0
 14
7.0
 24
7.0
 15
7.0
 25
7.0
 16
0.0
 26
0.0
 36
1.0
 17
0.0
 27
0.0
 37
0.0
 40
103.9409420819685
 41
1.5020920502092041
 42
50.0
 43
0.0
 44
0.0
 50
0.0
 51
0.0
 71
     0
 72
  2000
 73
     1
 74
     0
 75
     0
 76
     0
 77
     0
 78
     0
  0
ENDTAB
  0
TABLE
  2
LTYPE
 70
    16
  0
LTYPE
  2
CONTINUOUS
 70
     0
  3
Solid line
 72
    65
 73
     0
 40
0.0
  0
LTYPE
  2
CENTER2
 70
     0
  3
___ _ ___ _ ___ _ ___ _ ___ _ ___ _ ___ _ ___ _
 72
    65
 73
     4
 40
1.125
 49
0.75
 49
-0.125
 49
0.125
 49
-0.125
  0
LTYPE
  2
HIDDEN2
 70
     0
  3
_ _ _ _ _ _ _ _ _ _ _ _ _ _ _ _ _ _ _ _ _ _ _ _
 72
    65
 73
     2
 40
0.1875
 49
0.125
 49
-0.0625
  0
LTYPE
  2
PHANTOM2
 70
     0
  3
___ _ _ ___ _ _ ___ _ _ ___ _ _ ___ _ _ ___ _ _
 72
    65
 73
     6
 40
1.25
 49
0.625
 49
-0.125
 49
0.125
 49
-0.125
 49
0.125
 49
-0.125
  0
LTYPE
  2
AMCONSTR
 70
     0
  3
_______________________
 72
    65
 73
     2
 40
9999.0
 49
9999.0
 49
0.0
  0
LTYPE
  2
AM_ISO02W050
 70
     0
  3
__ __ __ __ __ __ __ __ __ __ __ __ __ __ __
 72
    65
 73
     2
 40
7.5
 49
6.0
 49
-1.5
  0
LTYPE
  2
ACJISTGB
 70
     0
  3
__ . . __ . .
 72
    65
 73
     6
 40
9.0
 49
4.0
 49
-1.0
 49
1.0
 49
-1.0
 49
1.0
 49
-1.0
  0
LTYPE
  2
ACJISTGL
 70
     0
  3
_ _ _ _ _
 72
    65
 73
     2
 40
3.0
 49
2.0
 49
-1.0
  0
LTYPE
  2
ACISOWELD
 70
     0
  3
_ _ _ _ _
 72
    65
 73
     2
 40
2.0
 49
2.0
 49
-1.0
  0
LTYPE
  2
ACISOTGB
 70
     0
  3
__ . . __ . .
 72
    65
 73
     6
 40
9.0
 49
4.0
 49
-1.0
 49
1.0
 49
-1.0
 49
1.0
 49
-1.0
  0
LTYPE
  2
ACISOTGL
 70
     0
  3
_ _ _ _ _
 72
    65
 73
     2
 40
3.0
 49
2.0
 49
-1.0
  0
ENDTAB
  0
TABLE
  2
LAYER
 70
     8
  0
LAYER
  2
0
 70
     0
 62
     7
  6
CONTINUOUS
  0
LAYER
  2
240
 70
     0
 62
     4
  6
CONTINUOUS
  0
LAYER
  2
241
 70
     0
 62
   211
  6
CONTINUOUS
  0
LAYER
  2
245
 70
     0
 62
     2
  6
CENTER2
  0
LAYER
  2
250
 70
     0
 62
     3
  6
CONTINUOUS
  0
LAYER
  2
DEFPOINTS
 70
     0
 62
     7
  6
CONTINUOUS
  0
LAYER
  2
243
 70
     0
 62
   211
  6
HIDDEN2
  0
LAYER
  2
247
 70
     0
 62
    60
  6
CONTINUOUS
  0
ENDTAB
  0
TABLE
  2
STYLE
 70
     7
  0
STYLE
  2
STANDARD
 70
     0
 40
0.0
 41
1.0
 50
0.0
 71
     0
 42
3.0
  3
romans.shx
  4
BIGFONT.SHX
  0
STYLE
  2
YOKO
 70
     0
 40
0.0
 41
1.0
 50
0.0
 71
     0
 42
3.0
  3
romans.shx
  4
extfont.shx
  0
STYLE
  2
ACJISTS
 70
     0
 40
1.0
 41
1.0
 50
0.0
 71
     0
 42
3.0
  3
amgdt.shx
  4
extfont.shx
  0
STYLE
  2
ACJISGDT
 70
     0
 40
0.0
 41
1.0
 50
0.0
 71
     0
 42
3.0
  3
amgdt.shx
  4
extfont.shx
  0
STYLE
  2
ACISOTS
 70
     0
 40
1.0
 41
1.0
 50
0.0
 71
     0
 42
3.0
  3
amgdt.shx
  4
extfont.shx
  0
STYLE
  2
ACISOGDT
 70
     0
 40
0.0
 41
1.0
 50
0.0
 71
     0
 42
3.0
  3
amgdt.shx
  4
extfont.shx
  0
ENDTAB
  0
TABLE
  2
VIEW
 70
     2
  0
VIEW
  2
OLE1
 70
     0
 40
189.27420394999999
 10
16.496026480000001
 20
32.719059459999997
 41
271.01172642
 11
0.0
 21
0.0
 31
1.0
 12
0.0
 22
0.0
 32
0.0
 42
50.0
 43
0.0
 44
0.0
 50
0.0
 71
     0
  0
VIEW
  2
OLE2
 70
     0
 40
105.59109081
 10
32.463568950000003
 20
13.023819850000001
 41
151.19030072999999
 11
0.0
 21
0.0
 31
1.0
 12
0.0
 22
0.0
 32
0.0
 42
50.0
 43
0.0
 44
0.0
 50
0.0
 71
     0
  0
ENDTAB
  0
TABLE
  2
UCS
 70
     0
  0
ENDTAB
  0
TABLE
  2
APPID
 70
    43
  0
APPID
  2
ACAD
 70
     0
  0
APPID
  2
GLOBAL
 70
     0
  0
APPID
  2
DETAIL
 70
     0
  0
APPID
  2
GRPNAME
 70
     0
  0
APPID
  2
GPARA
 70
     0
  0
APPID
  2
DCO15
 70
     0
  0
APPID
  2
ITEMNAME
 70
     0
  0
APPID
  2
GRADE_0
 70
     0
  0
APPID
  2
GENIUS_GENODEF_13
 70
     0
  0
APPID
  2
GENIUS_GENOBJ-N-FIL_13
 70
     0
  0
APPID
  2
GENIUS_GENFIL_13
 70
     0
  0
APPID
  2
GENIUS_GENOBJ-N-CHA_13
 70
     0
  0
APPID
  2
HATCH_TYPE
 70
     0
  0
APPID
  2
HATCH_DISPLAY
 70
     0
  0
APPID
  2
HATCH_DISTANCE
 70
     0
  0
APPID
  2
GENIUS_GENOREF_13
 70
     0
  0
APPID
  2
GENIUS_GENOBJ-N-CEN_13
 70
     0
  0
APPID
  2
ACAD_PSEXT
 70
     0
  0
APPID
  2
CONTENTBLOCKICON
 70
     0
  0
APPID
  2
MCAD_NO_VIS
 70
     0
  0
APPID
  2
ACAD_TEMP_GRAPHIC
 70
     0
  0
APPID
  2
ACATTRIBSERVICES
 70
     0
  0
APPID
  2
GENIUS_GENSCREG_15
 70
     0
  0
APPID
  2
GENIUS_GENOBJ-N-SDF_13
 70
     0
  0
APPID
  2
GENIUS_GENREC_14
 70
     0
  0
APPID
  2
GENIUS_GENOBJ-N-REC_13
 70
     0
  0
APPID
  2
GENIUS_GENDIMSH_14
 70
     0
  0
APPID
  2
GENIUS_GENOBJ-N-DIM_13
 70
     0
  0
APPID
  2
GENIUS_GENDIM_13
 70
     0
  0
APPID
  2
GENIUS_GENDTOL_13
 70
     0
  0
APPID
  2
GENIUS_GENOLIS_13
 70
     0
  0
APPID
  2
GENIUS_GENOENT_13
 70
     0
  0
APPID
  2
GENIUS_GENOBJ-F-FEM_13
 70
     0
  0
APPID
  2
GENIUS_GEFFEM_13
 70
     0
  0
APPID
  2
GENIUS_GEFFEMP_13
 70
     0
  0
APPID
  2
AD_DRAW
 70
     0
  0
APPID
  2
DESIGNERASSEMBLIES
 70
     0
  0
APPID
  2
ACADM_DIM_EDIT
 70
     0
  0
APPID
  2
AMDT_DM_ADJ
 70
     0
  0
APPID
  2
ACAD_NAV_VCDISPLAY
 70
     0
  0
APPID
  2
ACAECLAYERSTANDARD
 70
     0
  0
APPID
  2
ACAD_EXEMPT_FROM_CAD_STANDARDS
 70
     0
  0
APPID
  2
ACAD_MLEADERVER
 70
     0
  0
ENDTAB
  0
TABLE
  2
DIMSTYLE
 70
    29
  0
DIMSTYLE
  2
BIGT
 70
     0
  3

  4

  5
OPEN
  6

  7

 40
1.0
 41
2.2299999999999991
 42
0.5
 43
7.0
 44
1.0
 45
0.0
 46
0.0
 47
0.0
 48
0.01
140
2.7999999999999989
141
0.0
142
0.0
143
25.399999999999999
144
1.0
145
0.0
146
1.0
147
1.0
 71
     0
 72
     0
 73
     0
 74
     0
 75
     0
 76
     0
 77
     3
 78
     9
170
     0
171
     2
172
     1
173
     0
174
     1
175
     0
176
   256
177
   256
178
    40
  0
DIMSTYLE
  2
BIGT$0
 70
     0
  3

  4

  5
OPEN
  6

  7

 40
1.0
 41
2.2299999999999991
 42
0.5
 43
7.0
 44
1.0
 45
0.0
 46
0.0
 47
0.0
 48
0.01
140
2.7999999999999989
141
0.0
142
0.0
143
25.399999999999999
144
1.0
145
0.0
146
1.0
147
1.0
 71
     0
 72
     0
 73
     0
 74
     0
 75
     0
 76
     0
 77
     3
 78
     9
170
     0
171
     2
172
     1
173
     0
174
     1
175
     0
176
   256
177
   256
178
    40
  0
DIMSTYLE
  2
BIGT$2
 70
     0
  3

  4

  5
OPEN
  6

  7

 40
1.0
 41
2.2299999999999991
 42
0.5
 43
7.0
 44
1.0
 45
0.0
 46
0.0
 47
0.0
 48
0.01
140
2.7999999999999989
141
0.0
142
0.0
143
25.399999999999999
144
1.0
145
0.0
146
1.0
147
1.0
 71
     0
 72
     0
 73
     0
 74
     0
 75
     0
 76
     0
 77
     3
 78
     9
170
     0
171
     2
172
     1
173
     0
174
     0
175
     0
176
   256
177
   256
178
    40
  0
DIMSTYLE
  2
BIGT$3
 70
     0
  3

  4

  5
OPEN
  6

  7

 40
1.0
 41
2.2299999999999991
 42
0.5
 43
2.5
 44
1.0
 45
0.0
 46
0.0
 47
0.0
 48
0.01
140
2.7999999999999989
141
0.0
142
0.0
143
25.399999999999999
144
1.0
145
0.0
146
1.0
147
1.0
 71
     0
 72
     0
 73
     0
 74
     0
 75
     0
 76
     0
 77
     3
 78
     9
170
     0
171
     2
172
     1
173
     0
174
     0
175
     0
176
   256
177
   256
178
    40
  0
DIMSTYLE
  2
BIGT$4
 70
     0
  3

  4

  5
OPEN
  6

  7

 40
1.0
 41
2.2299999999999991
 42
0.5
 43
2.5
 44
1.0
 45
0.0
 46
0.0
 47
0.0
 48
0.01
140
2.7999999999999989
141
0.0
142
0.0
143
25.399999999999999
144
1.0
145
0.0
146
1.0
147
1.0
 71
     0
 72
     0
 73
     0
 74
     0
 75
     0
 76
     0
 77
     3
 78
     9
170
     0
171
     2
172
     1
173
     0
174
     0
175
     0
176
   256
177
   256
178
    40
  0
DIMSTYLE
  2
BIGT$6
 70
     0
  3

  4

  5
OPEN
  6

  7

 40
1.0
 41
2.2299999999999991
 42
0.5
 43
2.5
 44
1.0
 45
0.0
 46
0.0
 47
0.0
 48
0.01
140
2.7999999999999989
141
0.0
142
0.0
143
25.399999999999999
144
1.0
145
0.0
146
1.0
147
1.0
 71
     0
 72
     0
 73
     0
 74
     0
 75
     0
 76
     0
 77
     3
 78
     9
170
     0
171
     2
172
     1
173
     0
174
     0
175
     0
176
   256
177
   256
178
    40
  0
DIMSTYLE
  2
BIGT$7
 70
     0
  3

  4

  5
OPEN
  6

  7

 40
0.0
 41
2.2299999999999991
 42
0.5
 43
7.0
 44
1.0
 45
0.0
 46
0.0
 47
0.0
 48
0.01
140
2.7999999999999989
141
0.0
142
0.0
143
25.399999999999999
144
1.0
145
0.0
146
1.0
147
1.0
 71
     0
 72
     0
 73
     0
 74
     0
 75
     0
 76
     0
 77
     3
 78
     9
170
     0
171
     2
172
     0
173
     0
174
     0
175
     0
176
   256
177
   256
178
    40
  0
DIMSTYLE
  2
BIGT$SF
 70
     0
  3

  4

  5
OPEN
  6

  7

 40
1.0
 41
2.2299999999999991
 42
0.5
 43
7.0
 44
1.0
 45
0.0
 46
0.0
 47
0.0
 48
0.0
140
2.7999999999999989
141
0.0
142
0.0
143
25.399999999999999
144
1.0
145
0.0
146
1.0
147
1.0
 71
     0
 72
     0
 73
     0
 74
     0
 75
     0
 76
     0
 77
     3
 78
     9
170
     0
171
     2
172
     1
173
     0
174
     0
175
     0
176
   256
177
   256
178
    40
  0
DIMSTYLE
  2
BIGT$SH
 70
     0
  3

  4

  5
OPEN
  6

  7

 40
1.0
 41
2.2299999999999991
 42
0.5
 43
7.0
 44
1.0
 45
0.0
 46
0.0
 47
0.0
 48
0.0
140
2.7999999999999989
141
0.0
142
0.0
143
25.399999999999999
144
1.0
145
0.0
146
1.0
147
1.0
 71
     0
 72
     0
 73
     0
 74
     0
 75
     0
 76
     0
 77
     3
 78
     9
170
     0
171
     2
172
     1
173
     0
174
     0
175
     0
176
   256
177
   256
178
    40
  0
DIMSTYLE
  2
AM_ISO
 70
     0
  3

  4
"
  5

  6

  7

 40
1.0
 41
2.5
 42
1.0
 43
10.0
 44
1.0
 45
0.0
 46
0.0
 47
0.1
 48
0.1
140
3.5
141
0.0
142
0.0
143
0.0393701
144
1.0
145
0.0
146
0.71
147
1.5
 71
     0
 72
     0
 73
     0
 74
     0
 75
     0
 76
     0
 77
     1
 78
     8
170
     0
171
     2
172
     1
173
     0
174
     0
175
     0
176
   256
177
   256
178
     2
  0
DIMSTYLE
  2
AM_ISO$3
 70
     0
  3

  4
"
  5

  6

  7

 40
1.0
 41
2.5
 42
1.0
 43
10.0
 44
1.0
 45
0.0
 46
0.0
 47
0.1
 48
0.1
140
3.5
141
0.0
142
0.0
143
0.0393701
144
1.0
145
0.0
146
0.71
147
1.5
 71
     0
 72
     0
 73
     0
 74
     1
 75
     0
 76
     0
 77
     1
 78
     8
170
     0
171
     2
172
     0
173
     0
174
     0
175
     0
176
   256
177
   256
178
     2
  0
DIMSTYLE
  2
AM_ISO$4
 70
     0
  3

  4
"
  5

  6

  7

 40
1.0
 41
2.5
 42
1.0
 43
10.0
 44
1.0
 45
0.0
 46
0.0
 47
0.1
 48
0.1
140
3.5
141
0.0
142
0.0
143
0.0393701
144
1.0
145
0.0
146
0.71
147
1.5
 71
     0
 72
     0
 73
     0
 74
     1
 75
     0
 76
     0
 77
     1
 78
     8
170
     0
171
     2
172
     0
173
     0
174
     0
175
     0
176
   256
177
   256
178
     2
  0
DIMSTYLE
  2
AM_ISO$6
 70
     0
  3

  4
"
  5

  6

  7

 40
1.0
 41
2.5
 42
1.0
 43
10.0
 44
1.0
 45
0.0
 46
0.0
 47
0.1
 48
0.1
140
3.5
141
0.0
142
0.0
143
0.0393701
144
1.0
145
0.0
146
0.71
147
1.5
 71
     0
 72
     0
 73
     0
 74
     0
 75
     0
 76
     0
 77
     0
 78
     8
170
     0
171
     2
172
     1
173
     0
174
     0
175
     0
176
   256
177
   256
178
     2
  0
DIMSTYLE
  2
AM_ISO$7
 70
     0
  3

  4
"
  5

  6

  7

 40
1.0
 41
2.5
 42
1.0
 43
10.0
 44
1.0
 45
0.0
 46
0.0
 47
0.1
 48
0.1
140
5.0
141
0.0
142
0.0
143
0.0393701
144
1.0
145
0.0
146
0.71
147
1.5
 71
     0
 72
     0
 73
     0
 74
     0
 75
     0
 76
     0
 77
     1
 78
     8
170
     0
171
     2
172
     1
173
     0
174
     0
175
     0
176
   256
177
   256
178
     2
  0
DIMSTYLE
  2
AM_ISO$SF
 70
     0
  3

  4
"
  5

  6

  7

 40
1.0
 41
2.5
 42
1.0
 43
10.0
 44
1.0
 45
0.0
 46
0.0
 47
0.1
 48
0.1
140
3.5
141
0.0
142
0.0
143
0.0393701
144
1.0
145
0.0
146
0.71
147
1.5
 71
     0
 72
     0
 73
     0
 74
     0
 75
     1
 76
     1
 77
     1
 78
     8
170
     0
171
     2
172
     1
173
     0
174
     0
175
     0
176
   256
177
   256
178
     2
  0
DIMSTYLE
  2
AM_ISO$SH
 70
     0
  3

  4
"
  5

  6
GENAXEH
  7

 40
1.0
 41
2.5
 42
1.0
 43
10.0
 44
1.0
 45
0.0
 46
0.0
 47
0.1
 48
0.1
140
3.5
141
0.0
142
0.0
143
0.0393701
144
2.0
145
0.0
146
0.71
147
1.5
 71
     0
 72
     0
 73
     0
 74
     0
 75
     1
 76
     1
 77
     1
 78
     8
170
     0
171
     2
172
     1
173
     1
174
     0
175
     0
176
   256
177
   256
178
     2
  0
DIMSTYLE
  2
TECHNICAL_OSAKA
 70
     0
  3

  4
"
  5
OPEN30
  6

  7

 40
1.0
 41
2.5
 42
1.0
 43
10.0
 44
1.0
 45
0.0
 46
0.0
 47
0.1
 48
0.1
140
2.7999999999999989
141
0.0
142
0.0
143
0.0393701
144
1.0
145
0.0
146
0.71
147
1.5
 71
     0
 72
     0
 73
     0
 74
     0
 75
     0
 76
     0
 77
     3
 78
     8
170
     0
171
     2
172
     1
173
     0
174
     0
175
     0
176
   256
177
   256
178
    40
  0
DIMSTYLE
  2
TECHNICAL_OSAKA$3
 70
     0
  3

  4
"
  5
OPEN30
  6

  7

 40
1.0
 41
2.5
 42
1.0
 43
10.0
 44
1.0
 45
0.0
 46
0.0
 47
0.1
 48
0.1
140
2.7999999999999989
141
0.0
142
0.0
143
0.0393701
144
1.0
145
0.0
146
0.71
147
1.5
 71
     0
 72
     0
 73
     0
 74
     1
 75
     0
 76
     0
 77
     3
 78
     8
170
     0
171
     2
172
     0
173
     0
174
     0
175
     0
176
   256
177
   256
178
    40
  0
DIMSTYLE
  2
TECHNICAL_OSAKA$4
 70
     0
  3

  4
"
  5
OPEN30
  6

  7

 40
1.0
 41
2.5
 42
1.0
 43
10.0
 44
1.0
 45
0.0
 46
0.0
 47
0.1
 48
0.1
140
2.7999999999999989
141
0.0
142
0.0
143
0.0393701
144
1.0
145
0.0
146
0.71
147
1.5
 71
     0
 72
     0
 73
     0
 74
     1
 75
     0
 76
     0
 77
     3
 78
     8
170
     0
171
     2
172
     0
173
     0
174
     0
175
     0
176
   256
177
   256
178
    40
  0
DIMSTYLE
  2
TECHNICAL_OSAKA$6
 70
     0
  3

  4
"
  5
OPEN30
  6

  7

 40
1.0
 41
2.5
 42
1.0
 43
10.0
 44
1.0
 45
0.0
 46
0.0
 47
0.1
 48
0.1
140
2.7999999999999989
141
0.0
142
0.0
143
0.0393701
144
1.0
145
0.0
146
0.71
147
1.5
 71
     0
 72
     0
 73
     0
 74
     0
 75
     0
 76
     0
 77
     0
 78
     8
170
     0
171
     2
172
     1
173
     0
174
     0
175
     0
176
   256
177
   256
178
    40
  0
DIMSTYLE
  2
TECHNICAL_OSAKA$7
 70
     0
  3

  4
"
  5
OPEN30
  6

  7

 40
1.0
 41
2.5
 42
1.0
 43
10.0
 44
1.0
 45
0.0
 46
0.0
 47
0.1
 48
0.1
140
2.7999999999999989
141
0.0
142
0.0
143
0.0393701
144
1.0
145
0.0
146
0.71
147
1.5
 71
     0
 72
     0
 73
     0
 74
     0
 75
     0
 76
     0
 77
     3
 78
     8
170
     0
171
     2
172
     1
173
     0
174
     0
175
     0
176
   256
177
   256
178
    40
  0
DIMSTYLE
  2
TECHNICAL_OSAKA$SF
 70
     0
  3

  4
"
  5
OPEN30
  6
OPEN30
  7
OPEN30
 40
1.0
 41
2.5
 42
1.0
 43
10.0
 44
1.0
 45
0.0
 46
0.0
 47
0.1
 48
0.1
140
3.5
141
0.0
142
0.0
143
0.0393701
144
1.0
145
0.0
146
0.71
147
1.5
 71
     0
 72
     0
 73
     0
 74
     0
 75
     1
 76
     1
 77
     3
 78
     8
170
     0
171
     2
172
     1
173
     0
174
     0
175
     0
176
   256
177
   256
178
    40
  0
DIMSTYLE
  2
TECHNICAL_OSAKA$SH
 70
     0
  3

  4
"
  5
OPEN30
  6
GENAXEH
  7
OPEN30
 40
1.0
 41
2.5
 42
1.0
 43
10.0
 44
1.0
 45
0.0
 46
0.0
 47
0.1
 48
0.1
140
3.5
141
0.0
142
0.0
143
0.0393701
144
2.0
145
0.0
146
0.71
147
1.5
 71
     0
 72
     0
 73
     0
 74
     0
 75
     1
 76
     1
 77
     3
 78
     8
170
     0
171
     2
172
     1
173
     1
174
     0
175
     0
176
   256
177
   256
178
    40
  0
ENDTAB
  0
ENDSEC
  0
SECTION
  2
BLOCKS
  0
BLOCK
  8
0
  2
$MODEL_SPACE
 70
     0
 10
0.0
 20
0.0
 30
0.0
  3
$MODEL_SPACE
  1

  0
ENDBLK
  5
1C
  8
0
  0
BLOCK
 67
     1
  8
0
  2
$PAPER_SPACE
 70
     0
 10
0.0
 20
0.0
 30
0.0
  3
$PAPER_SPACE
  1

  0
ENDBLK
  5
19
 67
     1
  8
0
  0
BLOCK
  8
0
  2
_OPEN
 70
     0
 10
0.0
 20
0.0
 30
0.0
  3
_OPEN
  1

  0
LINE
  5
1A91
  8
0
  6
BYBLOCK
 62
     0
 10
-1.0
 20
0.1666666666666666
 30
0.0
 11
0.0
 21
0.0
 31
0.0
  0
LINE
  5
1A92
  8
0
  6
BYBLOCK
 62
     0
 10
-1.0
 20
-0.1666666666666666
 30
0.0
 11
0.0
 21
0.0
 31
0.0
  0
LINE
  5
1A93
  8
0
  6
BYBLOCK
 62
     0
 10
0.0
 20
0.0
 30
0.0
 11
-1.0
 21
0.0
 31
0.0
  0
ENDBLK
  5
1A94
  8
0
  0
BLOCK
  8
0
  2
矢印なし
 70
     0
 10
0.0
 20
0.0
 30
0.0
  3
矢印なし
  1

  0
ENDBLK
  5
6E5
  8
0
  0
BLOCK
  8
0
  2
GENAXEH
 70
     0
 10
0.0
 20
0.0
 30
0.0
  3
GENAXEH
  1

  0
LINE
  5
1ACC
  8
0
 10
-1.0
 20
0.0
 30
0.0
 11
1.0
 21
0.0
 31
0.0
  0
ENDBLK
  5
1ACD
  8
0
  0
BLOCK
  8
0
  2
_OPEN30
 70
     0
 10
0.0
 20
0.0
 30
0.0
  3
_OPEN30
  1

  0
LINE
  5
1B08
  8
0
  6
BYBLOCK
 62
     0
 10
-1.0
 20
0.26794919
 30
0.0
 11
0.0
 21
0.0
 31
0.0
  0
LINE
  5
1B09
  8
0
  6
BYBLOCK
 62
     0
 10
0.0
 20
0.0
 30
0.0
 11
-1.0
 21
-0.26794919
 31
0.0
  0
LINE
  5
1B0A
  8
0
  6
BYBLOCK
 62
     0
 10
0.0
 20
0.0
 30
0.0
 11
-1.0
 21
0.0
 31
0.0
  0
ENDBLK
  5
1B0B
  8
0
  0
ENDSEC
  0
SECTION
  2
ENTITIES
  0
INSERT
  5
6E6
  8
245
  2
矢印なし
 10
175.62382697000001
 20
90.551235719999994
 30
0.0
  0
TEXT
  5
8C8
  8
241
  6
CONTINUOUS
 10
-32.0
 20
56.0
 30
0.0
 40
5.0
  1
HSK-A63-MGT12-85
  7
YOKO
 11
-32.0
 21
56.0
 31
0.0
 73
     1
  0
LINE
  5
10A4
  8
250
  6
CONTINUOUS
 10
89.492339110000003
 20
31.424274659999998
 30
0.0
 11
107.62567244
 21
31.424274659999998
 31
0.0
1001
ITEMNAME
1000
LNSP2
  0
LINE
  5
172E
  8
240
  6
CONTINUOUS
 10
34.131652500000001
 20
20.5
 30
0.0
 11
76.999999990111391
 21
20.5
 31
0.0
  0
LINE
  5
172F
  8
245
  6
CENTER2
 10
86.0
 20
0.0
 30
0.0
 11
-33.0
 21
0.0
 31
0.0
  0
LINE
  5
1771
  8
241
  6
CONTINUOUS
 10
34.0
 20
-20.5
 30
0.0
 11
34.0
 21
20.5
 31
0.0
  0
LINE
  5
1772
  8
240
  6
CONTINUOUS
 10
33.872833450000002
 20
-20.53407417
 30
0.0
 11
25.999999999999432
 21
-22.64359354000015
 31
0.0
  0
ARC
  5
1773
  8
240
  6
CONTINUOUS
 10
34.131652500000001
 20
-21.5
 30
0.0
 40
1.0
 50
90.0
 51
105.0
1001
GENIUS_GENOREF_13
1005
0
  0
LINE
  5
1775
  8
240
  6
CONTINUOUS
 10
33.872833450000002
 20
20.53407417
 30
0.0
 11
26.000000000000259
 21
22.64359353999993
 31
0.0
  0
ARC
  5
1776
  8
240
  6
CONTINUOUS
 10
34.131652500000001
 20
21.5
 30
0.0
 40
1.0
 50
255.0
 51
270.0
  0
LINE
  5
1780
  8
240
  6
CONTINUOUS
 10
76.999999990111391
 20
20.5
 30
0.0
 11
85.0
 21
18.356406464558351
 31
0.0
  0
LINE
  5
1781
  8
240
  6
CONTINUOUS
 10
76.999999990111391
 20
-20.5
 30
0.0
 11
85.0
 21
-18.356406464558351
 31
0.0
  0
LINE
  5
1782
  8
245
  6
CENTER2
 10
50.0
 20
22.691462801267821
 30
0.0
 11
50.0
 21
8.0000000000013785
 31
0.0
1001
GENIUS_GENOBJ-N-CEN_13
1002
{
1000
OWNER
1000
GEN
1002
}
1001
GENIUS_GENODEF_13
1002
{
1000
HIER
1070
     0
1002
}
1002
{
1000
MANEDIT
1070
     0
1002
}
1002
{
1000
NOSEL
1070
     0
1002
}
1002
{
1000
BEHIND
1070
     0
1002
}
1002
{
1000
OTHER
1070
     0
1002
}
1002
{
1000
REACTOR
1002
}
  0
LINE
  5
1787
  8
241
  6
CONTINUOUS
 10
77.0
 20
20.412959300000001
 30
0.0
 11
77.0
 21
-20.412959300000001
 31
0.0
  0
LINE
  5
1789
  8
240
  6
CONTINUOUS
 10
76.999999990111391
 20
-20.5
 30
0.0
 11
34.131652500000001
 21
-20.5
 31
0.0
  0
LINE
  5
178A
  8
241
  6
CONTINUOUS
 10
57.399999999999999
 20
-20.5
 30
0.0
 11
57.399999999999999
 21
20.5
 31
0.0
  0
LINE
  5
178B
  8
241
  6
CONTINUOUS
 10
59.0
 20
-20.5
 30
0.0
 11
59.0
 21
20.5
 31
0.0
  0
LINE
  5
178C
  8
241
  6
CONTINUOUS
 10
60.399999999999999
 20
-20.5
 30
0.0
 11
60.399999999999999
 21
20.5
 31
0.0
  0
LINE
  5
178D
  8
241
  6
CONTINUOUS
 10
62.0
 20
-20.5
 30
0.0
 11
62.0
 21
20.5
 31
0.0
  0
LINE
  5
1796
  8
241
  6
CONTINUOUS
 10
69.0
 20
20.5
 30
0.0
 11
69.0
 21
-20.5
 31
0.0
  0
LINE
  5
17A1
  8
240
  6
CONTINUOUS
 10
85.0
 20
18.356406464558351
 30
0.0
 11
85.0
 21
-18.356406464558351
 31
0.0
  0
LINE
  5
17A6
  8
250
  6
CONTINUOUS
 10
0.0
 20
31.99999999999989
 30
0.0
 11
0.0
 21
43.0
 31
0.0
  0
LINE
  5
17A7
  8
250
  6
CONTINUOUS
 10
85.0
 20
18.874044554655701
 30
0.0
 11
85.0
 21
43.0
 31
0.0
  0
LINE
  5
17A8
  8
250
  6
CONTINUOUS
 10
2.2299999999999991
 20
42.0
 30
0.0
 11
82.769999999999996
 21
42.0
 31
0.0
  0
TEXT
  5
17AC
  8
250
  6
CONTINUOUS
 10
91.759005776666655
 20
32.424274660000002
 30
0.0
 40
2.7999999999999989
  1
MGT12
  7
YOKO
1001
ITEMNAME
1000
LNSP3
1001
ACAD
1000
MTEXTBEGIN
1070
    73
1070
     1
1070
    44
1040
1.0
1070
    74
1070
     0
1000
MTEXTEND
1000
MTEXTBEGIN
1070
    73
1070
     1
1070
    44
1040
1.0
1070
    74
1070
     0
1000
MTEXTEND
1000
MTEXTBEGIN
1070
    73
1070
     1
1070
    44
1040
1.0
1070
    74
1070
     0
1000
MTEXTEND
1000
MTEXTBEGIN
1070
    73
1070
     1
1070
    44
1040
1.0
1070
    74
1070
     0
1000
MTEXTEND
  0
LINE
  5
17AF
  8
250
  6
CONTINUOUS
 10
76.999999990111391
 20
-20.5
 30
0.0
 11
96.0
 21
-20.5
 31
0.0
  0
LINE
  5
17B0
  8
250
  6
CONTINUOUS
 10
76.999999990111391
 20
20.5
 30
0.0
 11
96.0
 21
20.5
 31
0.0
  0
LINE
  5
17B1
  8
250
  6
CONTINUOUS
 10
95.0
 20
-18.27
 30
0.0
 11
95.0
 21
18.27
 31
0.0
  0
TEXT
  5
17B5
  8
250
  6
CONTINUOUS
 10
39.833333333333343
 20
43.0
 30
0.0
 40
2.7999999999999989
  1
85
1001
ACAD
1000
MTEXTBEGIN
1070
    73
1070
     1
1070
    44
1040
1.0
1070
    74
1070
     0
1000
MTEXTEND
1000
MTEXTBEGIN
1070
    73
1070
     1
1070
    44
1040
1.0
1070
    74
1070
     0
1000
MTEXTEND
1000
MTEXTBEGIN
1070
    73
1070
     1
1070
    44
1040
1.0
1070
    74
1070
     0
1000
MTEXTEND
1000
MTEXTBEGIN
1070
    73
1070
     1
1070
    44
1040
1.0
1070
    74
1070
     0
1000
MTEXTEND
1000
MTEXTBEGIN
1070
    73
1070
     1
1070
    44
1040
1.0
1070
    74
1070
     0
1000
MTEXTEND
1000
MTEXTBEGIN
1070
    73
1070
     1
1070
    44
1040
1.0
1070
    74
1070
     0
1000
MTEXTEND
1000
MTEXTBEGIN
1070
    73
1070
     1
1070
    44
1040
1.0
1070
    74
1070
     0
1000
MTEXTEND
  0
LINE
  5
17B6
  8
250
  6
CONTINUOUS
 10
82.769999999999996
 20
42.371666666666663
 30
0.0
 11
85.0
 21
42.0
 31
0.0
  0
LINE
  5
17B7
  8
250
  6
CONTINUOUS
 10
82.769999999999996
 20
41.62833333333333
 30
0.0
 11
85.0
 21
42.0
 31
0.0
  0
LINE
  5
17B8
  8
250
  6
CONTINUOUS
 10
85.0
 20
42.0
 30
0.0
 11
82.769999999999996
 21
42.0
 31
0.0
  0
LINE
  5
17B9
  8
250
  6
CONTINUOUS
 10
2.2299999999999991
 20
41.62833333333333
 30
0.0
 11
0.0
 21
42.0
 31
0.0
  0
LINE
  5
17BA
  8
250
  6
CONTINUOUS
 10
2.2299999999999991
 20
42.371666666666663
 30
0.0
 11
0.0
 21
42.0
 31
0.0
  0
LINE
  5
17BB
  8
250
  6
CONTINUOUS
 10
0.0
 20
42.0
 30
0.0
 11
2.2299999999999991
 21
42.0
 31
0.0
  0
LINE
  5
17BC
  8
250
  6
CONTINUOUS
 10
83.356545690349265
 20
20.796768717367229
 30
0.0
 11
89.492339110000003
 21
31.424274659999998
 31
0.0
1001
ACAD
1000
DSTYLE
1002
{
1070
     6
1000
OPEN
1070
    41
1040
2.0
1070
    42
1040
2.0
1070
    44
1040
2.0
1070
    79
1070
     2
1070
   140
1040
4.0
1070
   179
1070
     3
1070
   343
1005
594
1070
   371
1070
    -1
1070
   372
1070
    -1
1002
}
  0
LINE
  5
17BD
  8
250
  6
CONTINUOUS
 10
83.645220824910467
 20
20.63010205064235
 30
0.0
 11
82.356545690000004
 21
19.064717909999999
 31
0.0
  0
LINE
  5
17BE
  8
250
  6
CONTINUOUS
 10
83.067870555788076
 20
20.963435384092111
 30
0.0
 11
82.356545690000004
 21
19.064717909999999
 31
0.0
  0
LINE
  5
17BF
  8
250
  6
CONTINUOUS
 10
82.356545690000004
 20
19.064717909999999
 30
0.0
 11
83.356545690349265
 21
20.796768717367229
 31
0.0
  0
LINE
  5
17C0
  8
250
  6
CONTINUOUS
 10
94.628333333333345
 20
18.27
 30
0.0
 11
95.0
 21
20.5
 31
0.0
  0
LINE
  5
17C1
  8
250
  6
CONTINUOUS
 10
95.37166666666667
 20
18.27
 30
0.0
 11
95.0
 21
20.5
 31
0.0
  0
LINE
  5
17C2
  8
250
  6
CONTINUOUS
 10
95.0
 20
20.5
 30
0.0
 11
95.0
 21
18.27
 31
0.0
  0
TEXT
  5
17C3
  8
250
  6
CONTINUOUS
 10
93.999999999999986
 20
-3.5333333333333319
 30
0.0
 40
2.7999999999999989
  1
\U+220541
 50
90.0
1001
ACAD
1000
MTEXTBEGIN
1070
    73
1070
     1
1070
    44
1040
1.0
1070
    74
1070
     0
1000
MTEXTEND
1000
MTEXTBEGIN
1070
    73
1070
     1
1070
    44
1040
1.0
1070
    74
1070
     0
1000
MTEXTEND
1000
MTEXTBEGIN
1070
    73
1070
     1
1070
    44
1040
1.0
1070
    74
1070
     0
1000
MTEXTEND
1000
MTEXTBEGIN
1070
    73
1070
     1
1070
    44
1040
1.0
1070
    74
1070
     0
1000
MTEXTEND
1000
MTEXTBEGIN
1070
    73
1070
     1
1070
    44
1040
1.0
1070
    74
1070
     0
1000
MTEXTEND
  0
LINE
  5
17C4
  8
250
  6
CONTINUOUS
 10
95.37166666666667
 20
-18.27
 30
0.0
 11
95.0
 21
-20.5
 31
0.0
  0
LINE
  5
17C5
  8
250
  6
CONTINUOUS
 10
94.628333333333345
 20
-18.27
 30
0.0
 11
95.0
 21
-20.5
 31
0.0
  0
LINE
  5
17C6
  8
250
  6
CONTINUOUS
 10
95.0
 20
-20.5
 30
0.0
 11
95.0
 21
-18.27
 31
0.0
  0
LINE
  5
1871
  8
241
  6
CONTINUOUS
 10
14.622500929999971
 20
31.5
 30
0.0
 11
14.622500929999971
 21
24.336187050000039
 31
0.0
1001
GRPNAME
1000
PASTMD2W
  0
LINE
  5
1872
  8
240
  6
CONTINUOUS
 10
16.124999999999972
 20
28.897595259999999
 30
0.0
 11
14.622500929999971
 21
31.5
 31
0.0
1001
GRPNAME
1000
PASTMD2W
  0
LINE
  5
1873
  8
240
  6
CONTINUOUS
 10
19.874999999999972
 20
28.897595259999999
 30
0.0
 11
21.377499069999971
 21
31.5
 31
0.0
1001
GRPNAME
1000
PASTMD2W
  0
LINE
  5
1874
  8
240
  6
CONTINUOUS
 10
-0.0000000000000284
 20
24.315000000207881
 30
0.0
 11
0.0000000000000284
 21
31.49999999999989
 31
0.0
1001
GRPNAME
1000
PASTMD2W
  0
LINE
  5
1875
  8
243
  6
HIDDEN2
 10
4.9999999999999689
 20
31.5
 30
0.0
 11
4.9999999999999689
 21
26.5
 31
0.0
1001
GRPNAME
1000
PASTMD2W
  0
LINE
  5
1876
  8
240
  6
CONTINUOUS
 10
26.000000000000259
 20
22.64359353999993
 30
0.0
 11
25.99999999999941
 21
31.499999999999599
 31
0.0
1001
GRPNAME
1000
PASTMD2W
  0
LINE
  5
1877
  8
241
  6
CONTINUOUS
 10
21.377499069999971
 20
31.5
 30
0.0
 11
21.377499069999971
 21
24.336187050000039
 31
0.0
1001
GRPNAME
1000
PASTMD2W
  0
LINE
  5
1878
  8
240
  6
CONTINUOUS
 10
-0.0000000000000284
 20
24.315000000207881
 30
0.0
 11
-32.000000000000121
 21
22.714999996881321
 31
0.0
1001
GRPNAME
1000
PASTMD2W
  0
LINE
  5
1879
  8
240
  6
CONTINUOUS
 10
-0.0000000000000284
 20
-24.315000000207881
 30
0.0
 11
-32.00000000000005
 21
-22.714999996881492
 31
0.0
1001
GRPNAME
1000
PASTMD2W
  0
LINE
  5
187A
  8
240
  6
CONTINUOUS
 10
-32.00000000000005
 20
-22.714999996881492
 30
0.0
 11
-32.00000000000005
 21
22.714999996881321
 31
0.0
1001
GRPNAME
1000
PASTMD2W
  0
LINE
  5
187B
  8
241
  6
CONTINUOUS
 10
-0.0000000000000284
 20
-24.315000000207881
 30
0.0
 11
0.0
 21
24.315000000207849
 31
0.0
1001
GRPNAME
1000
PASTMD2W
  0
LINE
  5
187C
  8
241
  6
CONTINUOUS
 10
25.999999999999972
 20
-22.643593540000008
 30
0.0
 11
25.999999999999972
 21
22.643593540000008
 31
0.0
  0
LINE
  5
187D
  8
241
  6
CONTINUOUS
 10
14.622500929999971
 20
20.0
 30
0.0
 11
14.622500929999971
 21
-31.5
 31
0.0
1001
GRPNAME
1000
PASTMD2W
  0
LINE
  5
187E
  8
241
  6
CONTINUOUS
 10
21.377499069999939
 20
20.0
 30
0.0
 11
21.377499069999971
 21
-31.5
 31
0.0
1001
GRPNAME
1000
PASTMD2W
  0
LINE
  5
187F
  8
241
  6
CONTINUOUS
 10
16.124999999999972
 20
-27.5
 30
0.0
 11
16.124999999999972
 21
27.5
 31
0.0
1001
GRPNAME
1000
PASTMD2W
  0
LINE
  5
1880
  8
241
  6
CONTINUOUS
 10
19.874999999999972
 20
-27.5
 30
0.0
 11
19.874999999999972
 21
27.5
 31
0.0
1001
GRPNAME
1000
PASTMD2W
  0
LINE
  5
1881
  8
243
  6
HIDDEN2
 10
25.999999999999972
 20
-26.5
 30
0.0
 11
4.9999999999999689
 21
-26.5
 31
0.0
1001
GRPNAME
1000
PASTMD2W
  0
LINE
  5
1882
  8
240
  6
CONTINUOUS
 10
14.622500929999971
 20
-31.5
 30
0.0
 11
0.0000000000000284
 21
-31.499999999999861
 31
0.0
1001
GRPNAME
1000
PASTMD2W
  0
LINE
  5
1883
  8
243
  6
HIDDEN2
 10
4.9999999999999689
 20
-31.5
 30
0.0
 11
4.9999999999999689
 21
-26.5
 31
0.0
1001
GRPNAME
1000
PASTMD2W
  0
LINE
  5
1884
  8
240
  6
CONTINUOUS
 10
-0.0000000000000284
 20
-24.315000000207881
 30
0.0
 11
0.0000000000000284
 21
-31.499999999999861
 31
0.0
1001
GRPNAME
1000
PASTMD2W
  0
LINE
  5
1885
  8
240
  6
CONTINUOUS
 10
19.874999999999972
 20
-27.5
 30
0.0
 11
16.124999999999972
 21
-27.5
 31
0.0
1001
GRPNAME
1000
PASTMD2W
  0
LINE
  5
1886
  8
240
  6
CONTINUOUS
 10
16.124999999999972
 20
-27.5
 30
0.0
 11
16.124999999999972
 21
-28.897595259999999
 31
0.0
1001
GRPNAME
1000
PASTMD2W
  0
LINE
  5
1887
  8
240
  6
CONTINUOUS
 10
16.124999999999972
 20
-28.897595259999999
 30
0.0
 11
14.622500929999971
 21
-31.5
 31
0.0
1001
GRPNAME
1000
PASTMD2W
  0
LINE
  5
1888
  8
240
  6
CONTINUOUS
 10
25.999999999999432
 20
-22.64359354000015
 30
0.0
 11
25.999999999999751
 21
-31.499999999999488
 31
0.0
1001
GRPNAME
1000
PASTMD2W
  0
LINE
  5
1889
  8
240
  6
CONTINUOUS
 10
19.874999999999972
 20
-27.5
 30
0.0
 11
19.874999999999972
 21
-28.897595259999999
 31
0.0
1001
GRPNAME
1000
PASTMD2W
  0
LINE
  5
188A
  8
240
  6
CONTINUOUS
 10
25.999999999999751
 20
-31.499999999999488
 30
0.0
 11
21.377499069999971
 21
-31.5
 31
0.0
1001
GRPNAME
1000
PASTMD2W
  0
LINE
  5
188B
  8
240
  6
CONTINUOUS
 10
19.874999999999972
 20
-28.897595259999999
 30
0.0
 11
21.377499069999971
 21
-31.5
 31
0.0
1001
GRPNAME
1000
PASTMD2W
  0
LINE
  5
188C
  8
243
  6
HIDDEN2
 10
25.999999999999972
 20
26.5
 30
0.0
 11
4.9999999999999689
 21
26.5
 31
0.0
1001
GRPNAME
1000
PASTMD2W
  0
ARC
  5
188D
  8
241
  6
CONTINUOUS
 10
12.11171389999998
 20
16.336187050000031
 30
0.0
 40
8.0
 50
89.999999989999736
 51
152.74338068000031
1001
GRPNAME
1000
PASTMD2W
  0
LINE
  5
188E
  8
241
  6
CONTINUOUS
 10
16.124999999999972
 20
20.0
 30
0.0
 11
4.9999999999999689
 21
20.0
 31
0.0
1001
GRPNAME
1000
PASTMD2W
  0
LINE
  5
188F
  8
240
  6
CONTINUOUS
 10
19.874999999999972
 20
27.5
 30
0.0
 11
16.124999999999972
 21
27.5
 31
0.0
1001
GRPNAME
1000
PASTMD2W
  0
LINE
  5
1890
  8
241
  6
CONTINUOUS
 10
14.622500929999971
 20
24.336187050000039
 30
0.0
 11
16.124999999999972
 21
20.85835593000002
 31
0.0
1001
GRPNAME
1000
PASTMD2W
  0
LINE
  5
1891
  8
241
  6
CONTINUOUS
 10
14.622500929999971
 20
24.336187050000039
 30
0.0
 11
12.11171389999998
 21
24.336187050000039
 31
0.0
1001
GRPNAME
1000
PASTMD2W
  0
LINE
  5
1892
  8
240
  6
CONTINUOUS
 10
16.124999999999972
 20
27.5
 30
0.0
 11
16.124999999999972
 21
28.897595259999999
 31
0.0
1001
GRPNAME
1000
PASTMD2W
  0
LINE
  5
1893
  8
241
  6
CONTINUOUS
 10
21.377499069999971
 20
24.336187050000039
 30
0.0
 11
19.874999999999972
 21
20.85835593000002
 31
0.0
1001
GRPNAME
1000
PASTMD2W
  0
LINE
  5
1894
  8
241
  6
CONTINUOUS
 10
25.999999999999972
 20
20.0
 30
0.0
 11
19.874999999999972
 21
20.0
 31
0.0
1001
GRPNAME
1000
PASTMD2W
  0
LINE
  5
1895
  8
241
  6
CONTINUOUS
 10
25.999999999999972
 20
24.336187050000039
 30
0.0
 11
21.377499069999971
 21
24.336187050000039
 31
0.0
1001
GRPNAME
1000
PASTMD2W
  0
LINE
  5
1896
  8
240
  6
CONTINUOUS
 10
19.874999999999972
 20
27.5
 30
0.0
 11
19.874999999999972
 21
28.897595259999999
 31
0.0
1001
GRPNAME
1000
PASTMD2W
  0
LINE
  5
1897
  8
240
  6
CONTINUOUS
 10
14.622500929999971
 20
31.5
 30
0.0
 11
0.0000000000000284
 21
31.49999999999989
 31
0.0
1001
GRPNAME
1000
PASTMD2W
  0
LINE
  5
1898
  8
240
  6
CONTINUOUS
 10
25.99999999999941
 20
31.499999999999599
 30
0.0
 11
21.377499069999971
 21
31.5
 31
0.0
1001
GRPNAME
1000
PASTMD2W
  0
LINE
  5
1899
  8
243
  6
HIDDEN2
 10
-18.996025403784671
 20
-17.00000000000011
 30
0.0
 11
-32.000000000000092
 21
-17.00000000000011
 31
0.0
1001
GRPNAME
1000
PASTMD2W
  0
LINE
  5
189A
  8
243
  6
HIDDEN2
 10
-22.000000000000139
 20
-23.215000000000249
 30
0.0
 11
-22.000000000000139
 21
-17.00000000000011
 31
0.0
1001
GRPNAME
1000
PASTMD2W
  0
LINE
  5
189B
  8
243
  6
HIDDEN2
 10
-6.244997998398417
 20
-20.00000000000011
 30
0.0
 11
-17.263974596215721
 21
-20.0
 31
0.0
1001
GRPNAME
1000
PASTMD2W
  0
LINE
  5
189C
  8
243
  6
HIDDEN2
 10
-18.996025403784671
 20
-17.00000000000011
 30
0.0
 11
-17.263974596215721
 21
-20.0
 31
0.0
1001
GRPNAME
1000
PASTMD2W
  0
LINE
  5
189D
  8
245
  6
CENTER2
 10
-8.9999999999999112
 20
-18.00000000000011
 30
0.0
 11
-8.9999999999999112
 21
-25.86500000000024
 31
0.0
  0
LINE
  5
189E
  8
243
  6
HIDDEN2
 10
-12.749999999999909
 20
-20.00000000000011
 30
0.0
 11
-12.749999999999909
 21
-23.67750000000024
 31
0.0
  0
ARC
  5
189F
  8
243
  6
HIDDEN2
 10
-6.244997998398417
 20
-12.0
 30
0.0
 40
8.0000000000001101
 50
269.99999996141401
 51
321.31781250792199
1001
GRPNAME
1000
PASTMD2W
  0
LINE
  5
18A0
  8
243
  6
HIDDEN2
 10
-5.2499999999999121
 20
-20.00000000000011
 30
0.0
 11
-5.2499999999999121
 21
-24.05250000000024
 31
0.0
  0
LINE
  5
18A1
  8
243
  6
HIDDEN2
 10
-18.996025403784561
 20
17.0
 30
0.0
 11
-31.99999999999989
 21
17.0
 31
0.0
1001
GRPNAME
1000
PASTMD2W
  0
LINE
  5
18A2
  8
243
  6
HIDDEN2
 10
-25.999999999999918
 20
23.014999999999869
 30
0.0
 11
-25.999999999999918
 21
17.0
 31
0.0
1001
GRPNAME
1000
PASTMD2W
  0
ARC
  5
18A3
  8
243
  6
HIDDEN2
 10
-6.244997998398417
 20
12.0
 30
0.0
 40
7.9999999999998144
 50
38.682187201645299
 51
89.999999748157876
1001
GRPNAME
1000
PASTMD2W
  0
LINE
  5
18A4
  8
243
  6
HIDDEN2
 10
-18.996025403784561
 20
17.0
 30
0.0
 11
-17.26397459621478
 21
20.00000000000006
 31
0.0
1001
GRPNAME
1000
PASTMD2W
  0
LINE
  5
18A5
  8
245
  6
CENTER2
 10
-8.9999999999999112
 20
25.864999999999789
 30
0.0
 11
-8.9999999999999112
 21
18.0
 31
0.0
  0
LINE
  5
18A6
  8
243
  6
HIDDEN2
 10
-6.2449979983983042
 20
20.0
 30
0.0
 11
-17.26397459621478
 21
20.00000000000006
 31
0.0
1001
GRPNAME
1000
PASTMD2W
  0
LINE
  5
18A7
  8
243
  6
HIDDEN2
 10
-12.749999999999909
 20
23.677499999999789
 30
0.0
 11
-12.749999999999909
 21
20.0
 31
0.0
  0
LINE
  5
18A8
  8
243
  6
HIDDEN2
 10
-5.2499999999999121
 20
24.052499999999789
 30
0.0
 11
-5.2499999999999121
 21
20.0
 31
0.0
  0
LINE
  5
18A9
  8
247
  6
CONTINUOUS
 10
6.4999999999999689
 20
-17.250000000070031
 30
0.0
 11
6.4999999999999689
 21
-10.557692308030029
 31
0.0
  0
ARC
  5
18AA
  8
247
  6
CONTINUOUS
 10
4.7500000000699441
 20
-17.250000000070031
 30
0.0
 40
1.7499999999299991
 50
180.0
 51
0.0
  0
ARC
  5
18AB
  8
247
  6
CONTINUOUS
 10
4.7500000000699441
 20
-10.557692308030029
 30
0.0
 40
1.7499999999299991
 50
0.0
 51
180.0
  0
LINE
  5
18AC
  8
247
  6
CONTINUOUS
 10
3.000000000139976
 20
-16.38461538472
 30
0.0
 11
6.0000000000199778
 21
-17.244851541962021
 31
0.0
  0
LINE
  5
18AD
  8
247
  6
CONTINUOUS
 10
4.4230769231599822
 20
-15.48498381833582
 30
0.0
 11
4.4230769231599822
 21
-16.792676125975841
 31
0.0
  0
ARC
  5
18AE
  8
247
  6
CONTINUOUS
 10
3.5495986677029521
 20
-15.14514381608978
 30
0.0
 40
0.5538165441895349
 50
72.997889675291773
 51
172.92416621851359
  0
ARC
  5
18AF
  8
247
  6
CONTINUOUS
 10
3.4360330444657441
 20
-15.56687832302879
 30
0.0
 40
0.9904354236226808
 50
4.7429368522022122
 51
73.849226273266297
1001
GENIUS_GENOBJ-N-FIL_13
1002
{
1000
OWNER
1000
GEN
1002
}
1001
GENIUS_GENODEF_13
1002
{
1000
HIER
1070
     0
1002
}
1002
{
1000
MANEDIT
1070
     0
1002
}
1002
{
1000
NOSEL
1070
     0
1002
}
1002
{
1000
BEHIND
1070
     0
1002
}
1002
{
1000
OTHER
1070
     0
1002
}
1002
{
1000
REACTOR
1002
}
  0
LINE
  5
18B0
  8
247
  6
CONTINUOUS
 10
6.0000000000199778
 20
-15.937159234321991
 30
0.0
 11
6.0000000000199778
 21
-17.244851541962021
 31
0.0
  0
LINE
  5
18B1
  8
247
  6
CONTINUOUS
 10
3.000000000139976
 20
-16.38461538472
 30
0.0
 11
3.000000000139976
 21
-15.07692307707998
 31
0.0
  0
ARC
  5
18B2
  8
247
  6
CONTINUOUS
 10
4.9820242326655091
 20
-15.56091963654694
 30
0.0
 40
0.5640818586791229
 50
65.990941652528889
 51
172.26344345906909
  0
ARC
  5
18B3
  8
247
  6
CONTINUOUS
 10
4.9874290391865372
 20
-16.038262685347028
 30
0.0
 40
1.0176059446230981
 50
5.7019851642564632
 51
77.277338436822376
1001
GENIUS_GENOBJ-N-FIL_13
1002
{
1000
OWNER
1000
GEN
1002
}
1001
GENIUS_GENODEF_13
1002
{
1000
HIER
1070
     0
1002
}
1002
{
1000
MANEDIT
1070
     0
1002
}
1002
{
1000
NOSEL
1070
     0
1002
}
1002
{
1000
BEHIND
1070
     0
1002
}
1002
{
1000
OTHER
1070
     0
1002
}
1002
{
1000
REACTOR
1002
}
  0
LINE
  5
18B4
  8
247
  6
CONTINUOUS
 10
6.0000000000199778
 20
-14.28331308054203
 30
0.0
 11
3.000000000139976
 21
-13.423076923300011
 31
0.0
  0
LINE
  5
18B5
  8
247
  6
CONTINUOUS
 10
3.000000000139976
 20
-11.00000000032003
 30
0.0
 11
3.000000000139976
 21
-11.565736619456629
 31
0.0
  0
LINE
  5
18B6
  8
247
  6
CONTINUOUS
 10
6.0000000000199778
 20
-12.461538461799989
 30
0.0
 11
6.0000000000199778
 21
-11.846153846440011
 31
0.0
  0
ARC
  5
18B7
  8
247
  6
CONTINUOUS
 10
5.0832851359733411
 20
-10.708791209122859
 30
0.0
 40
2.2526500823422122
 50
202.35948814152559
 51
254.99324854284609
  0
ARC
  5
18B8
  8
247
  6
CONTINUOUS
 10
3.8083126551944959
 20
-11.37406947921323
 30
0.0
 40
0.8906723995727782
 50
94.994589319075317
 51
155.1663289573039
1001
GENIUS_GENOBJ-N-FIL_13
1002
{
1000
OWNER
1000
GEN
1002
}
1001
GENIUS_GENODEF_13
1002
{
1000
HIER
1070
     0
1002
}
1002
{
1000
MANEDIT
1070
     0
1002
}
1002
{
1000
NOSEL
1070
     0
1002
}
1002
{
1000
BEHIND
1070
     0
1002
}
1002
{
1000
OTHER
1070
     0
1002
}
1002
{
1000
REACTOR
1002
}
  0
ARC
  5
18B9
  8
247
  6
CONTINUOUS
 10
4.6601458886677563
 20
-12.22645888621258
 30
0.0
 40
1.392781735586712
 50
15.846096555777221
 51
82.325137004169065
  0
ARC
  5
18BA
  8
247
  6
CONTINUOUS
 10
4.9592434315272547
 20
-11.64221272584035
 30
0.0
 40
1.324563662670287
 50
249.7136016704969
 51
321.78874565640689
1001
GENIUS_GENOBJ-N-FIL_13
1002
{
1000
OWNER
1000
GEN
1002
}
1001
GENIUS_GENODEF_13
1002
{
1000
HIER
1070
     0
1002
}
1002
{
1000
MANEDIT
1070
     0
1002
}
1002
{
1000
NOSEL
1070
     0
1002
}
1002
{
1000
BEHIND
1070
     0
1002
}
1002
{
1000
OTHER
1070
     0
1002
}
1002
{
1000
REACTOR
1002
}
  0
LINE
  5
18BB
  8
247
  6
CONTINUOUS
 10
4.8461538462199458
 20
-11.53846153875997
 30
0.0
 11
4.8461538462199458
 21
-10.84615384647998
 31
0.0
  0
LINE
  5
18BC
  8
250
  6
CONTINUOUS
 10
-18.436872775073201
 20
-25.210403317106
 30
0.0
 11
-17.0
 21
-23.465000000000028
 31
0.0
  0
LINE
  5
18BD
  8
250
  6
CONTINUOUS
 10
-17.793127224926788
 20
-25.582069983772669
 30
0.0
 11
-17.0
 21
-23.465000000000028
 31
0.0
  0
LINE
  5
18BE
  8
250
  6
CONTINUOUS
 10
-17.0
 20
-23.465000000000028
 30
0.0
 11
-18.114999999999998
 21
-25.396236650439331
 31
0.0
  0
LINE
  5
18BF
  8
250
  6
CONTINUOUS
 10
-18.114999999999998
 20
-25.396236650439331
 30
0.0
 11
-23.572223203118511
 21
-34.848424506484321
 31
0.0
  0
TEXT
  5
18C0
  8
250
  6
CONTINUOUS
 10
-45.572223203118497
 20
-33.848424506484321
 30
0.0
 40
2.799999999999998
  1
HSK-A63
  7
YOKO
1001
ITEMNAME
1000
LNSP3
  0
LINE
  5
18C1
  8
250
  6
CONTINUOUS
 10
-23.572223203118511
 20
-34.848424506484321
 30
0.0
 11
-47.838889869785127
 21
-34.848424506484321
 31
0.0
1001
ITEMNAME
1000
LNSP2
  0
LINE
  5
18C2
  8
247
  6
CONTINUOUS
 10
3.0000000001399481
 20
-17.250000000070031
 30
0.0
 11
3.0000000001399481
 21
-16.576923077020009
 31
0.0
  0
LINE
  5
18D5
  8
243
  6
HIDDEN2
 10
32.999999999977142
 20
10.00000000000203
 30
0.0
 11
78.500000000003084
 21
10.0000000000003
 31
0.0
  0
LINE
  5
18D6
  8
243
  6
HIDDEN2
 10
85.0
 20
13.5999999999999
 30
0.0
 11
78.499999999999957
 21
13.599999999999911
 31
0.0
  0
LINE
  5
193A
  8
243
  6
HIDDEN2
 10
32.999999999977142
 20
-10.00000000000203
 30
0.0
 11
78.500000000003084
 21
-10.0000000000003
 31
0.0
  0
LINE
  5
193B
  8
243
  6
HIDDEN2
 10
85.0
 20
-13.5999999999999
 30
0.0
 11
78.499999999999957
 21
-13.599999999999911
 31
0.0
  0
LINE
  5
193C
  8
243
  6
HIDDEN2
 10
78.500000000023547
 20
13.599999999999911
 30
0.0
 11
78.499999999999957
 21
-13.599999999999911
 31
0.0
  0
VIEWPORT
  5
22
 67
     1
  8
0
 10
261.51769911999997
 20
148.5
 30
0.0
 40
523.03539823000006
 41
297.0
 68
     1
 69
     1
1001
ACAD
1000
MVIEW
1002
{
1070
    16
1010
0.0
1020
0.0
1030
0.0
1010
0.0
1020
0.0
1030
1.0
1040
0.0
1040
297.0
1040
261.51769911999997
1040
148.5
1040
50.0
1040
0.0
1040
0.0
1070
     0
1070
   100
1070
     1
1070
     1
1070
     0
1070
     0
1070
     0
1070
     0
1040
0.0
1040
0.0
1040
0.0
1040
1.0
1040
1.0
1040
10.0
1040
10.0
1070
     0
1002
{
1002
}
1002
}
1001
GENIUS_GENOBJ-N-SDF_13
1002
{
1000
OWNER
1000
GEN
1002
}
1001
GENIUS_GENODEF_13
1002
{
1000
HIER
1070
     0
1002
}
1002
{
1000
MANEDIT
1070
     0
1002
}
1002
{
1000
NOSEL
1070
     0
1002
}
1002
{
1000
BEHIND
1070
     0
1002
}
1002
{
1000
OTHER
1070
     0
1002
}
1002
{
1000
REACTOR
1002
}
1001
GENIUS_GENSCREG_15
1000
PF
1040
1.0
1000
DF
1040
1.0
1000
MIN
1011
0.0000000049999471
1021
0.0
1031
0.0
1021
0.0
1031
0.0
1000
MAX
1011
523.035398235
1021
0.0
1031
0.0
1021
297.0
1031
0.0
1000
FLAGS
1070
     4
  0
ENDSEC
  0
EOF
