  0
SECTION
  2
HEADER
  9
$ACADVER
  1
AC1009
  9
$INSBASE
 10
0.0
 20
0.0
 30
0.0
  9
$EXTMIN
 10
-47.838889869785127
 20
-34.848424506484321
 30
0.0
  9
$EXTMAX
 10
178.0
 20
68.000000000000014
 30
0.0
  9
$LIMMIN
 10
0.0
 20
0.0
  9
$LIMMAX
 10
297.0
 20
210.0
  9
$ORTHOMODE
 70
     0
  9
$REGENMODE
 70
     1
  9
$FILLMODE
 70
     1
  9
$QTEXTMODE
 70
     0
  9
$MIRRTEXT
 70
     1
  9
$DRAGMODE
 70
     2
  9
$LTSCALE
 40
10.0
  9
$OSMODE
 70
    37
  9
$ATTMODE
 70
     1
  9
$TEXTSIZE
 40
3.0
  9
$TRACEWID
 40
1.0
  9
$TEXTSTYLE
  7
YOKO
  9
$CLAYER
  8
240
  9
$CELTYPE
  6
BYLAYER
  9
$CECOLOR
 62
   256
  9
$DIMSCALE
 40
1.0
  9
$DIMASZ
 40
2.2299999999999991
  9
$DIMEXO
 40
0.5
  9
$DIMDLI
 40
7.0
  9
$DIMRND
 40
0.0
  9
$DIMDLE
 40
0.0
  9
$DIMEXE
 40
1.0
  9
$DIMTP
 40
0.0
  9
$DIMTM
 40
0.01
  9
$DIMTXT
 40
2.799999999999998
  9
$DIMCEN
 40
0.0
  9
$DIMTSZ
 40
0.0
  9
$DIMTOL
 70
     0
  9
$DIMLIM
 70
     0
  9
$DIMTIH
 70
     0
  9
$DIMTOH
 70
     0
  9
$DIMSE1
 70
     0
  9
$DIMSE2
 70
     0
  9
$DIMTAD
 70
     3
  9
$DIMZIN
 70
     9
  9
$DIMBLK
  1
OPEN
  9
$DIMASO
 70
     1
  9
$DIMSHO
 70
     1
  9
$DIMPOST
  1

  9
$DIMAPOST
  1

  9
$DIMALT
 70
     0
  9
$DIMALTD
 70
     2
  9
$DIMALTF
 40
25.399999999999999
  9
$DIMLFAC
 40
1.0
  9
$DIMTOFL
 70
     1
  9
$DIMTVP
 40
0.0
  9
$DIMTIX
 70
     1
  9
$DIMSOXD
 70
     0
  9
$DIMSAH
 70
     0
  9
$DIMBLK1
  1

  9
$DIMBLK2
  1

  9
$DIMSTYLE
  2
BIGT
  9
$DIMCLRD
 70
   256
  9
$DIMCLRE
 70
   256
  9
$DIMCLRT
 70
    40
  9
$DIMTFAC
 40
1.0
  9
$DIMGAP
 40
1.0
  9
$LUNITS
 70
     2
  9
$LUPREC
 70
     6
  9
$SKETCHINC
 40
1.0
  9
$FILLETRAD
 40
0.0
  9
$AUNITS
 70
     0
  9
$AUPREC
 70
     6
  9
$MENU
  1
.
  9
$ELEVATION
 40
0.0
  9
$PELEVATION
 40
0.0
  9
$THICKNESS
 40
0.0
  9
$LIMCHECK
 70
     0
  9
$BLIPMODE
 70
     0
  9
$CHAMFERA
 40
0.2
  9
$CHAMFERB
 40
0.2
  9
$SKPOLY
 70
     0
  9
$TDCREATE
 40
2457557.680667303
  9
$TDUPDATE
 40
2458142.6898612268
  9
$TDINDWG
 40
0.0471087384
  9
$TDUSRTIMER
 40
0.047108669
  9
$USRTIMER
 70
     1
  9
$ANGBASE
 50
0.0
  9
$ANGDIR
 70
     0
  9
$PDMODE
 70
     1
  9
$PDSIZE
 40
0.0
  9
$PLINEWID
 40
0.0
  9
$COORDS
 70
     1
  9
$SPLFRAME
 70
     0
  9
$SPLINETYPE
 70
     6
  9
$SPLINESEGS
 70
     4
  9
$ATTDIA
 70
     1
  9
$ATTREQ
 70
     1
  9
$HANDLING
 70
     1
  9
$HANDSEED
  5
4E29
  9
$SURFTAB1
 70
     6
  9
$SURFTAB2
 70
     6
  9
$SURFTYPE
 70
     6
  9
$SURFU
 70
     6
  9
$SURFV
 70
     6
  9
$UCSNAME
  2

  9
$UCSORG
 10
0.0
 20
0.0
 30
0.0
  9
$UCSXDIR
 10
1.0
 20
0.0
 30
0.0
  9
$UCSYDIR
 10
0.0
 20
1.0
 30
0.0
  9
$PUCSNAME
  2

  9
$PUCSORG
 10
0.0
 20
0.0
 30
0.0
  9
$PUCSXDIR
 10
1.0
 20
0.0
 30
0.0
  9
$PUCSYDIR
 10
0.0
 20
1.0
 30
0.0
  9
$USERI1
 70
     1
  9
$USERI2
 70
     0
  9
$USERI3
 70
     0
  9
$USERI4
 70
     0
  9
$USERI5
 70
     0
  9
$USERR1
 40
0.0
  9
$USERR2
 40
0.0
  9
$USERR3
 40
0.0
  9
$USERR4
 40
0.0
  9
$USERR5
 40
0.0
  9
$WORLDVIEW
 70
     1
  9
$SHADEDGE
 70
     3
  9
$SHADEDIF
 70
    70
  9
$TILEMODE
 70
     1
  9
$MAXACTVP
 70
    16
  9
$PLIMCHECK
 70
     0
  9
$PEXTMIN
 10
1.0000000000000000E+020
 20
1.0000000000000000E+020
 30
1.0000000000000000E+020
  9
$PEXTMAX
 10
-1.0000000000000000E+020
 20
-1.0000000000000000E+020
 30
-1.0000000000000000E+020
  9
$PLIMMIN
 10
0.0
 20
0.0
  9
$PLIMMAX
 10
420.0
 20
297.0
  9
$UNITMODE
 70
     0
  9
$VISRETAIN
 70
     1
  9
$PLINEGEN
 70
     0
  9
$PSLTSCALE
 70
     1
  0
ENDSEC
  0
SECTION
  2
TABLES
  0
TABLE
  2
VPORT
 70
     1
  0
VPORT
  2
*ACTIVE
 70
     0
 10
0.0
 20
0.0
 11
1.0
 21
1.0
 12
79.736781819683486
 22
23.52506099070861
 13
0.0
 23
0.0
 14
7.0
 24
7.0
 15
7.0
 25
7.0
 16
0.0
 26
0.0
 36
1.0
 17
0.0
 27
0.0
 37
0.0
 40
158.8437694598054
 41
1.515499425947187
 42
50.0
 43
0.0
 44
0.0
 50
0.0
 51
0.0
 71
     0
 72
  2000
 73
     1
 74
     0
 75
     0
 76
     1
 77
     0
 78
     0
  0
ENDTAB
  0
TABLE
  2
LTYPE
 70
    22
  0
LTYPE
  2
CONTINUOUS
 70
     0
  3
Solid line
 72
    65
 73
     0
 40
0.0
  0
LTYPE
  2
CENTER2
 70
     0
  3
___ _ ___ _ ___ _ ___ _ ___ _ ___ _ ___ _ ___ _
 72
    65
 73
     4
 40
1.125
 49
0.75
 49
-0.125
 49
0.125
 49
-0.125
  0
LTYPE
  2
HIDDEN2
 70
     0
  3
_ _ _ _ _ _ _ _ _ _ _ _ _ _ _ _ _ _ _ _ _ _ _ _
 72
    65
 73
     2
 40
0.1875
 49
0.125
 49
-0.0625
  0
LTYPE
  2
PHANTOM2
 70
     0
  3
___ _ _ ___ _ _ ___ _ _ ___ _ _ ___ _ _ ___ _ _
 72
    65
 73
     6
 40
1.25
 49
0.625
 49
-0.125
 49
0.125
 49
-0.125
 49
0.125
 49
-0.125
  0
LTYPE
  2
AMCONSTR
 70
     0
  3
_______________________
 72
    65
 73
     2
 40
9999.0
 49
9999.0
 49
0.0
  0
LTYPE
  2
HIDDEN
 70
     0
  3
Hidden __ __ __ __ __ __ __ __ __ __ __ __ __ _
 72
    65
 73
     2
 40
0.375
 49
0.25
 49
-0.125
  0
LTYPE
  2
CENTER
 70
     0
  3
Center ____ _ ____ _ ____ _ ____ _ ____ _ ____
 72
    65
 73
     4
 40
2.0
 49
1.25
 49
-0.25
 49
0.25
 49
-0.25
  0
LTYPE
  2
AMZIGZAG2
 70
     0
  3
/\/-/\/-/\/-/\/-/\/-/\/
 72
    65
 73
     2
 40
0.4401
 49
0.0001
 49
-0.4400000000000001
  0
LTYPE
  2
ACANSTGB
 70
     0
  3
__ . . __ . .
 72
    65
 73
     6
 40
0.35433070866
 49
0.15748031496
 49
-0.03937007874
 49
0.03937007874
 49
-0.03937007874
 49
0.03937007874
 49
-0.03937007874
  0
LTYPE
  2
ACANSTGL
 70
     0
  3
_ _ _ _ _
 72
    65
 73
     2
 40
0.11811023622
 49
0.07874015748
 49
-0.03937007874
  0
ENDTAB
  0
TABLE
  2
LAYER
 70
    10
  0
LAYER
  2
0
 70
     0
 62
     7
  6
CONTINUOUS
  0
LAYER
  2
240
 70
     0
 62
     4
  6
CONTINUOUS
  0
LAYER
  2
DEFPOINTS
 70
     0
 62
     7
  6
CONTINUOUS
  0
LAYER
  2
245
 70
     0
 62
     2
  6
CENTER2
  0
LAYER
  2
241
 70
     0
 62
   211
  6
CONTINUOUS
  0
LAYER
  2
242
 70
     0
 62
     3
  6
CONTINUOUS
  0
LAYER
  2
243
 70
     0
 62
   211
  6
HIDDEN2
  0
LAYER
  2
246
 70
     0
 62
     3
  6
PHANTOM2
  0
LAYER
  2
247
 70
     0
 62
    60
  6
CONTINUOUS
  0
LAYER
  2
250
 70
     0
 62
     3
  6
CONTINUOUS
  0
ENDTAB
  0
TABLE
  2
STYLE
 70
    10
  0
STYLE
  2
STANDARD
 70
     0
 40
0.0
 41
1.0
 50
0.0
 71
     0
 42
3.0
  3
romans.shx
  4
extfont.shx
  0
STYLE
  2
YOKO
 70
     0
 40
0.0
 41
1.0
 50
0.0
 71
     0
 42
3.0
  3
romans.shx
  4
extfont.shx
  0
STYLE
  2

 70
     1
 40
0.0
 41
1.0
 50
0.0
 71
     0
 42
3.0
  3
genltshp.shx
  4

  0
STYLE
  2
ACANSGDT
 70
     0
 40
0.0
 41
1.0
 50
0.0
 71
     0
 42
3.0
  3
amgdt.shx
  4

  0
ENDTAB
  0
TABLE
  2
VIEW
 70
     0
  0
ENDTAB
  0
TABLE
  2
UCS
 70
     0
  0
ENDTAB
  0
TABLE
  2
APPID
 70
    40
  0
APPID
  2
ACAD
 70
     0
  0
APPID
  2
ACADANNOTATIVE
 70
     0
  0
APPID
  2
GLOBAL
 70
     0
  0
APPID
  2
DETAIL
 70
     0
  0
APPID
  2
GRPNAME
 70
     0
  0
APPID
  2
GPARA
 70
     0
  0
APPID
  2
MCAD_NO_VIS
 70
     0
  0
APPID
  2
ACAD_TEMP_GRAPHIC
 70
     0
  0
APPID
  2
ACATTRIBSERVICES
 70
     0
  0
APPID
  2
GENIUS_GENSCREG_15
 70
     0
  0
APPID
  2
GENIUS_GENODEF_13
 70
     0
  0
APPID
  2
GENIUS_GENOBJ-N-SDF_13
 70
     0
  0
APPID
  2
GENIUS_GENREC_14
 70
     0
  0
APPID
  2
GENIUS_GENOBJ-N-REC_13
 70
     0
  0
APPID
  2
GENIUS_GENDIMSH_14
 70
     0
  0
APPID
  2
GENIUS_GENOBJ-N-DIM_13
 70
     0
  0
APPID
  2
GENIUS_GENDIM_13
 70
     0
  0
APPID
  2
GENIUS_GENDTOL_13
 70
     0
  0
APPID
  2
GENIUS_GENOLIS_13
 70
     0
  0
APPID
  2
GENIUS_GENOENT_13
 70
     0
  0
APPID
  2
GENIUS_GENOBJ-F-FEM_13
 70
     0
  0
APPID
  2
GENIUS_GENOREF_13
 70
     0
  0
APPID
  2
GENIUS_GEFFEM_13
 70
     0
  0
APPID
  2
GENIUS_GEFFEMP_13
 70
     0
  0
APPID
  2
AD_DRAW
 70
     0
  0
APPID
  2
DESIGNERASSEMBLIES
 70
     0
  0
APPID
  2
ACADM_DIM_EDIT
 70
     0
  0
APPID
  2
AMDT_DM_ADJ
 70
     0
  0
APPID
  2
ITEMNAME
 70
     0
  0
APPID
  2
GENIUS_GENOBJ-N-FIL_13
 70
     0
  0
APPID
  2
GENIUS_GENFIL_13
 70
     0
  0
APPID
  2
GENIUS_GENOBJ-N-CHA_13
 70
     0
  0
APPID
  2
ACAD_NAV_VCDISPLAY
 70
     0
  0
APPID
  2
ACAD_DSTYLE_DIMJAG
 70
     0
  0
APPID
  2
ACAD_DSTYLE_DIMTALN
 70
     0
  0
APPID
  2
ACAD_DSTYLE_DIMBREAK
 70
     0
  0
APPID
  2
ACAD_PSEXT
 70
     0
  0
APPID
  2
ACAD_EXEMPT_FROM_CAD_STANDARDS
 70
     0
  0
APPID
  2
ACAD_MLEADERVER
 70
     0
  0
APPID
  2
ACAECLAYERSTANDARD
 70
     0
  0
ENDTAB
  0
TABLE
  2
DIMSTYLE
 70
    31
  0
DIMSTYLE
  2
STANDARD
 70
     0
  3

  4

  5

  6

  7

 40
1.0
 41
0.18
 42
0.0625
 43
0.38
 44
0.18
 45
0.0
 46
0.0
 47
0.0
 48
0.0
140
0.18
141
0.09
142
0.0
143
25.399999999999999
144
1.0
145
0.0
146
1.0
147
0.09
 71
     0
 72
     0
 73
     1
 74
     1
 75
     0
 76
     0
 77
     0
 78
     0
170
     0
171
     2
172
     0
173
     0
174
     0
175
     0
176
     0
177
     0
178
     0
  0
DIMSTYLE
  2
BIGT
 70
     0
  3

  4

  5

  6

  7

 40
1.0
 41
2.2299999999999991
 42
0.5
 43
7.0
 44
1.0
 45
0.0
 46
0.0
 47
0.0
 48
0.01
140
2.799999999999998
141
0.0
142
0.0
143
25.399999999999999
144
1.0
145
0.0
146
1.0
147
1.0
 71
     0
 72
     0
 73
     0
 74
     0
 75
     0
 76
     0
 77
     3
 78
     9
170
     0
171
     2
172
     1
173
     0
174
     1
175
     0
176
   256
177
   256
178
    40
  0
DIMSTYLE
  2
AM_ANSI
 70
     0
  3

  4
mm
  5

  6

  7

 40
1.0
 41
0.12
 42
0.05
 43
0.5
 44
0.1
 45
0.0
 46
0.0
 47
0.1
 48
0.1
140
0.12
141
0.0
142
0.0
143
25.399999999999999
144
1.0
145
0.0
146
0.71
147
0.06
 71
     0
 72
     0
 73
     1
 74
     1
 75
     0
 76
     0
 77
     0
 78
     7
170
     0
171
     2
172
     0
173
     0
174
     0
175
     0
176
   256
177
   256
178
     2
  0
DIMSTYLE
  2
AM_ANSI$3
 70
     0
  3

  4
mm
  5

  6

  7

 40
1.0
 41
0.12
 42
0.05
 43
0.5
 44
0.1
 45
0.0
 46
0.0
 47
0.1
 48
0.1
140
0.12
141
0.0
142
0.0
143
25.399999999999999
144
1.0
145
0.0
146
0.71
147
0.06
 71
     0
 72
     0
 73
     1
 74
     1
 75
     0
 76
     0
 77
     0
 78
     7
170
     0
171
     2
172
     0
173
     0
174
     0
175
     0
176
   256
177
   256
178
     2
  0
DIMSTYLE
  2
AM_ANSI$4
 70
     0
  3

  4
mm
  5

  6

  7

 40
1.0
 41
0.12
 42
0.05
 43
0.5
 44
0.1
 45
0.0
 46
0.0
 47
0.1
 48
0.1
140
0.12
141
0.0
142
0.0
143
25.399999999999999
144
1.0
145
0.0
146
0.71
147
0.06
 71
     0
 72
     0
 73
     1
 74
     1
 75
     0
 76
     0
 77
     0
 78
     7
170
     0
171
     2
172
     0
173
     0
174
     0
175
     0
176
   256
177
   256
178
     2
  0
DIMSTYLE
  2
AM_ANSI$7
 70
     0
  3

  4
mm
  5

  6

  7

 40
1.0
 41
0.12
 42
0.05
 43
0.5
 44
0.1
 45
0.0
 46
0.0
 47
0.1
 48
0.1
140
0.12
141
0.0
142
0.0
143
25.399999999999999
144
1.0
145
0.0
146
0.71
147
0.06
 71
     0
 72
     0
 73
     1
 74
     1
 75
     0
 76
     0
 77
     0
 78
     7
170
     0
171
     2
172
     0
173
     0
174
     0
175
     0
176
   256
177
   256
178
     2
  0
DIMSTYLE
  2
AM_ANSI$SF
 70
     0
  3

  4
mm
  5

  6

  7

 40
1.0
 41
0.12
 42
0.05
 43
0.5
 44
0.1
 45
0.0
 46
0.0
 47
0.1
 48
0.1
140
0.12
141
0.0
142
0.0
143
25.399999999999999
144
1.0
145
0.0
146
0.71
147
0.06
 71
     0
 72
     0
 73
     1
 74
     1
 75
     1
 76
     1
 77
     0
 78
     7
170
     0
171
     2
172
     0
173
     0
174
     0
175
     0
176
   256
177
   256
178
     2
  0
DIMSTYLE
  2
AM_ANSI$SH
 70
     0
  3

  4
mm
  5

  6
GENAXEH
  7

 40
1.0
 41
0.12
 42
0.05
 43
0.5
 44
0.1
 45
0.0
 46
0.0
 47
0.1
 48
0.1
140
0.12
141
0.0
142
0.0
143
25.399999999999999
144
1.0
145
0.0
146
0.71
147
0.06
 71
     0
 72
     0
 73
     1
 74
     1
 75
     1
 76
     1
 77
     0
 78
     7
170
     0
171
     2
172
     0
173
     1
174
     0
175
     0
176
   256
177
   256
178
     2
  0
ENDTAB
  0
ENDSEC
  0
SECTION
  2
BLOCKS
  0
BLOCK
  8
0
  2
$MODEL_SPACE
 70
     0
 10
0.0
 20
0.0
 30
0.0
  3
$MODEL_SPACE
  1

  0
ENDBLK
  5
4CD9
  8
0
  0
BLOCK
 67
     1
  8
0
  2
$PAPER_SPACE
 70
     0
 10
0.0
 20
0.0
 30
0.0
  3
$PAPER_SPACE
  1

  0
ENDBLK
  5
4CD5
 67
     1
  8
0
  0
BLOCK
  8
0
  2
_OPEN
 70
     0
 10
0.0
 20
0.0
 30
0.0
  3
_OPEN
  1

  0
LINE
  5
441A
  8
0
  6
BYBLOCK
 62
     0
 10
-1.0
 20
0.1666666666666666
 30
0.0
 11
0.0
 21
0.0
 31
0.0
  0
LINE
  5
441B
  8
0
  6
BYBLOCK
 62
     0
 10
-1.0
 20
-0.1666666666666666
 30
0.0
 11
0.0
 21
0.0
 31
0.0
  0
LINE
  5
441C
  8
0
  6
BYBLOCK
 62
     0
 10
0.0
 20
0.0
 30
0.0
 11
-1.0
 21
0.0
 31
0.0
  0
ENDBLK
  5
441D
  8
0
  0
BLOCK
  8
0
  2
GENAXEH
 70
     0
 10
0.0
 20
0.0
 30
0.0
  3
GENAXEH
  1

  0
LINE
  5
4455
  8
0
 10
-1.0
 20
0.0
 30
0.0
 11
1.0
 21
0.0
 31
0.0
  0
ENDBLK
  5
4456
  8
0
  0
BLOCK
  8
0
  2
_ACMFILLEDHALF
 70
     0
 10
0.0
 20
0.0
 30
0.0
  3
_ACMFILLEDHALF
  1

  0
TRACE
  5
4DA5
  8
240
 62
     0
 10
-0.8
 20
0.0
 30
0.0
 11
-1.0
 21
0.166666666
 31
0.0
 12
0.0
 22
0.0
 32
0.0
 13
0.0
 23
0.0
 33
0.0
  0
LINE
  5
4DA6
  8
240
 62
     0
 10
-1.0
 20
0.0
 30
0.0
 11
-0.8
 21
0.0
 31
0.0
  0
ENDBLK
  5
4DA4
  8
0
  0
ENDSEC
  0
SECTION
  2
ENTITIES
  0
LINE
  5
4249
  8
240
  6
CONTINUOUS
 10
0.0
 20
-24.315000000000001
 30
0.0
 11
-31.999999999999972
 21
-22.714999999999971
 31
0.0
  0
CIRCLE
  5
424A
  8
241
  6
CONTINUOUS
 10
-9.0000000000000284
 20
0.0
 30
0.0
 40
3.75
  0
LINE
  5
424B
  8
245
  6
CENTER2
 10
170.05761904980369
 20
0.0
 30
0.0
 11
-32.000000000000071
 21
0.0
 31
0.0
  0
LINE
  5
424C
  8
240
  6
CONTINUOUS
 10
-31.999999999999972
 20
-22.714999999999971
 30
0.0
 11
-31.999999999999989
 21
-6.2699999999998113
 31
0.0
  0
ARC
  5
424D
  8
240
  6
CONTINUOUS
 10
-27.500000000000028
 20
-4.76999999999998
 30
0.0
 40
1.499999999999984
 50
270.0
 51
0.0
  0
LINE
  5
424E
  8
243
  6
HIDDEN2
 10
-27.500000000000028
 20
-6.26999999999998
 30
0.0
 11
-23.500000000000028
 21
-6.26999999999998
 31
0.0
  0
LINE
  5
424F
  8
240
  6
CONTINUOUS
 10
-31.999999999999989
 20
-6.2699999999998113
 30
0.0
 11
-27.500000000000028
 21
-6.26999999999998
 31
0.0
  0
LINE
  5
4250
  8
240
  6
CONTINUOUS
 10
-26.000000000000028
 20
-4.76999999999998
 30
0.0
 11
-26.000000000000028
 21
4.76999999999998
 31
0.0
  0
LINE
  5
4251
  8
243
  6
HIDDEN2
 10
-22.000000000000028
 20
-4.76999999999998
 30
0.0
 11
-22.000000000000028
 21
4.76999999999998
 31
0.0
  0
ARC
  5
4252
  8
243
  6
HIDDEN2
 10
-23.500000000000028
 20
-4.76999999999998
 30
0.0
 40
1.499999999999984
 50
270.0
 51
0.0
  0
LINE
  5
4253
  8
240
  6
CONTINUOUS
 10
19.874999999999972
 20
-28.897595264191828
 30
0.0
 11
21.377499074759239
 21
-31.5
 31
0.0
  0
LINE
  5
4254
  8
240
  6
CONTINUOUS
 10
16.124999999999972
 20
-28.897595264191828
 30
0.0
 11
14.622500925240701
 21
-31.5
 31
0.0
  0
LINE
  5
4255
  8
241
  6
CONTINUOUS
 10
21.377499074759239
 20
-24.336187047275931
 30
0.0
 11
21.377499074759239
 21
-31.5
 31
0.0
  0
LINE
  5
4256
  8
241
  6
CONTINUOUS
 10
14.622500925240701
 20
-24.336187047275931
 30
0.0
 11
14.622500925240701
 21
-31.5
 31
0.0
  0
LINE
  5
4257
  8
240
  6
CONTINUOUS
 10
21.377499074759239
 20
-31.5
 30
0.0
 11
25.99999999999989
 21
-31.499999999999829
 31
0.0
  0
LINE
  5
4258
  8
240
  6
CONTINUOUS
 10
0.0
 20
-31.50000000000006
 30
0.0
 11
14.622500925240701
 21
-31.5
 31
0.0
  0
LINE
  5
4259
  8
241
  6
CONTINUOUS
 10
12.99999999999997
 20
-8.0
 30
0.0
 11
26.00000000000006
 21
-8.0
 31
0.0
  0
LINE
  5
425A
  8
241
  6
CONTINUOUS
 10
21.377499074759239
 20
-24.336187047275931
 30
0.0
 11
25.999999999999972
 21
-24.336187047275931
 31
0.0
  0
LINE
  5
425B
  8
241
  6
CONTINUOUS
 10
19.874999999999972
 20
-20.0
 30
0.0
 11
25.999999999999972
 21
-20.0
 31
0.0
  0
LINE
  5
425C
  8
240
  6
CONTINUOUS
 10
0.0
 20
-31.50000000000006
 30
0.0
 11
0.0
 21
-24.315000000000001
 31
0.0
  0
LINE
  5
425D
  8
241
  6
CONTINUOUS
 10
4.999999999999714
 20
-24.336187047275931
 30
0.0
 11
14.622500925240701
 21
-24.336187047275931
 31
0.0
  0
ARC
  5
425E
  8
241
  6
CONTINUOUS
 10
12.111713903655611
 20
-28.0
 30
0.0
 40
8.0
 50
90.0
 51
152.74338069083771
  0
LINE
  5
425F
  8
241
  6
CONTINUOUS
 10
14.622500925240701
 20
-8.0
 30
0.0
 11
14.622500925240701
 21
-20.0
 31
0.0
  0
LINE
  5
4260
  8
241
  6
CONTINUOUS
 10
16.124999999999972
 20
-8.0
 30
0.0
 11
16.124999999999972
 21
-27.5
 31
0.0
  0
LINE
  5
4261
  8
241
  6
CONTINUOUS
 10
19.874999999999972
 20
-8.0
 30
0.0
 11
19.874999999999972
 21
-27.499999999999559
 31
0.0
  0
LINE
  5
4262
  8
241
  6
CONTINUOUS
 10
21.377499074759239
 20
-8.0
 30
0.0
 11
21.377499074759239
 21
-20.0
 31
0.0
  0
LINE
  5
4263
  8
241
  6
CONTINUOUS
 10
14.622500925240701
 20
-24.336187047275931
 30
0.0
 11
16.124999999999972
 21
-20.858355928812841
 31
0.0
  0
LINE
  5
4264
  8
241
  6
CONTINUOUS
 10
12.111713903655611
 20
-20.0
 30
0.0
 11
16.124999999999972
 21
-20.0
 31
0.0
  0
LINE
  5
4265
  8
240
  6
CONTINUOUS
 10
16.124999999999741
 20
-27.5
 30
0.0
 11
19.875000000001311
 21
-27.499999999998892
 31
0.0
  0
LINE
  5
4266
  8
240
  6
CONTINUOUS
 10
16.124999999999741
 20
-27.5
 30
0.0
 11
16.124999999999972
 21
-28.897595264191828
 31
0.0
  0
LINE
  5
4267
  8
240
  6
CONTINUOUS
 10
19.875000000001311
 20
-27.499999999998892
 30
0.0
 11
19.874999999999972
 21
-28.897595264191828
 31
0.0
  0
LINE
  5
4268
  8
241
  6
CONTINUOUS
 10
21.377499074759239
 20
-24.336187047275931
 30
0.0
 11
19.874999999999972
 21
-20.858355928812841
 31
0.0
  0
LINE
  5
426A
  8
241
  6
CONTINUOUS
 10
0.0
 20
-24.315000000000001
 30
0.0
 11
0.0
 21
24.31500000000003
 31
0.0
  0
LINE
  5
426B
  8
240
  6
CONTINUOUS
 10
25.99999999999989
 20
-31.499999999999829
 30
0.0
 11
25.99999999999968
 21
-26.300000000000001
 31
0.0
  0
LINE
  5
426C
  8
241
  6
CONTINUOUS
 10
25.99999999999968
 20
-26.300000000000001
 30
0.0
 11
26.0
 21
26.300000000000001
 31
0.0
  0
LINE
  5
426D
  8
240
  6
CONTINUOUS
 10
0.0
 20
24.31500000000003
 30
0.0
 11
-31.999999999999972
 21
22.714999999999971
 31
0.0
  0
ARC
  5
426E
  8
240
  6
CONTINUOUS
 10
-27.500000000000028
 20
4.76999999999998
 30
0.0
 40
1.499999999999984
 50
0.0
 51
90.0
  0
LINE
  5
426F
  8
243
  6
HIDDEN2
 10
-27.500000000000028
 20
6.26999999999998
 30
0.0
 11
-23.500000000000028
 21
6.26999999999998
 31
0.0
  0
LINE
  5
4270
  8
240
  6
CONTINUOUS
 10
-31.999999999999989
 20
6.2699999999998113
 30
0.0
 11
-27.500000000000028
 21
6.26999999999998
 31
0.0
  0
ARC
  5
4271
  8
243
  6
HIDDEN2
 10
-23.500000000000028
 20
4.76999999999998
 30
0.0
 40
1.499999999999984
 50
0.0
 51
90.0
  0
LINE
  5
4272
  8
240
  6
CONTINUOUS
 10
19.874999999999972
 20
28.897595264191871
 30
0.0
 11
21.377499074759239
 21
31.5
 31
0.0
  0
LINE
  5
4273
  8
240
  6
CONTINUOUS
 10
16.124999999999972
 20
28.897595264191871
 30
0.0
 11
14.622500925240701
 21
31.5
 31
0.0
  0
LINE
  5
4274
  8
240
  6
CONTINUOUS
 10
21.377499074759239
 20
31.5
 30
0.0
 11
25.99999999999989
 21
31.499999999999829
 31
0.0
  0
LINE
  5
4275
  8
240
  6
CONTINUOUS
 10
0.0
 20
31.50000000000006
 30
0.0
 11
14.622500925240701
 21
31.5
 31
0.0
  0
LINE
  5
4276
  8
241
  6
CONTINUOUS
 10
12.99999999999997
 20
8.0
 30
0.0
 11
26.00000000000006
 21
8.0
 31
0.0
  0
LINE
  5
4277
  8
240
  6
CONTINUOUS
 10
0.0
 20
31.50000000000006
 30
0.0
 11
0.0
 21
24.31500000000003
 31
0.0
  0
LINE
  5
4278
  8
241
  6
CONTINUOUS
 10
14.622500925240701
 20
8.0
 30
0.0
 11
14.622500925240841
 21
31.49999999999995
 31
0.0
  0
LINE
  5
4279
  8
241
  6
CONTINUOUS
 10
16.124999999999972
 20
8.0
 30
0.0
 11
16.124999999999972
 21
27.5
 31
0.0
  0
LINE
  5
427A
  8
241
  6
CONTINUOUS
 10
19.874999999999972
 20
8.0
 30
0.0
 11
19.874999999999972
 21
27.499999999999559
 31
0.0
  0
LINE
  5
427B
  8
241
  6
CONTINUOUS
 10
21.377499074759239
 20
8.0
 30
0.0
 11
21.377499074759388
 21
31.49999999999989
 31
0.0
  0
LINE
  5
427C
  8
240
  6
CONTINUOUS
 10
16.124999999999741
 20
27.5
 30
0.0
 11
19.875000000001311
 21
27.49999999999886
 31
0.0
  0
LINE
  5
427D
  8
240
  6
CONTINUOUS
 10
16.124999999999741
 20
27.5
 30
0.0
 11
16.124999999999972
 21
28.897595264191871
 31
0.0
  0
LINE
  5
427E
  8
240
  6
CONTINUOUS
 10
19.875000000001311
 20
27.49999999999886
 30
0.0
 11
19.874999999999972
 21
28.897595264191871
 31
0.0
  0
LINE
  5
427F
  8
240
  6
CONTINUOUS
 10
25.99999999999989
 20
31.499999999999829
 30
0.0
 11
25.99999999999968
 21
26.300000000000001
 31
0.0
  0
LINE
  5
4281
  8
250
  6
CONTINUOUS
 10
-18.436872775073201
 20
-25.210403317106
 30
0.0
 11
-17.0
 21
-23.465000000000028
 31
0.0
  0
LINE
  5
4282
  8
250
  6
CONTINUOUS
 10
-17.793127224926788
 20
-25.582069983772669
 30
0.0
 11
-17.0
 21
-23.465000000000028
 31
0.0
  0
LINE
  5
4283
  8
250
  6
CONTINUOUS
 10
-17.0
 20
-23.465000000000028
 30
0.0
 11
-18.114999999999998
 21
-25.396236650439331
 31
0.0
  0
LINE
  5
4284
  8
250
  6
CONTINUOUS
 10
-18.114999999999998
 20
-25.396236650439331
 30
0.0
 11
-23.572223203118501
 21
-34.848424506484321
 31
0.0
  0
TEXT
  5
4285
  8
250
  6
CONTINUOUS
 10
-45.572223203118497
 20
-33.848424506484321
 30
0.0
 40
2.799999999999998
  1
HSK-A63
  7
YOKO
1001
ITEMNAME
1000
LNSP3
  0
LINE
  5
4286
  8
250
  6
CONTINUOUS
 10
-23.572223203118501
 20
-34.848424506484321
 30
0.0
 11
-47.838889869785127
 21
-34.848424506484321
 31
0.0
1001
ITEMNAME
1000
LNSP2
  0
LINE
  5
4287
  8
240
  6
CONTINUOUS
 10
-31.999999999999972
 20
22.714999999999971
 30
0.0
 11
-31.999999999999989
 21
6.2699999999998113
 31
0.0
  0
LINE
  5
4288
  8
247
  6
CONTINUOUS
 10
6.5
 20
-17.250000000070031
 30
0.0
 11
6.5
 21
-10.557692308030029
 31
0.0
  0
ARC
  5
4289
  8
247
  6
CONTINUOUS
 10
4.7500000000699742
 20
-17.250000000070031
 30
0.0
 40
1.7499999999299991
 50
180.0
 51
0.0
  0
ARC
  5
428A
  8
247
  6
CONTINUOUS
 10
4.7500000000699742
 20
-10.557692308030029
 30
0.0
 40
1.7499999999299991
 50
0.0
 51
180.0
  0
LINE
  5
428B
  8
247
  6
CONTINUOUS
 10
3.000000000140004
 20
-16.38461538472
 30
0.0
 11
6.0000000000200071
 21
-17.244851541962021
 31
0.0
  0
LINE
  5
428C
  8
247
  6
CONTINUOUS
 10
4.423076923160008
 20
-15.48498381833582
 30
0.0
 11
4.423076923160008
 21
-16.792676125975841
 31
0.0
  0
ARC
  5
428D
  8
247
  6
CONTINUOUS
 10
3.54959866770298
 20
-15.14514381608978
 30
0.0
 40
0.5538165441895349
 50
72.997889675291773
 51
172.92416621851359
  0
ARC
  5
428E
  8
247
  6
CONTINUOUS
 10
3.4360330444657721
 20
-15.56687832302879
 30
0.0
 40
0.9904354236226808
 50
4.7429368522022122
 51
73.849226273266297
1001
GENIUS_GENOBJ-N-FIL_13
1002
{
1000
OWNER
1000
GEN
1002
}
1001
GENIUS_GENODEF_13
1002
{
1000
HIER
1070
     0
1002
}
1002
{
1000
MANEDIT
1070
     0
1002
}
1002
{
1000
NOSEL
1070
     0
1002
}
1002
{
1000
BEHIND
1070
     0
1002
}
1002
{
1000
OTHER
1070
     0
1002
}
1002
{
1000
REACTOR
1002
}
  0
LINE
  5
428F
  8
247
  6
CONTINUOUS
 10
6.0000000000200071
 20
-15.937159234321991
 30
0.0
 11
6.0000000000200071
 21
-17.244851541962021
 31
0.0
  0
LINE
  5
4290
  8
247
  6
CONTINUOUS
 10
3.000000000140004
 20
-16.38461538472
 30
0.0
 11
3.000000000140004
 21
-15.07692307707998
 31
0.0
  0
ARC
  5
4291
  8
247
  6
CONTINUOUS
 10
4.982024232665534
 20
-15.56091963654694
 30
0.0
 40
0.5640818586791229
 50
65.990941652528889
 51
172.26344345906909
  0
ARC
  5
4292
  8
247
  6
CONTINUOUS
 10
4.987429039186563
 20
-16.038262685347028
 30
0.0
 40
1.0176059446230981
 50
5.7019851642564632
 51
77.277338436822376
1001
GENIUS_GENOBJ-N-FIL_13
1002
{
1000
OWNER
1000
GEN
1002
}
1001
GENIUS_GENODEF_13
1002
{
1000
HIER
1070
     0
1002
}
1002
{
1000
MANEDIT
1070
     0
1002
}
1002
{
1000
NOSEL
1070
     0
1002
}
1002
{
1000
BEHIND
1070
     0
1002
}
1002
{
1000
OTHER
1070
     0
1002
}
1002
{
1000
REACTOR
1002
}
  0
LINE
  5
4293
  8
247
  6
CONTINUOUS
 10
6.0000000000200071
 20
-14.28331308054203
 30
0.0
 11
3.000000000140004
 21
-13.423076923300011
 31
0.0
  0
LINE
  5
4294
  8
247
  6
CONTINUOUS
 10
3.000000000140004
 20
-11.00000000032003
 30
0.0
 11
3.000000000140004
 21
-11.565736619456629
 31
0.0
  0
LINE
  5
4295
  8
247
  6
CONTINUOUS
 10
6.0000000000200071
 20
-12.461538461799989
 30
0.0
 11
6.0000000000200071
 21
-11.846153846440011
 31
0.0
  0
ARC
  5
4296
  8
247
  6
CONTINUOUS
 10
5.083285135973366
 20
-10.708791209122859
 30
0.0
 40
2.2526500823422122
 50
202.35948814152559
 51
254.99324854284609
  0
ARC
  5
4297
  8
247
  6
CONTINUOUS
 10
3.8083126551945261
 20
-11.37406947921323
 30
0.0
 40
0.8906723995727782
 50
94.994589319075317
 51
155.1663289573039
1001
GENIUS_GENOBJ-N-FIL_13
1002
{
1000
OWNER
1000
GEN
1002
}
1001
GENIUS_GENODEF_13
1002
{
1000
HIER
1070
     0
1002
}
1002
{
1000
MANEDIT
1070
     0
1002
}
1002
{
1000
NOSEL
1070
     0
1002
}
1002
{
1000
BEHIND
1070
     0
1002
}
1002
{
1000
OTHER
1070
     0
1002
}
1002
{
1000
REACTOR
1002
}
  0
ARC
  5
4298
  8
247
  6
CONTINUOUS
 10
4.660145888667782
 20
-12.22645888621258
 30
0.0
 40
1.392781735586712
 50
15.8460965557808
 51
82.325137004169065
  0
ARC
  5
4299
  8
247
  6
CONTINUOUS
 10
4.9592434315272831
 20
-11.64221272584035
 30
0.0
 40
1.324563662670287
 50
249.7136016704969
 51
321.78874565641053
1001
GENIUS_GENOBJ-N-FIL_13
1002
{
1000
OWNER
1000
GEN
1002
}
1001
GENIUS_GENODEF_13
1002
{
1000
HIER
1070
     0
1002
}
1002
{
1000
MANEDIT
1070
     0
1002
}
1002
{
1000
NOSEL
1070
     0
1002
}
1002
{
1000
BEHIND
1070
     0
1002
}
1002
{
1000
OTHER
1070
     0
1002
}
1002
{
1000
REACTOR
1002
}
  0
LINE
  5
429A
  8
247
  6
CONTINUOUS
 10
4.846153846219976
 20
-11.53846153875997
 30
0.0
 11
4.846153846219976
 21
-10.84615384647998
 31
0.0
  0
ARC
  5
429B
  8
241
  6
CONTINUOUS
 10
12.99999999999997
 20
0.0
 30
0.0
 40
8.0
 50
90.0
 51
270.0
  0
LINE
  5
429C
  8
247
  6
CONTINUOUS
 10
3.000000000139976
 20
-17.250000000070031
 30
0.0
 11
3.000000000139976
 21
-16.576923077020009
 31
0.0
  0
LINE
  5
42C7
  8
250
  6
CONTINUOUS
 10
55.0
 20
9.1500000000000004
 30
0.0
 11
55.0
 21
43.0
 31
0.0
  0
LINE
  5
42C8
  8
250
  6
CONTINUOUS
 10
165.0
 20
21.5
 30
0.0
 11
165.0
 21
43.0
 31
0.0
  0
LINE
  5
42C9
  8
250
  6
CONTINUOUS
 10
57.229999999999983
 20
42.0
 30
0.0
 11
162.77000000000001
 21
42.0
 31
0.0
  0
LINE
  5
42CA
  8
250
  6
CONTINUOUS
 10
57.229999999999983
 20
41.62833333333333
 30
0.0
 11
55.0
 21
42.0
 31
0.0
  0
LINE
  5
42CB
  8
250
  6
CONTINUOUS
 10
57.229999999999983
 20
42.371666666666663
 30
0.0
 11
55.0
 21
42.0
 31
0.0
  0
LINE
  5
42CC
  8
250
  6
CONTINUOUS
 10
55.0
 20
42.0
 30
0.0
 11
57.229999999999983
 21
42.0
 31
0.0
  0
LINE
  5
42CD
  8
250
  6
CONTINUOUS
 10
162.77000000000001
 20
42.371666666666663
 30
0.0
 11
165.0
 21
42.0
 31
0.0
  0
LINE
  5
42CE
  8
250
  6
CONTINUOUS
 10
162.77000000000001
 20
41.62833333333333
 30
0.0
 11
165.0
 21
42.0
 31
0.0
  0
LINE
  5
42CF
  8
250
  6
CONTINUOUS
 10
165.0
 20
42.0
 30
0.0
 11
162.77000000000001
 21
42.0
 31
0.0
  0
TEXT
  5
42D0
  8
250
  6
CONTINUOUS
 10
98.04000000000002
 20
43.0
 30
0.0
 40
2.799999999999998
  1
(max.4.33)
1001
ACAD
1000
MTEXTBEGIN
1070
    73
1070
     1
1070
    44
1040
1.0
1070
    74
1070
     0
1000
MTEXTEND
  0
TEXT
  5
42D1
  8
241
  6
CONTINUOUS
 10
-32.0
 20
63.0
 30
0.0
 40
5.0
  1
HSK-A63-MEGAER25-165NL
  7
YOKO
 11
-32.0
 21
63.0
 31
0.0
 73
     1
  0
LINE
  5
42D2
  8
250
  6
CONTINUOUS
 10
0.0
 20
32.00000000000005
 30
0.0
 11
0.0
 21
50.0
 31
0.0
  0
LINE
  5
42D3
  8
250
  6
CONTINUOUS
 10
165.0
 20
21.5
 30
0.0
 11
165.0
 21
50.0
 31
0.0
  0
LINE
  5
42D4
  8
250
  6
CONTINUOUS
 10
2.0
 20
49.0
 30
0.0
 11
163.0
 21
49.0
 31
0.0
  0
LINE
  5
42D5
  8
250
  6
CONTINUOUS
 10
2.0
 20
48.666666666666671
 30
0.0
 11
0.0
 21
49.0
 31
0.0
  0
LINE
  5
42D6
  8
250
  6
CONTINUOUS
 10
2.0
 20
49.333333333333329
 30
0.0
 11
0.0
 21
49.0
 31
0.0
  0
LINE
  5
42D7
  8
250
  6
CONTINUOUS
 10
0.0
 20
49.0
 30
0.0
 11
2.0
 21
49.0
 31
0.0
  0
LINE
  5
42D8
  8
250
  6
CONTINUOUS
 10
163.0
 20
49.333333333333329
 30
0.0
 11
165.0
 21
49.0
 31
0.0
  0
LINE
  5
42D9
  8
250
  6
CONTINUOUS
 10
163.0
 20
48.666666666666671
 30
0.0
 11
165.0
 21
49.0
 31
0.0
  0
LINE
  5
42DA
  8
250
  6
CONTINUOUS
 10
165.0
 20
49.0
 30
0.0
 11
163.0
 21
49.0
 31
0.0
  0
TEXT
  5
42DB
  8
250
  6
CONTINUOUS
 10
81.193346519999963
 20
50.0
 30
0.0
 40
2.799999999999998
  1
6.496
1001
ACAD
1000
MTEXTBEGIN
1070
    73
1070
     1
1070
    44
1040
1.0
1070
    74
1070
     0
1000
MTEXTEND
  0
LINE
  5
42DC
  8
240
  6
CONTINUOUS
 10
134.4999999999998
 20
21.0
 30
0.0
 11
40.214656969999993
 21
21.0
 31
0.0
  0
LINE
  5
42DD
  8
240
  6
CONTINUOUS
 10
134.4999999999998
 20
-21.0
 30
0.0
 11
40.214656969999993
 21
-21.0
 31
0.0
  0
LINE
  5
42DE
  8
241
  6
CONTINUOUS
 10
36.0
 20
-26.299999990428141
 30
0.0
 11
36.0
 21
26.299999990428141
 31
0.0
  0
LINE
  5
42DF
  8
240
  6
CONTINUOUS
 10
38.48260616000001
 20
-22.0
 30
0.0
 11
35.999999994473683
 21
-26.300000000000001
 31
0.0
  0
LINE
  5
42E0
  8
240
  6
CONTINUOUS
 10
35.999999994473683
 20
-26.300000000000001
 30
0.0
 11
25.99999999999968
 21
-26.300000000000001
 31
0.0
  0
LINE
  5
42E4
  8
241
  6
CONTINUOUS
 10
39.05995643
 20
21.367006839999998
 30
0.0
 11
39.05995643
 21
-21.367006839999998
 31
0.0
  0
ARC
  5
42E5
  8
240
  6
CONTINUOUS
 10
40.21465697
 20
-23.0
 30
0.0
 40
2.0
 50
90.0
 51
150.0
  0
LINE
  5
42E6
  8
240
  6
CONTINUOUS
 10
35.999999994473683
 20
26.300000000000001
 30
0.0
 11
25.99999999999968
 21
26.300000000000001
 31
0.0
  0
ARC
  5
42E7
  8
240
  6
CONTINUOUS
 10
40.21465697
 20
23.0
 30
0.0
 40
2.0
 50
210.0
 51
270.0
  0
LINE
  5
42E8
  8
240
  6
CONTINUOUS
 10
38.48260616000001
 20
22.0
 30
0.0
 11
35.999999994473683
 21
26.300000000000001
 31
0.0
  0
LINE
  5
4318
  8
240
  6
CONTINUOUS
 10
154.8000000000001
 20
14.90000000000064
 30
0.0
 11
154.7999999999993
 21
-14.900000000001111
 31
0.0
  0
LINE
  5
4319
  8
240
  6
CONTINUOUS
 10
152.8947441116743
 20
-16.000000000000021
 30
0.0
 11
141.13127767496701
 21
-16.000000000000021
 31
0.0
  0
LINE
  5
431A
  8
240
  6
CONTINUOUS
 10
134.4999999999992
 20
-16.749999999990731
 30
0.0
 11
134.4999999999998
 21
-21.0
 31
0.0
  0
LINE
  5
431B
  8
241
  6
CONTINUOUS
 10
138.7000000000005
 20
-16.749999999998089
 30
0.0
 11
138.6999999999997
 21
16.74999999999843
 31
0.0
1001
GRPNAME
1000
PASTMD0T
  0
LINE
  5
431C
  8
241
  6
CONTINUOUS
 10
139.8000000000003
 20
-16.75000000000011
 30
0.0
 11
139.79999999999859
 21
16.750000000000451
 31
0.0
1001
GRPNAME
1000
PASTMD0T
  0
LINE
  5
431D
  8
242
  6
CONTINUOUS
 10
142.8000000000014
 20
-15.999999999999901
 30
0.0
 11
142.79999999999299
 21
16.000000000000021
 31
0.0
  0
ARC
  5
431E
  8
240
  6
CONTINUOUS
 10
141.13127767496701
 20
-16.399999999999999
 30
0.0
 40
0.4
 50
90.0
 51
150.00000000001441
  0
LINE
  5
431F
  8
240
  6
CONTINUOUS
 10
134.4999999999992
 20
-16.749999999990731
 30
0.0
 11
140.46732486540091
 21
-16.75000000000167
 31
0.0
  0
LINE
  5
4320
  8
240
  6
CONTINUOUS
 10
140.78486751345321
 20
-16.20000000000007
 30
0.0
 11
140.46732486540091
 21
-16.75000000000167
 31
0.0
  0
LINE
  5
4321
  8
241
  6
CONTINUOUS
 10
140.9003375672896
 20
-16.073401367629032
 30
0.0
 11
140.9003375672896
 21
16.073401367629991
 31
0.0
  0
LINE
  5
4322
  8
241
  6
CONTINUOUS
 10
140.46732486539901
 20
-16.694948974278301
 30
0.0
 11
140.46732486539841
 21
16.75000000000167
 31
0.0
  0
LINE
  5
4323
  8
242
  6
CONTINUOUS
 10
142.8000000000014
 20
-15.25
 30
0.0
 11
154.1937822173507
 21
-15.24999999999994
 31
0.0
  0
LINE
  5
4324
  8
241
  6
CONTINUOUS
 10
152.8947441116743
 20
-15.981716522001101
 30
0.0
 11
152.89474411167441
 21
16.000000000000011
 31
0.0
  0
LINE
  5
4325
  8
240
  6
CONTINUOUS
 10
154.7999999999993
 20
-14.900000000001111
 30
0.0
 11
152.8947441116743
 21
-16.000000000000021
 31
0.0
  0
LINE
  5
4326
  8
240
  6
CONTINUOUS
 10
134.4999999999992
 20
16.749999999990731
 30
0.0
 11
134.4999999999998
 21
21.0
 31
0.0
  0
LINE
  5
4327
  8
240
  6
CONTINUOUS
 10
152.8947441116743
 20
16.000000000000021
 30
0.0
 11
141.13127767496701
 21
16.000000000000021
 31
0.0
  0
ARC
  5
4328
  8
240
  6
CONTINUOUS
 10
141.13127767496701
 20
16.399999999999999
 30
0.0
 40
0.4
 50
209.9999999999855
 51
270.0
  0
LINE
  5
4329
  8
240
  6
CONTINUOUS
 10
134.4999999999992
 20
16.749999999990731
 30
0.0
 11
140.46732486540091
 21
16.75000000000167
 31
0.0
  0
LINE
  5
432A
  8
240
  6
CONTINUOUS
 10
140.78486751345321
 20
16.20000000000007
 30
0.0
 11
140.46732486540091
 21
16.75000000000167
 31
0.0
  0
LINE
  5
432B
  8
242
  6
CONTINUOUS
 10
142.8000000000014
 20
15.25
 30
0.0
 11
154.1937822173507
 21
15.24999999999994
 31
0.0
  0
LINE
  5
432C
  8
240
  6
CONTINUOUS
 10
154.8000000000001
 20
14.90000000000064
 30
0.0
 11
152.8947441116743
 21
16.000000000000021
 31
0.0
  0
LINE
  5
432D
  8
241
  6
CONTINUOUS
 10
134.50000016222731
 20
-16.750000241534011
 30
0.0
 11
134.50000016222651
 21
16.749999999990731
 31
0.0
1001
GRPNAME
1000
PASTMD0T
  0
LINE
  5
432E
  8
246
  6
PHANTOM2
 10
165.0
 20
-21.0
 30
0.0
 11
165.0
 21
21.0
 31
0.0
1001
GRPNAME
1000
PASTMD01
  0
LINE
  5
432F
  8
246
  6
PHANTOM2
 10
165.0
 20
21.0
 30
0.0
 11
137.5
 21
21.0
 31
0.0
  0
LINE
  5
4330
  8
246
  6
PHANTOM2
 10
165.0
 20
-21.0
 30
0.0
 11
137.5
 21
-21.0
 31
0.0
  0
LINE
  5
4331
  8
250
  6
CONTINUOUS
 10
165.5
 20
-21.0
 30
0.0
 11
178.0
 21
-21.0
 31
0.0
  0
LINE
  5
4332
  8
250
  6
CONTINUOUS
 10
165.5
 20
21.0
 30
0.0
 11
178.0
 21
21.0
 31
0.0
  0
LINE
  5
4333
  8
250
  6
CONTINUOUS
 10
177.0
 20
-19.0
 30
0.0
 11
177.0
 21
19.0
 31
0.0
  0
INSERT
  5
4334
  8
250
  6
CONTINUOUS
  2
_OPEN
 10
177.0
 20
-21.0
 30
0.0
 41
2.0
 42
2.0
 43
2.0
 50
270.0
  0
INSERT
  5
4335
  8
250
  6
CONTINUOUS
  2
_OPEN
 10
177.0
 20
21.0
 30
0.0
 41
2.0
 42
2.0
 43
2.0
 50
90.0
  0
LINE
  5
4337
  8
243
  6
HIDDEN2
 10
130.8000000000001
 20
9.377042112078211
 30
0.0
 11
154.8000000000001
 21
12.75002214493543
 31
0.0
  0
LINE
  5
4338
  8
243
  6
HIDDEN2
 10
130.8000000000001
 20
-9.377042112078211
 30
0.0
 11
154.8000000000001
 21
-12.75002214493543
 31
0.0
  0
TEXT
  5
4DC4
  8
250
 10
175.8177682143014
 20
-7.5765390340052772
 30
0.0
 40
2.799999999999998
  1
\U+2205
 50
90.0
  0
TEXT
  5
4DC5
  8
250
 10
175.8177682143014
 20
-5.0432057006719431
 30
0.0
 40
2.799999999999998
  1
1.654
 50
90.0
  0
VIEWPORT
  5
22
 67
     1
  8
0
 10
261.51769911504419
 20
148.5
 30
0.0
 40
523.0353982300885
 41
297.0
 68
     1
 69
     1
1001
ACAD
1000
MVIEW
1002
{
1070
    16
1010
0.0
1020
0.0
1030
0.0
1010
0.0
1020
0.0
1030
1.0
1040
0.0
1040
297.0
1040
261.51769911504419
1040
148.5
1040
50.0
1040
0.0
1040
0.0
1070
     0
1070
   100
1070
     1
1070
     1
1070
     0
1070
     0
1070
     0
1070
     0
1040
0.0
1040
0.0
1040
0.0
1040
1.0
1040
1.0
1040
10.0
1040
10.0
1070
     0
1002
{
1002
}
1002
}
1001
GENIUS_GENODEF_13
1002
{
1000
HIER
1070
     0
1002
}
1002
{
1000
MANEDIT
1070
     0
1002
}
1002
{
1000
NOSEL
1070
     0
1002
}
1002
{
1000
BEHIND
1070
     0
1002
}
1002
{
1000
OTHER
1070
     0
1002
}
1002
{
1000
REACTOR
1002
}
1001
GENIUS_GENOBJ-N-SDF_13
1002
{
1000
OWNER
1000
GEN
1002
}
1001
GENIUS_GENSCREG_15
1000
PF
1040
1.0
1000
DF
1040
1.0
1000
MIN
1011
0.0
1021
0.0
1031
0.0
1021
0.0
1031
0.0
1000
MAX
1011
523.0353982300885
1021
0.0
1031
0.0
1021
297.0
1031
0.0
1000
FLAGS
1070
     4
  0
ENDSEC
  0
EOF
