  0
SECTION
  2
HEADER
  9
$ACADVER
  1
AC1009
  9
$INSBASE
 10
0.0
 20
0.0
 30
0.0
  9
$EXTMIN
 10
-47.838889869785127
 20
-34.848424506484321
 30
0.0
  9
$EXTMAX
 10
153.99999999999989
 20
68.000000000000014
 30
0.0
  9
$LIMMIN
 10
0.0
 20
0.0
  9
$LIMMAX
 10
297.0
 20
210.0
  9
$ORTHOMODE
 70
     0
  9
$REGENMODE
 70
     1
  9
$FILLMODE
 70
     1
  9
$QTEXTMODE
 70
     0
  9
$MIRRTEXT
 70
     1
  9
$DRAGMODE
 70
     2
  9
$LTSCALE
 40
10.0
  9
$OSMODE
 70
    37
  9
$ATTMODE
 70
     1
  9
$TEXTSIZE
 40
3.0
  9
$TRACEWID
 40
1.0
  9
$TEXTSTYLE
  7
YOKO
  9
$CLAYER
  8
240
  9
$CELTYPE
  6
BYLAYER
  9
$CECOLOR
 62
   256
  9
$DIMSCALE
 40
1.0
  9
$DIMASZ
 40
2.2299999999999991
  9
$DIMEXO
 40
0.5
  9
$DIMDLI
 40
7.0
  9
$DIMRND
 40
0.0
  9
$DIMDLE
 40
0.0
  9
$DIMEXE
 40
1.0
  9
$DIMTP
 40
0.0
  9
$DIMTM
 40
0.01
  9
$DIMTXT
 40
2.7999999999999989
  9
$DIMCEN
 40
0.0
  9
$DIMTSZ
 40
0.0
  9
$DIMTOL
 70
     0
  9
$DIMLIM
 70
     0
  9
$DIMTIH
 70
     0
  9
$DIMTOH
 70
     0
  9
$DIMSE1
 70
     0
  9
$DIMSE2
 70
     0
  9
$DIMTAD
 70
     3
  9
$DIMZIN
 70
     9
  9
$DIMBLK
  1
OPEN
  9
$DIMASO
 70
     1
  9
$DIMSHO
 70
     1
  9
$DIMPOST
  1

  9
$DIMAPOST
  1

  9
$DIMALT
 70
     0
  9
$DIMALTD
 70
     2
  9
$DIMALTF
 40
25.399999999999999
  9
$DIMLFAC
 40
1.0
  9
$DIMTOFL
 70
     1
  9
$DIMTVP
 40
0.0
  9
$DIMTIX
 70
     1
  9
$DIMSOXD
 70
     0
  9
$DIMSAH
 70
     0
  9
$DIMBLK1
  1

  9
$DIMBLK2
  1

  9
$DIMSTYLE
  2
BIGT
  9
$DIMCLRD
 70
   256
  9
$DIMCLRE
 70
   256
  9
$DIMCLRT
 70
    40
  9
$DIMTFAC
 40
1.0
  9
$DIMGAP
 40
1.0
  9
$LUNITS
 70
     2
  9
$LUPREC
 70
     6
  9
$SKETCHINC
 40
1.0
  9
$FILLETRAD
 40
0.0
  9
$AUNITS
 70
     0
  9
$AUPREC
 70
     6
  9
$MENU
  1
.
  9
$ELEVATION
 40
0.0
  9
$PELEVATION
 40
0.0
  9
$THICKNESS
 40
0.0
  9
$LIMCHECK
 70
     0
  9
$BLIPMODE
 70
     0
  9
$CHAMFERA
 40
0.2
  9
$CHAMFERB
 40
0.2
  9
$SKPOLY
 70
     0
  9
$TDCREATE
 40
2458141.3508099192
  9
$TDUPDATE
 40
2458142.5469388999
  9
$TDINDWG
 40
0.0726583912
  9
$TDUSRTIMER
 40
0.0726525694
  9
$USRTIMER
 70
     1
  9
$ANGBASE
 50
0.0
  9
$ANGDIR
 70
     0
  9
$PDMODE
 70
     1
  9
$PDSIZE
 40
0.0
  9
$PLINEWID
 40
0.0
  9
$COORDS
 70
     1
  9
$SPLFRAME
 70
     0
  9
$SPLINETYPE
 70
     6
  9
$SPLINESEGS
 70
     4
  9
$ATTDIA
 70
     1
  9
$ATTREQ
 70
     1
  9
$HANDLING
 70
     1
  9
$HANDSEED
  5
4633
  9
$SURFTAB1
 70
     6
  9
$SURFTAB2
 70
     6
  9
$SURFTYPE
 70
     6
  9
$SURFU
 70
     6
  9
$SURFV
 70
     6
  9
$UCSNAME
  2

  9
$UCSORG
 10
0.0
 20
0.0
 30
0.0
  9
$UCSXDIR
 10
1.0
 20
0.0
 30
0.0
  9
$UCSYDIR
 10
0.0
 20
1.0
 30
0.0
  9
$PUCSNAME
  2

  9
$PUCSORG
 10
0.0
 20
0.0
 30
0.0
  9
$PUCSXDIR
 10
1.0
 20
0.0
 30
0.0
  9
$PUCSYDIR
 10
0.0
 20
1.0
 30
0.0
  9
$USERI1
 70
     1
  9
$USERI2
 70
     0
  9
$USERI3
 70
     0
  9
$USERI4
 70
     0
  9
$USERI5
 70
     0
  9
$USERR1
 40
0.0
  9
$USERR2
 40
0.0
  9
$USERR3
 40
0.0
  9
$USERR4
 40
0.0
  9
$USERR5
 40
0.0
  9
$WORLDVIEW
 70
     1
  9
$SHADEDGE
 70
     3
  9
$SHADEDIF
 70
    70
  9
$TILEMODE
 70
     1
  9
$MAXACTVP
 70
    16
  9
$PLIMCHECK
 70
     0
  9
$PEXTMIN
 10
1.0000000000000000E+020
 20
1.0000000000000000E+020
 30
1.0000000000000000E+020
  9
$PEXTMAX
 10
-1.0000000000000000E+020
 20
-1.0000000000000000E+020
 30
-1.0000000000000000E+020
  9
$PLIMMIN
 10
0.0
 20
0.0
  9
$PLIMMAX
 10
420.0
 20
297.0
  9
$UNITMODE
 70
     0
  9
$VISRETAIN
 70
     1
  9
$PLINEGEN
 70
     0
  9
$PSLTSCALE
 70
     1
  0
ENDSEC
  0
SECTION
  2
TABLES
  0
TABLE
  2
VPORT
 70
     1
  0
VPORT
  2
*ACTIVE
 70
     0
 10
0.0
 20
0.0
 11
1.0
 21
1.0
 12
66.149028550965284
 22
20.597988300860781
 13
0.0
 23
0.0
 14
7.0
 24
7.0
 15
7.0
 25
7.0
 16
0.0
 26
0.0
 36
1.0
 17
0.0
 27
0.0
 37
0.0
 40
188.29210129645139
 41
1.4533622559652919
 42
50.0
 43
0.0
 44
0.0
 50
0.0
 51
0.0
 71
     0
 72
  2000
 73
     1
 74
     0
 75
     0
 76
     1
 77
     0
 78
     0
  0
ENDTAB
  0
TABLE
  2
LTYPE
 70
    21
  0
LTYPE
  2
CONTINUOUS
 70
     0
  3
Solid line
 72
    65
 73
     0
 40
0.0
  0
LTYPE
  2
CENTER2
 70
     0
  3
___ _ ___ _ ___ _ ___ _ ___ _ ___ _ ___ _ ___ _
 72
    65
 73
     4
 40
1.125
 49
0.75
 49
-0.125
 49
0.125
 49
-0.125
  0
LTYPE
  2
HIDDEN2
 70
     0
  3
_ _ _ _ _ _ _ _ _ _ _ _ _ _ _ _ _ _ _ _ _ _ _ _
 72
    65
 73
     2
 40
0.1875
 49
0.125
 49
-0.0625
  0
LTYPE
  2
AM_ISO02W050
 70
     0
  3
__ __ __ __ __ __ __ __ __ __ __ __ __ __ __
 72
    65
 73
     2
 40
7.5
 49
6.0
 49
-1.5
  0
LTYPE
  2
AMCONSTR
 70
     0
  3
_______________________
 72
    65
 73
     2
 40
9999.0
 49
9999.0
 49
0.0
  0
LTYPE
  2
ACISOWELD
 70
     0
  3
_ _ _ _ _
 72
    65
 73
     2
 40
2.0
 49
2.0
 49
-1.0
  0
LTYPE
  2
ACISOTGB
 70
     0
  3
__ . . __ . .
 72
    65
 73
     6
 40
9.0
 49
4.0
 49
-1.0
 49
1.0
 49
-1.0
 49
1.0
 49
-1.0
  0
LTYPE
  2
ACISOTGL
 70
     0
  3
_ _ _ _ _
 72
    65
 73
     2
 40
3.0
 49
2.0
 49
-1.0
  0
LTYPE
  2
AM_ISO08W050
 70
     0
  3
____ . ____ . ____ . ____ . ____ . ____ . ____
 72
    65
 73
     4
 40
18.0
 49
12.0
 49
-1.5
 49
3.0
 49
-1.5
  0
LTYPE
  2
AM_ISO09W050
 70
     0
  3
_____ . . _____ . . _____ . . ____ .. ____
 72
    65
 73
     6
 40
22.5
 49
12.0
 49
-1.5
 49
3.0
 49
-1.5
 49
3.0
 49
-1.5
  0
LTYPE
  2
AM_ISO08W050X2
 70
     0
  3
__ . __ . __ . __ . __ . __
 72
    65
 73
     4
 40
9.0
 49
6.0
 49
-0.75
 49
1.5
 49
-0.75
  0
LTYPE
  2
AM_ISO02W050X2
 70
     0
  3
 _ _ _ _ _ _ _ _ _ _ _ _
 72
    65
 73
     2
 40
3.75
 49
3.0
 49
-0.75
  0
LTYPE
  2
AMZIGZAG
 70
     0
  3
/\/-/\/-/\/-/\/-/\/-/\/
 72
    65
 73
     2
 40
11.0001
 49
0.0001
 49
-11.0
  0
ENDTAB
  0
TABLE
  2
LAYER
 70
     8
  0
LAYER
  2
0
 70
     0
 62
     7
  6
CONTINUOUS
  0
LAYER
  2
DEFPOINTS
 70
     0
 62
     7
  6
CONTINUOUS
  0
LAYER
  2
245
 70
     0
 62
     2
  6
CENTER2
  0
LAYER
  2
240
 70
     0
 62
     4
  6
CONTINUOUS
  0
LAYER
  2
241
 70
     0
 62
   211
  6
CONTINUOUS
  0
LAYER
  2
243
 70
     0
 62
   211
  6
HIDDEN2
  0
LAYER
  2
247
 70
     0
 62
    60
  6
CONTINUOUS
  0
LAYER
  2
250
 70
     0
 62
     3
  6
CONTINUOUS
  0
ENDTAB
  0
TABLE
  2
STYLE
 70
     8
  0
STYLE
  2
STANDARD
 70
     0
 40
0.0
 41
1.0
 50
0.0
 71
     0
 42
3.0
  3
romans.shx
  4
extfont.shx
  0
STYLE
  2
ACISOGDT
 70
     0
 40
0.0
 41
1.0
 50
0.0
 71
     0
 42
3.0
  3
amgdt.shx
  4
extfont.shx
  0
STYLE
  2
YOKO
 70
     0
 40
0.0
 41
1.0
 50
0.0
 71
     0
 42
3.0
  3
romans.shx
  4
extfont.shx
  0
STYLE
  2

 70
     1
 40
0.0
 41
1.0
 50
0.0
 71
     0
 42
3.0
  3
genltshp.shx
  4

  0
ENDTAB
  0
TABLE
  2
VIEW
 70
     0
  0
ENDTAB
  0
TABLE
  2
UCS
 70
     0
  0
ENDTAB
  0
TABLE
  2
APPID
 70
    39
  0
APPID
  2
ACAD
 70
     0
  0
APPID
  2
GLOBAL
 70
     0
  0
APPID
  2
DETAIL
 70
     0
  0
APPID
  2
GRPNAME
 70
     0
  0
APPID
  2
GPARA
 70
     0
  0
APPID
  2
MCAD_NO_VIS
 70
     0
  0
APPID
  2
ACAD_TEMP_GRAPHIC
 70
     0
  0
APPID
  2
ACATTRIBSERVICES
 70
     0
  0
APPID
  2
GENIUS_GENSCREG_15
 70
     0
  0
APPID
  2
GENIUS_GENODEF_13
 70
     0
  0
APPID
  2
GENIUS_GENOBJ-N-SDF_13
 70
     0
  0
APPID
  2
GENIUS_GENREC_14
 70
     0
  0
APPID
  2
GENIUS_GENOBJ-N-REC_13
 70
     0
  0
APPID
  2
GENIUS_GENDIMSH_14
 70
     0
  0
APPID
  2
GENIUS_GENOBJ-N-DIM_13
 70
     0
  0
APPID
  2
GENIUS_GENDIM_13
 70
     0
  0
APPID
  2
GENIUS_GENDTOL_13
 70
     0
  0
APPID
  2
GENIUS_GENOLIS_13
 70
     0
  0
APPID
  2
GENIUS_GENOENT_13
 70
     0
  0
APPID
  2
GENIUS_GENOBJ-F-FEM_13
 70
     0
  0
APPID
  2
GENIUS_GENOREF_13
 70
     0
  0
APPID
  2
GENIUS_GEFFEM_13
 70
     0
  0
APPID
  2
GENIUS_GEFFEMP_13
 70
     0
  0
APPID
  2
AD_DRAW
 70
     0
  0
APPID
  2
DESIGNERASSEMBLIES
 70
     0
  0
APPID
  2
ACADM_DIM_EDIT
 70
     0
  0
APPID
  2
AMDT_DM_ADJ
 70
     0
  0
APPID
  2
ITEMNAME
 70
     0
  0
APPID
  2
GENIUS_GENOBJ-N-FIL_13
 70
     0
  0
APPID
  2
GENIUS_GENFIL_13
 70
     0
  0
APPID
  2
GENIUS_GENOBJ-N-CHA_13
 70
     0
  0
APPID
  2
ACAECLAYERSTANDARD
 70
     0
  0
APPID
  2
ACAD_NAV_VCDISPLAY
 70
     0
  0
APPID
  2
ACAD_DSTYLE_DIMJAG
 70
     0
  0
APPID
  2
ACAD_DSTYLE_DIMBREAK
 70
     0
  0
APPID
  2
ACAD_EXEMPT_FROM_CAD_STANDARDS
 70
     0
  0
APPID
  2
ASK_MEN_XD
 70
     0
  0
APPID
  2
ACAD_DSTYLE_DIMINSPECT
 70
     0
  0
APPID
  2
ACAD_MLEADERVER
 70
     0
  0
ENDTAB
  0
TABLE
  2
DIMSTYLE
 70
    29
  0
DIMSTYLE
  2
BIGT
 70
     0
  3

  4

  5
OPEN
  6

  7

 40
1.0
 41
2.2299999999999991
 42
0.5
 43
7.0
 44
1.0
 45
0.0
 46
0.0
 47
0.0
 48
0.01
140
2.7999999999999989
141
0.0
142
0.0
143
25.399999999999999
144
1.0
145
0.0
146
1.0
147
1.0
 71
     0
 72
     0
 73
     0
 74
     0
 75
     0
 76
     0
 77
     3
 78
     9
170
     0
171
     2
172
     1
173
     0
174
     1
175
     0
176
   256
177
   256
178
    40
  0
DIMSTYLE
  2
AM_ISO
 70
     0
  3

  4
"
  5

  6

  7

 40
1.0
 41
2.5
 42
1.0
 43
10.0
 44
1.0
 45
0.0
 46
0.0
 47
0.1
 48
0.1
140
3.5
141
0.0
142
0.0
143
0.0393701
144
1.0
145
0.0
146
0.71
147
1.5
 71
     0
 72
     0
 73
     0
 74
     0
 75
     0
 76
     0
 77
     1
 78
     8
170
     0
171
     2
172
     1
173
     0
174
     0
175
     0
176
   256
177
   256
178
     2
  0
DIMSTYLE
  2
AM_ISO$3
 70
     0
  3

  4
"
  5

  6

  7

 40
1.0
 41
2.5
 42
1.0
 43
10.0
 44
1.0
 45
0.0
 46
0.0
 47
0.1
 48
0.1
140
3.5
141
0.0
142
0.0
143
0.0393701
144
1.0
145
0.0
146
0.71
147
1.5
 71
     0
 72
     0
 73
     0
 74
     1
 75
     0
 76
     0
 77
     1
 78
     8
170
     0
171
     2
172
     0
173
     0
174
     0
175
     0
176
   256
177
   256
178
     2
  0
DIMSTYLE
  2
AM_ISO$4
 70
     0
  3

  4
"
  5

  6

  7

 40
1.0
 41
2.5
 42
1.0
 43
10.0
 44
1.0
 45
0.0
 46
0.0
 47
0.1
 48
0.1
140
3.5
141
0.0
142
0.0
143
0.0393701
144
1.0
145
0.0
146
0.71
147
1.5
 71
     0
 72
     0
 73
     0
 74
     1
 75
     0
 76
     0
 77
     1
 78
     8
170
     0
171
     2
172
     0
173
     0
174
     0
175
     0
176
   256
177
   256
178
     2
  0
DIMSTYLE
  2
AM_ISO$6
 70
     0
  3

  4
"
  5

  6

  7

 40
1.0
 41
2.5
 42
1.0
 43
10.0
 44
1.0
 45
0.0
 46
0.0
 47
0.1
 48
0.1
140
3.5
141
0.0
142
0.0
143
0.0393701
144
1.0
145
0.0
146
0.71
147
1.5
 71
     0
 72
     0
 73
     0
 74
     0
 75
     0
 76
     0
 77
     0
 78
     8
170
     0
171
     2
172
     1
173
     0
174
     0
175
     0
176
   256
177
   256
178
     2
  0
DIMSTYLE
  2
AM_ISO$7
 70
     0
  3

  4
"
  5

  6

  7

 40
1.0
 41
2.5
 42
1.0
 43
10.0
 44
1.0
 45
0.0
 46
0.0
 47
0.1
 48
0.1
140
5.0
141
0.0
142
0.0
143
0.0393701
144
1.0
145
0.0
146
0.71
147
1.5
 71
     0
 72
     0
 73
     0
 74
     0
 75
     0
 76
     0
 77
     1
 78
     8
170
     0
171
     2
172
     1
173
     0
174
     0
175
     0
176
   256
177
   256
178
     2
  0
DIMSTYLE
  2
AM_ISO$SF
 70
     0
  3

  4
"
  5

  6

  7

 40
1.0
 41
2.5
 42
1.0
 43
10.0
 44
1.0
 45
0.0
 46
0.0
 47
0.1
 48
0.1
140
3.5
141
0.0
142
0.0
143
0.0393701
144
1.0
145
0.0
146
0.71
147
1.5
 71
     0
 72
     0
 73
     0
 74
     0
 75
     1
 76
     1
 77
     1
 78
     8
170
     0
171
     2
172
     1
173
     0
174
     0
175
     0
176
   256
177
   256
178
     2
  0
DIMSTYLE
  2
AM_ISO$SH
 70
     0
  3

  4
"
  5

  6
GENAXEH
  7

 40
1.0
 41
2.5
 42
1.0
 43
10.0
 44
1.0
 45
0.0
 46
0.0
 47
0.1
 48
0.1
140
3.5
141
0.0
142
0.0
143
0.0393701
144
2.0
145
0.0
146
0.71
147
1.5
 71
     0
 72
     0
 73
     0
 74
     0
 75
     1
 76
     1
 77
     1
 78
     8
170
     0
171
     2
172
     1
173
     1
174
     0
175
     0
176
   256
177
   256
178
     2
  0
ENDTAB
  0
ENDSEC
  0
SECTION
  2
BLOCKS
  0
BLOCK
  8
0
  2
$MODEL_SPACE
 70
     0
 10
0.0
 20
0.0
 30
0.0
  3
$MODEL_SPACE
  1

  0
ENDBLK
  5
1C
  8
0
  0
BLOCK
 67
     1
  8
0
  2
$PAPER_SPACE
 70
     0
 10
0.0
 20
0.0
 30
0.0
  3
$PAPER_SPACE
  1

  0
ENDBLK
  5
19
 67
     1
  8
0
  0
BLOCK
  8
0
  2
_OPEN
 70
     0
 10
0.0
 20
0.0
 30
0.0
  3
_OPEN
  1

  0
LINE
  5
3E1A
  8
0
  6
BYBLOCK
 62
     0
 10
-1.0
 20
0.1666666666666666
 30
0.0
 11
0.0
 21
0.0
 31
0.0
  0
LINE
  5
3E1B
  8
0
  6
BYBLOCK
 62
     0
 10
-1.0
 20
-0.1666666666666666
 30
0.0
 11
0.0
 21
0.0
 31
0.0
  0
LINE
  5
3E1C
  8
0
  6
BYBLOCK
 62
     0
 10
0.0
 20
0.0
 30
0.0
 11
-1.0
 21
0.0
 31
0.0
  0
ENDBLK
  5
3E1D
  8
0
  0
BLOCK
  8
0
  2
GENAXEH
 70
     0
 10
0.0
 20
0.0
 30
0.0
  3
GENAXEH
  1

  0
LINE
  5
3E45
  8
0
 10
-1.0
 20
0.0
 30
0.0
 11
1.0
 21
0.0
 31
0.0
  0
ENDBLK
  5
3E46
  8
0
  0
ENDSEC
  0
SECTION
  2
ENTITIES
  0
LINE
  5
430A
  8
240
  6
CONTINUOUS
 10
25.99999999999968
 20
26.300000000000011
 30
0.0
 11
42.000000000000028
 21
26.300000000000079
 31
0.0
  0
LINE
  5
430B
  8
240
  6
CONTINUOUS
 10
43.200000000018782
 20
27.500000000000231
 30
0.0
 11
42.000000000000028
 21
26.300000000000079
 31
0.0
  0
LINE
  5
430C
  8
241
  6
CONTINUOUS
 10
66.50000000000216
 20
-27.499999999999758
 30
0.0
 11
66.500000000002686
 21
27.500000000000231
 31
0.0
  0
LINE
  5
430D
  8
241
  6
CONTINUOUS
 10
72.500000000001961
 20
-27.499999999999691
 30
0.0
 11
72.500000000000895
 21
27.500000000000231
 31
0.0
  0
LINE
  5
430F
  8
241
  6
CONTINUOUS
 10
78.500000000001165
 20
-27.499999999999559
 30
0.0
 11
78.499999999997186
 21
27.500000000000231
 31
0.0
  0
LINE
  5
4310
  8
241
  6
CONTINUOUS
 10
80.500000000002757
 20
-27.500000000000639
 30
0.0
 11
80.499999999998835
 21
27.500000000000231
 31
0.0
  0
LINE
  5
4313
  8
241
  6
CONTINUOUS
 10
64.500000000002004
 20
-27.500000000000199
 30
0.0
 11
64.50000000000081
 21
27.500000000000231
 31
0.0
  0
LINE
  5
4314
  8
241
  6
CONTINUOUS
 10
58.500000000002188
 20
-27.499999999999769
 30
0.0
 11
58.499999999999183
 21
27.500000000000231
 31
0.0
  0
LINE
  5
4317
  8
241
  6
CONTINUOUS
 10
48.100000000000648
 20
-27.500000000000021
 30
0.0
 11
48.100000000001778
 21
27.500000000000231
 31
0.0
  0
LINE
  5
4318
  8
241
  6
CONTINUOUS
 10
46.899999754256747
 20
-27.499999999999549
 30
0.0
 11
46.899999754252597
 21
27.500000000000231
 31
0.0
  0
LINE
  5
432A
  8
240
  6
CONTINUOUS
 10
0.0
 20
-24.315000000000001
 30
0.0
 11
-31.999999999999972
 21
-22.714999999999971
 31
0.0
  0
CIRCLE
  5
432B
  8
241
  6
CONTINUOUS
 10
-9.0000000000000284
 20
0.0
 30
0.0
 40
3.75
  0
LINE
  5
432C
  8
245
  6
CENTER2
 10
131.48960592648589
 20
0.0
 30
0.0
 11
-32.000000000000071
 21
0.0
 31
0.0
  0
LINE
  5
432D
  8
240
  6
CONTINUOUS
 10
-31.999999999999972
 20
-22.714999999999971
 30
0.0
 11
-31.999999999999989
 21
-6.2699999999998113
 31
0.0
  0
ARC
  5
432E
  8
240
  6
CONTINUOUS
 10
-27.500000000000028
 20
-4.76999999999998
 30
0.0
 40
1.499999999999984
 50
270.0
 51
0.0
  0
LINE
  5
432F
  8
243
  6
HIDDEN2
 10
-27.500000000000028
 20
-6.26999999999998
 30
0.0
 11
-23.500000000000028
 21
-6.26999999999998
 31
0.0
  0
LINE
  5
4330
  8
240
  6
CONTINUOUS
 10
-31.999999999999989
 20
-6.2699999999998113
 30
0.0
 11
-27.500000000000028
 21
-6.26999999999998
 31
0.0
  0
LINE
  5
4331
  8
240
  6
CONTINUOUS
 10
-26.000000000000028
 20
-4.76999999999998
 30
0.0
 11
-26.000000000000028
 21
4.76999999999998
 31
0.0
  0
LINE
  5
4332
  8
243
  6
HIDDEN2
 10
-22.000000000000028
 20
-4.76999999999998
 30
0.0
 11
-22.000000000000028
 21
4.76999999999998
 31
0.0
  0
ARC
  5
4333
  8
243
  6
HIDDEN2
 10
-23.500000000000028
 20
-4.76999999999998
 30
0.0
 40
1.499999999999984
 50
270.0
 51
0.0
  0
LINE
  5
4334
  8
240
  6
CONTINUOUS
 10
19.874999999999972
 20
-28.897595264191828
 30
0.0
 11
21.377499074759239
 21
-31.5
 31
0.0
  0
LINE
  5
4335
  8
240
  6
CONTINUOUS
 10
16.124999999999972
 20
-28.897595264191828
 30
0.0
 11
14.622500925240701
 21
-31.5
 31
0.0
  0
LINE
  5
4336
  8
241
  6
CONTINUOUS
 10
21.377499074759239
 20
-24.336187047275931
 30
0.0
 11
21.377499074759239
 21
-31.5
 31
0.0
  0
LINE
  5
4337
  8
241
  6
CONTINUOUS
 10
14.622500925240701
 20
-24.336187047275931
 30
0.0
 11
14.622500925240701
 21
-31.5
 31
0.0
  0
LINE
  5
4338
  8
240
  6
CONTINUOUS
 10
21.377499074759239
 20
-31.5
 30
0.0
 11
25.99999999999989
 21
-31.499999999999829
 31
0.0
  0
LINE
  5
4339
  8
240
  6
CONTINUOUS
 10
0.0
 20
-31.50000000000006
 30
0.0
 11
14.622500925240701
 21
-31.5
 31
0.0
  0
LINE
  5
433A
  8
241
  6
CONTINUOUS
 10
12.99999999999997
 20
-8.0
 30
0.0
 11
26.00000000000006
 21
-8.0
 31
0.0
  0
LINE
  5
433B
  8
241
  6
CONTINUOUS
 10
21.377499074759239
 20
-24.336187047275931
 30
0.0
 11
25.999999999999972
 21
-24.336187047275931
 31
0.0
  0
LINE
  5
433C
  8
241
  6
CONTINUOUS
 10
19.874999999999972
 20
-20.0
 30
0.0
 11
25.999999999999972
 21
-20.0
 31
0.0
  0
LINE
  5
433D
  8
240
  6
CONTINUOUS
 10
0.0
 20
-31.50000000000006
 30
0.0
 11
0.0
 21
-24.315000000000001
 31
0.0
  0
LINE
  5
433E
  8
241
  6
CONTINUOUS
 10
4.999999999999714
 20
-24.336187047275931
 30
0.0
 11
14.622500925240701
 21
-24.336187047275931
 31
0.0
  0
ARC
  5
433F
  8
241
  6
CONTINUOUS
 10
12.111713903655611
 20
-28.0
 30
0.0
 40
8.0
 50
90.0
 51
152.74338069083771
  0
LINE
  5
4340
  8
241
  6
CONTINUOUS
 10
14.622500925240701
 20
-8.0
 30
0.0
 11
14.622500925240701
 21
-20.0
 31
0.0
  0
LINE
  5
4341
  8
241
  6
CONTINUOUS
 10
16.124999999999972
 20
-8.0
 30
0.0
 11
16.124999999999972
 21
-27.5
 31
0.0
  0
LINE
  5
4342
  8
241
  6
CONTINUOUS
 10
19.874999999999972
 20
-8.0
 30
0.0
 11
19.874999999999972
 21
-27.499999999999559
 31
0.0
  0
LINE
  5
4343
  8
241
  6
CONTINUOUS
 10
21.377499074759239
 20
-8.0
 30
0.0
 11
21.377499074759239
 21
-20.0
 31
0.0
  0
LINE
  5
4344
  8
241
  6
CONTINUOUS
 10
14.622500925240701
 20
-24.336187047275931
 30
0.0
 11
16.124999999999972
 21
-20.858355928812841
 31
0.0
  0
LINE
  5
4345
  8
241
  6
CONTINUOUS
 10
12.111713903655611
 20
-20.0
 30
0.0
 11
16.124999999999972
 21
-20.0
 31
0.0
  0
LINE
  5
4346
  8
240
  6
CONTINUOUS
 10
16.124999999999741
 20
-27.5
 30
0.0
 11
19.875000000001311
 21
-27.499999999998892
 31
0.0
  0
LINE
  5
4347
  8
240
  6
CONTINUOUS
 10
16.124999999999741
 20
-27.5
 30
0.0
 11
16.124999999999972
 21
-28.897595264191828
 31
0.0
  0
LINE
  5
4348
  8
240
  6
CONTINUOUS
 10
19.875000000001311
 20
-27.499999999998892
 30
0.0
 11
19.874999999999972
 21
-28.897595264191828
 31
0.0
  0
LINE
  5
4349
  8
241
  6
CONTINUOUS
 10
21.377499074759239
 20
-24.336187047275931
 30
0.0
 11
19.874999999999972
 21
-20.858355928812841
 31
0.0
  0
LINE
  5
434B
  8
241
  6
CONTINUOUS
 10
0.0
 20
-24.315000000000001
 30
0.0
 11
0.0
 21
24.31500000000003
 31
0.0
  0
LINE
  5
434C
  8
240
  6
CONTINUOUS
 10
25.99999999999989
 20
-31.499999999999829
 30
0.0
 11
25.99999999999968
 21
-26.29999999999994
 31
0.0
  0
LINE
  5
434D
  8
241
  6
CONTINUOUS
 10
26.0
 20
-26.29999999999993
 30
0.0
 11
26.0
 21
26.300000000000011
 31
0.0
  0
LINE
  5
434E
  8
240
  6
CONTINUOUS
 10
0.0
 20
24.31500000000003
 30
0.0
 11
-31.999999999999972
 21
22.714999999999971
 31
0.0
  0
ARC
  5
434F
  8
240
  6
CONTINUOUS
 10
-27.500000000000028
 20
4.76999999999998
 30
0.0
 40
1.499999999999984
 50
0.0
 51
90.0
  0
LINE
  5
4350
  8
243
  6
HIDDEN2
 10
-27.500000000000028
 20
6.26999999999998
 30
0.0
 11
-23.500000000000028
 21
6.26999999999998
 31
0.0
  0
LINE
  5
4351
  8
240
  6
CONTINUOUS
 10
-31.999999999999989
 20
6.2699999999998113
 30
0.0
 11
-27.500000000000028
 21
6.26999999999998
 31
0.0
  0
ARC
  5
4352
  8
243
  6
HIDDEN2
 10
-23.500000000000028
 20
4.76999999999998
 30
0.0
 40
1.499999999999984
 50
0.0
 51
90.0
  0
LINE
  5
4353
  8
240
  6
CONTINUOUS
 10
19.874999999999972
 20
28.897595264191871
 30
0.0
 11
21.377499074759239
 21
31.5
 31
0.0
  0
LINE
  5
4354
  8
240
  6
CONTINUOUS
 10
16.124999999999972
 20
28.897595264191871
 30
0.0
 11
14.622500925240701
 21
31.5
 31
0.0
  0
LINE
  5
4355
  8
240
  6
CONTINUOUS
 10
21.377499074759239
 20
31.5
 30
0.0
 11
25.99999999999989
 21
31.499999999999829
 31
0.0
  0
LINE
  5
4356
  8
240
  6
CONTINUOUS
 10
0.0
 20
31.50000000000006
 30
0.0
 11
14.622500925240701
 21
31.5
 31
0.0
  0
LINE
  5
4357
  8
241
  6
CONTINUOUS
 10
12.99999999999997
 20
8.0
 30
0.0
 11
26.00000000000006
 21
8.0
 31
0.0
  0
LINE
  5
4358
  8
240
  6
CONTINUOUS
 10
0.0
 20
31.50000000000006
 30
0.0
 11
0.0
 21
24.31500000000003
 31
0.0
  0
LINE
  5
4359
  8
241
  6
CONTINUOUS
 10
14.622500925240701
 20
8.0
 30
0.0
 11
14.622500925240841
 21
31.49999999999995
 31
0.0
  0
LINE
  5
435A
  8
241
  6
CONTINUOUS
 10
16.124999999999972
 20
8.0
 30
0.0
 11
16.124999999999972
 21
27.5
 31
0.0
  0
LINE
  5
435B
  8
241
  6
CONTINUOUS
 10
19.874999999999972
 20
8.0
 30
0.0
 11
19.874999999999972
 21
27.499999999999559
 31
0.0
  0
LINE
  5
435C
  8
241
  6
CONTINUOUS
 10
21.377499074759239
 20
8.0
 30
0.0
 11
21.377499074759388
 21
31.49999999999989
 31
0.0
  0
LINE
  5
435D
  8
240
  6
CONTINUOUS
 10
16.124999999999741
 20
27.5
 30
0.0
 11
19.875000000001311
 21
27.49999999999886
 31
0.0
  0
LINE
  5
435E
  8
240
  6
CONTINUOUS
 10
16.124999999999741
 20
27.5
 30
0.0
 11
16.124999999999972
 21
28.897595264191871
 31
0.0
  0
LINE
  5
435F
  8
240
  6
CONTINUOUS
 10
19.875000000001311
 20
27.49999999999886
 30
0.0
 11
19.874999999999972
 21
28.897595264191871
 31
0.0
  0
LINE
  5
4360
  8
240
  6
CONTINUOUS
 10
25.99999999999989
 20
31.499999999999829
 30
0.0
 11
25.99999999999968
 21
26.300000000000011
 31
0.0
  0
LINE
  5
4362
  8
250
  6
CONTINUOUS
 10
-18.436872775073201
 20
-25.210403317106
 30
0.0
 11
-17.0
 21
-23.465000000000028
 31
0.0
  0
LINE
  5
4363
  8
250
  6
CONTINUOUS
 10
-17.793127224926788
 20
-25.582069983772669
 30
0.0
 11
-17.0
 21
-23.465000000000028
 31
0.0
  0
LINE
  5
4364
  8
250
  6
CONTINUOUS
 10
-17.0
 20
-23.465000000000028
 30
0.0
 11
-18.114999999999998
 21
-25.396236650439331
 31
0.0
  0
LINE
  5
4365
  8
250
  6
CONTINUOUS
 10
-18.114999999999998
 20
-25.396236650439331
 30
0.0
 11
-23.572223203118501
 21
-34.848424506484321
 31
0.0
  0
TEXT
  5
4366
  8
250
  6
CONTINUOUS
 10
-45.572223203118497
 20
-33.848424506484321
 30
0.0
 40
2.799999999999998
  1
HSK-A63
  7
YOKO
1001
ITEMNAME
1000
LNSP3
  0
LINE
  5
4367
  8
250
  6
CONTINUOUS
 10
-23.572223203118501
 20
-34.848424506484321
 30
0.0
 11
-47.838889869785127
 21
-34.848424506484321
 31
0.0
1001
ITEMNAME
1000
LNSP2
  0
LINE
  5
4368
  8
240
  6
CONTINUOUS
 10
-31.999999999999972
 20
22.714999999999971
 30
0.0
 11
-31.999999999999989
 21
6.2699999999998113
 31
0.0
  0
LINE
  5
4369
  8
247
  6
CONTINUOUS
 10
6.5
 20
-17.250000000070031
 30
0.0
 11
6.5
 21
-10.557692308030029
 31
0.0
  0
ARC
  5
436A
  8
247
  6
CONTINUOUS
 10
4.7500000000699742
 20
-17.250000000070031
 30
0.0
 40
1.7499999999299991
 50
180.0
 51
0.0
  0
ARC
  5
436B
  8
247
  6
CONTINUOUS
 10
4.7500000000699742
 20
-10.557692308030029
 30
0.0
 40
1.7499999999299991
 50
0.0
 51
180.0
  0
LINE
  5
436C
  8
247
  6
CONTINUOUS
 10
3.000000000140004
 20
-16.38461538472
 30
0.0
 11
6.0000000000200071
 21
-17.244851541962021
 31
0.0
  0
LINE
  5
436D
  8
247
  6
CONTINUOUS
 10
4.423076923160008
 20
-15.48498381833582
 30
0.0
 11
4.423076923160008
 21
-16.792676125975841
 31
0.0
  0
ARC
  5
436E
  8
247
  6
CONTINUOUS
 10
3.54959866770298
 20
-15.14514381608978
 30
0.0
 40
0.5538165441895349
 50
72.997889675291773
 51
172.92416621851359
  0
ARC
  5
436F
  8
247
  6
CONTINUOUS
 10
3.4360330444657721
 20
-15.56687832302879
 30
0.0
 40
0.9904354236226808
 50
4.7429368522022122
 51
73.849226273266297
1001
GENIUS_GENOBJ-N-FIL_13
1002
{
1000
OWNER
1000
GEN
1002
}
1001
GENIUS_GENODEF_13
1002
{
1000
HIER
1070
     0
1002
}
1002
{
1000
MANEDIT
1070
     0
1002
}
1002
{
1000
NOSEL
1070
     0
1002
}
1002
{
1000
BEHIND
1070
     0
1002
}
1002
{
1000
OTHER
1070
     0
1002
}
1002
{
1000
REACTOR
1002
}
  0
LINE
  5
4370
  8
247
  6
CONTINUOUS
 10
6.0000000000200071
 20
-15.937159234321991
 30
0.0
 11
6.0000000000200071
 21
-17.244851541962021
 31
0.0
  0
LINE
  5
4371
  8
247
  6
CONTINUOUS
 10
3.000000000140004
 20
-16.38461538472
 30
0.0
 11
3.000000000140004
 21
-15.07692307707998
 31
0.0
  0
ARC
  5
4372
  8
247
  6
CONTINUOUS
 10
4.9820242326655348
 20
-15.56091963654694
 30
0.0
 40
0.5640818586791229
 50
65.990941652528889
 51
172.26344345906909
  0
ARC
  5
4373
  8
247
  6
CONTINUOUS
 10
4.987429039186563
 20
-16.038262685347028
 30
0.0
 40
1.0176059446230981
 50
5.7019851642564632
 51
77.277338436822376
1001
GENIUS_GENOBJ-N-FIL_13
1002
{
1000
OWNER
1000
GEN
1002
}
1001
GENIUS_GENODEF_13
1002
{
1000
HIER
1070
     0
1002
}
1002
{
1000
MANEDIT
1070
     0
1002
}
1002
{
1000
NOSEL
1070
     0
1002
}
1002
{
1000
BEHIND
1070
     0
1002
}
1002
{
1000
OTHER
1070
     0
1002
}
1002
{
1000
REACTOR
1002
}
  0
LINE
  5
4374
  8
247
  6
CONTINUOUS
 10
6.0000000000200071
 20
-14.28331308054203
 30
0.0
 11
3.000000000140004
 21
-13.423076923300011
 31
0.0
  0
LINE
  5
4375
  8
247
  6
CONTINUOUS
 10
3.000000000140004
 20
-11.00000000032003
 30
0.0
 11
3.000000000140004
 21
-11.565736619456629
 31
0.0
  0
LINE
  5
4376
  8
247
  6
CONTINUOUS
 10
6.0000000000200071
 20
-12.461538461799989
 30
0.0
 11
6.0000000000200071
 21
-11.846153846440011
 31
0.0
  0
ARC
  5
4377
  8
247
  6
CONTINUOUS
 10
5.0832851359733668
 20
-10.708791209122859
 30
0.0
 40
2.2526500823422122
 50
202.35948814152559
 51
254.99324854284609
  0
ARC
  5
4378
  8
247
  6
CONTINUOUS
 10
3.8083126551945261
 20
-11.37406947921323
 30
0.0
 40
0.8906723995727782
 50
94.994589319075317
 51
155.1663289573039
1001
GENIUS_GENOBJ-N-FIL_13
1002
{
1000
OWNER
1000
GEN
1002
}
1001
GENIUS_GENODEF_13
1002
{
1000
HIER
1070
     0
1002
}
1002
{
1000
MANEDIT
1070
     0
1002
}
1002
{
1000
NOSEL
1070
     0
1002
}
1002
{
1000
BEHIND
1070
     0
1002
}
1002
{
1000
OTHER
1070
     0
1002
}
1002
{
1000
REACTOR
1002
}
  0
ARC
  5
4379
  8
247
  6
CONTINUOUS
 10
4.660145888667782
 20
-12.22645888621258
 30
0.0
 40
1.392781735586712
 50
15.8460965557808
 51
82.325137004169065
  0
ARC
  5
437A
  8
247
  6
CONTINUOUS
 10
4.9592434315272831
 20
-11.64221272584035
 30
0.0
 40
1.324563662670287
 50
249.7136016704969
 51
321.78874565641053
1001
GENIUS_GENOBJ-N-FIL_13
1002
{
1000
OWNER
1000
GEN
1002
}
1001
GENIUS_GENODEF_13
1002
{
1000
HIER
1070
     0
1002
}
1002
{
1000
MANEDIT
1070
     0
1002
}
1002
{
1000
NOSEL
1070
     0
1002
}
1002
{
1000
BEHIND
1070
     0
1002
}
1002
{
1000
OTHER
1070
     0
1002
}
1002
{
1000
REACTOR
1002
}
  0
LINE
  5
437B
  8
247
  6
CONTINUOUS
 10
4.846153846219976
 20
-11.53846153875997
 30
0.0
 11
4.846153846219976
 21
-10.84615384647998
 31
0.0
  0
ARC
  5
437C
  8
241
  6
CONTINUOUS
 10
12.99999999999997
 20
0.0
 30
0.0
 40
8.0
 50
90.0
 51
270.0
  0
LINE
  5
437D
  8
247
  6
CONTINUOUS
 10
3.000000000139976
 20
-17.250000000070031
 30
0.0
 11
3.000000000139976
 21
-16.576923077020009
 31
0.0
  0
LINE
  5
4385
  8
240
  6
CONTINUOUS
 10
25.99999999999968
 20
-26.29999999999994
 30
0.0
 11
42.000000000000099
 21
-26.299999999999962
 31
0.0
  0
LINE
  5
4386
  8
240
  6
CONTINUOUS
 10
43.200000000018889
 20
-27.500000000000131
 30
0.0
 11
42.000000000000099
 21
-26.299999999999962
 31
0.0
  0
LINE
  5
4387
  8
241
  6
CONTINUOUS
 10
82.500000000002132
 20
-27.499999999999218
 30
0.0
 11
82.499999999997996
 21
27.500000000000231
 31
0.0
  0
LINE
  5
4405
  8
240
  6
CONTINUOUS
 10
89.671250119524515
 20
-27.500000000000501
 30
0.0
 11
43.200000000018889
 21
-27.500000000003219
 31
0.0
  0
LINE
  5
4406
  8
240
  6
CONTINUOUS
 10
129.00000000000031
 20
-16.799999999986799
 30
0.0
 11
128.99999999999969
 21
16.799999999986419
 31
0.0
  0
LINE
  5
4407
  8
240
  6
CONTINUOUS
 10
129.00000000000031
 20
-16.799999999986799
 30
0.0
 11
126.9999999999979
 21
-16.800000000000662
 31
0.0
  0
LINE
  5
4408
  8
241
  6
CONTINUOUS
 10
127.0000000000023
 20
16.800000000002939
 30
0.0
 11
126.99999999999829
 21
-16.800000000003301
 31
0.0
  0
LINE
  5
4409
  8
240
  6
CONTINUOUS
 10
128.99999999999969
 20
16.799999999986419
 30
0.0
 11
126.999999999997
 21
16.800000000000281
 31
0.0
  0
LINE
  5
440A
  8
243
  6
HIDDEN2
 10
71.999999999999631
 20
9.5250000000000394
 30
0.0
 11
128.9999999999998
 21
9.5250000000000181
 31
0.0
1001
GRPNAME
1000
PASTMD1D
  0
LINE
  5
440B
  8
240
  6
CONTINUOUS
 10
97.849677244252291
 20
-25.000000000000021
 30
0.0
 11
117.3838290319125
 21
-25.000000000000121
 31
0.0
  0
LINE
  5
440C
  8
240
  6
CONTINUOUS
 10
125.026060429975
 20
-22.21845524772986
 30
0.0
 11
117.3838290319102
 21
-25.000000000001211
 31
0.0
  0
ARC
  5
440D
  8
240
  6
CONTINUOUS
 10
123.9999999999976
 20
-19.399377385372262
 30
0.0
 40
3.0
 50
290.00000000000688
 51
359.99999999999352
  0
LINE
  5
440E
  8
240
  6
CONTINUOUS
 10
126.9999999999976
 20
-19.39937738537261
 30
0.0
 11
126.9999999999979
 21
-16.800000000000662
 31
0.0
  0
LINE
  5
440F
  8
241
  6
CONTINUOUS
 10
117.3838290319102
 20
-25.000000000001211
 30
0.0
 11
117.3838290319098
 21
25.000000000001378
 31
0.0
  0
LINE
  5
4410
  8
240
  6
CONTINUOUS
 10
92.356784025457387
 20
-25.642893218813281
 30
0.0
 11
91.085463681897238
 21
-26.914213562373451
 31
0.0
  0
ARC
  5
4411
  8
240
  6
CONTINUOUS
 10
89.671250119524146
 20
-25.500000000000231
 30
0.0
 40
2.0
 50
270.0
 51
315.0000000000004
1001
ASK_MEN_XD
1005
0
1070
     1
1005
0
1070
     1
  0
LINE
  5
4412
  8
241
  6
CONTINUOUS
 10
90.499677244270458
 20
-27.320359442249082
 30
0.0
 11
90.499677244270458
 21
27.320359442249231
 31
0.0
  0
LINE
  5
4413
  8
240
  6
CONTINUOUS
 10
97.849677244252291
 20
-25.000000000000021
 30
0.0
 11
97.499677244271027
 21
-25.34999999999981
 31
0.0
1001
GRPNAME
1000
PASTMD1P
  0
LINE
  5
4414
  8
241
  6
CONTINUOUS
 10
97.499677244270686
 20
-25.349999999999849
 30
0.0
 11
97.499677244270885
 21
25.349999999999849
 31
0.0
  0
LINE
  5
4415
  8
240
  6
CONTINUOUS
 10
97.499677244270686
 20
-25.349999999999849
 30
0.0
 11
93.063890806643926
 21
-25.34999999999981
 31
0.0
  0
ARC
  5
4416
  8
240
  6
CONTINUOUS
 10
93.063890806643926
 20
-26.349999999999799
 30
0.0
 40
1.0
 50
90.0
 51
135.0000000000004
1001
ASK_MEN_XD
1005
4410
1070
     1
1005
4415
1070
     1
  0
LINE
  5
4417
  8
241
  6
CONTINUOUS
 10
92.649677244270833
 20
-25.34999999999981
 30
0.0
 11
92.649677244270606
 21
25.349999999999781
 31
0.0
  0
LINE
  5
4418
  8
243
  6
HIDDEN2
 10
71.999999999999616
 20
-9.5249999999999613
 30
0.0
 11
129.0
 21
-9.5250000000000448
 31
0.0
1001
GRPNAME
1000
PASTMD1D
  0
LINE
  5
4419
  8
240
  6
CONTINUOUS
 10
97.849677244252334
 20
25.0
 30
0.0
 11
117.3838290319125
 21
25.000000000000071
 31
0.0
  0
LINE
  5
441A
  8
240
  6
CONTINUOUS
 10
125.0260604299751
 20
22.218455247729789
 30
0.0
 11
117.3838290319103
 21
25.000000000001162
 31
0.0
  0
ARC
  5
441B
  8
240
  6
CONTINUOUS
 10
123.9999999999977
 20
19.399377385372201
 30
0.0
 40
3.0
 50
359.99999999999329
 51
69.999999999993037
  0
LINE
  5
441C
  8
240
  6
CONTINUOUS
 10
43.200000000018782
 20
27.500000000000231
 30
0.0
 11
89.671250119524203
 21
27.500000000000242
 31
0.0
  0
LINE
  5
441D
  8
240
  6
CONTINUOUS
 10
92.356784025457415
 20
25.642893218813299
 30
0.0
 11
91.085463681897295
 21
26.91421356237348
 31
0.0
  0
ARC
  5
441E
  8
240
  6
CONTINUOUS
 10
89.671250119524174
 20
25.500000000000259
 30
0.0
 40
2.0
 50
44.999999999999538
 51
90.0
1001
ASK_MEN_XD
1005
0
1070
     1
1005
0
1070
     1
  0
LINE
  5
441F
  8
240
  6
CONTINUOUS
 10
97.849677244252334
 20
25.0
 30
0.0
 11
97.499677244271084
 21
25.34999999999981
 31
0.0
1001
GRPNAME
1000
PASTMD1P
  0
LINE
  5
4420
  8
240
  6
CONTINUOUS
 10
97.499677244270785
 20
25.349999999999859
 30
0.0
 11
93.063890806643968
 21
25.34999999999982
 31
0.0
  0
ARC
  5
4421
  8
240
  6
CONTINUOUS
 10
93.063890806643968
 20
26.349999999999831
 30
0.0
 40
1.0
 50
224.99999999999949
 51
270.0
1001
ASK_MEN_XD
1005
4410
1070
     1
1005
4415
1070
     1
  0
LINE
  5
4422
  8
250
  6
CONTINUOUS
 10
146.99999999999989
 20
-9.5250000000000572
 30
0.0
 11
129.5
 21
-9.5250000000000448
 31
0.0
  0
LINE
  5
4423
  8
250
  6
CONTINUOUS
 10
146.99999999999989
 20
9.524999999999995
 30
0.0
 11
129.49999999999969
 21
9.5250000000000181
 31
0.0
  0
LINE
  5
4424
  8
250
  6
CONTINUOUS
 10
145.99999999999989
 20
-8.0000000000000568
 30
0.0
 11
145.99999999999989
 21
7.9999999999999867
 31
0.0
  0
INSERT
  5
4425
  8
250
  6
CONTINUOUS
  2
_OPEN
 10
145.99999999999989
 20
-9.5250000000000572
 30
0.0
 41
2.0
 42
2.0
 43
2.0
 50
270.0
  0
INSERT
  5
4426
  8
250
  6
CONTINUOUS
  2
_OPEN
 10
145.99999999999989
 20
9.524999999999995
 30
0.0
 41
2.0
 42
2.0
 43
2.0
 50
90.0
  0
LINE
  5
4428
  8
250
  6
CONTINUOUS
 10
117.8838290319102
 20
-25.000000000000121
 30
0.0
 11
153.99999999999989
 21
-25.000000000000131
 31
0.0
  0
LINE
  5
4429
  8
250
  6
CONTINUOUS
 10
117.8838290319097
 20
25.000000000000071
 30
0.0
 11
153.99999999999989
 21
25.00000000000006
 31
0.0
  0
LINE
  5
442A
  8
250
  6
CONTINUOUS
 10
152.99999999999989
 20
-23.000000000000131
 30
0.0
 11
152.99999999999989
 21
23.00000000000006
 31
0.0
  0
INSERT
  5
442B
  8
250
  6
CONTINUOUS
  2
_OPEN
 10
152.99999999999989
 20
-25.000000000000131
 30
0.0
 41
2.0
 42
2.0
 43
2.0
 50
270.0
  0
INSERT
  5
442C
  8
250
  6
CONTINUOUS
  2
_OPEN
 10
152.99999999999989
 20
25.00000000000006
 30
0.0
 41
2.0
 42
2.0
 43
2.0
 50
90.0
  0
LINE
  5
442E
  8
240
  6
CONTINUOUS
 10
126.9999999999982
 20
16.800000000000281
 30
0.0
 11
126.9999999999976
 21
19.399377385371839
 31
0.0
  0
TEXT
  5
442F
  8
250
  6
CONTINUOUS
 10
131.74927117593489
 20
13.6135178416776
 30
0.0
 40
2.799999999999998
  1
Coolant
  7
YOKO
 11
131.74927117593489
 21
13.6135178416776
 31
0.0
 73
     1
  0
LINE
  5
4430
  8
250
  6
CONTINUOUS
 10
145.27856228415459
 20
12.371666666666719
 30
0.0
 11
147.50856228415461
 21
12.00000000000005
 31
0.0
  0
LINE
  5
4431
  8
250
  6
CONTINUOUS
 10
145.27856228415459
 20
11.62833333333338
 30
0.0
 11
147.50856228415461
 21
12.00000000000005
 31
0.0
  0
LINE
  5
4432
  8
250
  6
CONTINUOUS
 10
147.50856228415461
 20
12.00000000000005
 30
0.0
 11
145.27856228415459
 21
12.00000000000005
 31
0.0
  0
LINE
  5
4433
  8
250
  6
CONTINUOUS
 10
145.27856228415459
 20
12.00000000000005
 30
0.0
 11
131.99999999999889
 21
12.00000000000005
 31
0.0
  0
LINE
  5
4434
  8
250
  6
CONTINUOUS
 10
145.2785622841553
 20
-11.628333333333339
 30
0.0
 11
147.50856228415529
 21
-12.000000000000011
 31
0.0
  0
LINE
  5
4435
  8
250
  6
CONTINUOUS
 10
145.2785622841553
 20
-12.37166666666668
 30
0.0
 11
147.50856228415529
 21
-12.000000000000011
 31
0.0
  0
LINE
  5
4436
  8
250
  6
CONTINUOUS
 10
147.50856228415529
 20
-12.000000000000011
 30
0.0
 11
145.2785622841553
 21
-12.000000000000011
 31
0.0
  0
LINE
  5
4437
  8
250
  6
CONTINUOUS
 10
145.2785622841553
 20
-12.000000000000011
 30
0.0
 11
131.99999999999969
 21
-12.000000000000011
 31
0.0
  0
TEXT
  5
4438
  8
250
  6
CONTINUOUS
 10
131.58690084179219
 20
-16.815545675999392
 30
0.0
 40
2.799999999999998
  1
Coolant
  7
YOKO
 11
131.58690084179219
 21
-16.815545675999392
 31
0.0
 73
     1
  0
LINE
  5
443A
  8
241
  6
CONTINUOUS
 10
42.000000000000028
 20
26.300000000000079
 30
0.0
 11
42.000000000000021
 21
-26.29999999999988
 31
0.0
  0
TEXT
  5
448A
  8
241
  6
CONTINUOUS
 10
-35.0
 20
63.0
 30
0.0
 40
5.0
  1
HSK-A63-MEGA.750DS-5A
  7
YOKO
 11
-35.0
 21
63.0
 31
0.0
 73
     1
  0
TEXT
  5
44B5
  8
250
  6
CONTINUOUS
 10
145.070489679952
 20
-6.2347951284144818
 30
0.0
 40
2.799999999999998
  1
\U+2205
 50
90.0
  0
TEXT
  5
44B6
  8
250
  6
CONTINUOUS
 10
145.070489679952
 20
-3.701461795081149
 30
0.0
 40
2.799999999999998
  1
.750
 50
90.0
  0
TEXT
  5
44B7
  8
250
  6
CONTINUOUS
 10
152.14987757310411
 20
-7.6632883683293516
 30
0.0
 40
2.799999999999998
  1
\U+2205
 50
90.0
  0
TEXT
  5
44B8
  8
250
  6
CONTINUOUS
 10
152.14987757310411
 20
-5.129955034996021
 30
0.0
 40
2.799999999999998
  1
1.969
 50
90.0
  0
LINE
  5
4515
  8
250
  6
CONTINUOUS
 10
0.0
 20
32.000000000000057
 30
0.0
 11
0.0000000000000011
 21
50.000000000291038
 31
0.0
  0
LINE
  5
4516
  8
250
  6
CONTINUOUS
 10
128.99999999999969
 20
17.299999999986419
 30
0.0
 11
128.99999999999969
 21
50.000000000291038
 31
0.0
  0
LINE
  5
4517
  8
250
  6
CONTINUOUS
 10
2.23
 20
49.000000000291053
 30
0.0
 11
126.7699999999997
 21
49.000000000291053
 31
0.0
  0
LINE
  5
451B
  8
250
  6
CONTINUOUS
 10
128.99999999999969
 20
17.299999999986419
 30
0.0
 11
128.99999999999969
 21
43.0
 31
0.0
  0
LINE
  5
451C
  8
250
  6
CONTINUOUS
 10
42.000000000000021
 20
10.72499999999985
 30
0.0
 11
42.000000000000021
 21
43.0
 31
0.0
  0
LINE
  5
451D
  8
250
  6
CONTINUOUS
 10
126.7699999999997
 20
42.0
 30
0.0
 11
44.230000000000018
 21
42.0
 31
0.0
  0
TEXT
  5
4521
  8
250
  6
CONTINUOUS
 10
58.566666666666528
 20
50.000000000291038
 30
0.0
 40
2.7999999999999989
  1
5.08
  0
LINE
  5
4522
  8
250
  6
CONTINUOUS
 10
126.7699999999997
 20
49.371666666957708
 30
0.0
 11
128.99999999999969
 21
49.000000000291053
 31
0.0
  0
LINE
  5
4523
  8
250
  6
CONTINUOUS
 10
126.7699999999997
 20
48.628333333624383
 30
0.0
 11
128.99999999999969
 21
49.000000000291053
 31
0.0
  0
LINE
  5
4524
  8
250
  6
CONTINUOUS
 10
128.99999999999969
 20
49.000000000291053
 30
0.0
 11
126.7699999999997
 21
49.000000000291053
 31
0.0
  0
LINE
  5
4525
  8
250
  6
CONTINUOUS
 10
2.23
 20
48.628333333624383
 30
0.0
 11
0.0000000000000011
 21
49.000000000291053
 31
0.0
  0
LINE
  5
4526
  8
250
  6
CONTINUOUS
 10
2.23
 20
49.371666666957708
 30
0.0
 11
0.0000000000000011
 21
49.000000000291053
 31
0.0
  0
LINE
  5
4527
  8
250
  6
CONTINUOUS
 10
0.0000000000000011
 20
49.000000000291053
 30
0.0
 11
2.23
 21
49.000000000291053
 31
0.0
  0
TEXT
  5
4528
  8
250
  6
CONTINUOUS
 10
75.677137273579305
 20
43.0
 30
0.0
 40
2.7999999999999989
  1
(max.3.42)
  0
LINE
  5
4529
  8
250
  6
CONTINUOUS
 10
44.230000000000018
 20
41.62833333333333
 30
0.0
 11
42.000000000000021
 21
42.0
 31
0.0
  0
LINE
  5
452A
  8
250
  6
CONTINUOUS
 10
44.230000000000018
 20
42.371666666666663
 30
0.0
 11
42.000000000000021
 21
42.0
 31
0.0
  0
LINE
  5
452B
  8
250
  6
CONTINUOUS
 10
42.000000000000021
 20
42.0
 30
0.0
 11
44.230000000000018
 21
42.0
 31
0.0
  0
LINE
  5
452C
  8
250
  6
CONTINUOUS
 10
126.7699999999997
 20
42.371666666666663
 30
0.0
 11
128.99999999999969
 21
42.0
 31
0.0
  0
LINE
  5
452D
  8
250
  6
CONTINUOUS
 10
126.7699999999997
 20
41.62833333333333
 30
0.0
 11
128.99999999999969
 21
42.0
 31
0.0
  0
LINE
  5
452E
  8
250
  6
CONTINUOUS
 10
128.99999999999969
 20
42.0
 30
0.0
 11
126.7699999999997
 21
42.0
 31
0.0
  0
VIEWPORT
  5
22
 67
     1
  8
0
 10
261.51769911504419
 20
148.5
 30
0.0
 40
523.0353982300885
 41
297.0
 68
     1
 69
     1
1001
ACAD
1000
MVIEW
1002
{
1070
    16
1010
0.0
1020
0.0
1030
0.0
1010
0.0
1020
0.0
1030
1.0
1040
0.0
1040
297.0
1040
261.51769911504419
1040
148.5
1040
50.0
1040
0.0
1040
0.0
1070
     0
1070
   100
1070
     1
1070
     1
1070
     0
1070
     0
1070
     0
1070
     0
1040
0.0
1040
0.0
1040
0.0
1040
1.0
1040
1.0
1040
10.0
1040
10.0
1070
     0
1002
{
1002
}
1002
}
1001
GENIUS_GENODEF_13
1002
{
1000
HIER
1070
     0
1002
}
1002
{
1000
MANEDIT
1070
     0
1002
}
1002
{
1000
NOSEL
1070
     0
1002
}
1002
{
1000
BEHIND
1070
     0
1002
}
1002
{
1000
OTHER
1070
     0
1002
}
1002
{
1000
REACTOR
1002
}
1001
GENIUS_GENOBJ-N-SDF_13
1002
{
1000
OWNER
1000
GEN
1002
}
1001
GENIUS_GENSCREG_15
1000
PF
1040
1.0
1000
DF
1040
1.0
1000
MIN
1011
0.0
1021
0.0
1031
0.0
1021
0.0
1031
0.0
1000
MAX
1011
523.0353982300885
1021
0.0
1031
0.0
1021
297.0
1031
0.0
1000
FLAGS
1070
     4
  0
ENDSEC
  0
EOF
