  0
SECTION
  2
HEADER
  9
$ACADVER
  1
AC1009
  9
$INSBASE
 10
0.0
 20
0.0
 30
0.0
  9
$EXTMIN
 10
-47.838889869785127
 20
-34.848424506484321
 30
0.0
  9
$EXTMAX
 10
128.59999999999951
 20
68.000000000000014
 30
0.0
  9
$LIMMIN
 10
0.0
 20
0.0
  9
$LIMMAX
 10
297.0
 20
210.0
  9
$ORTHOMODE
 70
     0
  9
$REGENMODE
 70
     1
  9
$FILLMODE
 70
     1
  9
$QTEXTMODE
 70
     0
  9
$MIRRTEXT
 70
     1
  9
$DRAGMODE
 70
     2
  9
$LTSCALE
 40
10.0
  9
$OSMODE
 70
    37
  9
$ATTMODE
 70
     1
  9
$TEXTSIZE
 40
3.0
  9
$TRACEWID
 40
1.0
  9
$TEXTSTYLE
  7
YOKO
  9
$CLAYER
  8
240
  9
$CELTYPE
  6
BYLAYER
  9
$CECOLOR
 62
   256
  9
$DIMSCALE
 40
1.0
  9
$DIMASZ
 40
2.2299999999999991
  9
$DIMEXO
 40
0.5
  9
$DIMDLI
 40
7.0
  9
$DIMRND
 40
0.0
  9
$DIMDLE
 40
0.0
  9
$DIMEXE
 40
1.0
  9
$DIMTP
 40
0.0
  9
$DIMTM
 40
0.01
  9
$DIMTXT
 40
2.7999999999999989
  9
$DIMCEN
 40
0.0
  9
$DIMTSZ
 40
0.0
  9
$DIMTOL
 70
     0
  9
$DIMLIM
 70
     0
  9
$DIMTIH
 70
     0
  9
$DIMTOH
 70
     0
  9
$DIMSE1
 70
     0
  9
$DIMSE2
 70
     0
  9
$DIMTAD
 70
     3
  9
$DIMZIN
 70
     9
  9
$DIMBLK
  1
OPEN
  9
$DIMASO
 70
     1
  9
$DIMSHO
 70
     1
  9
$DIMPOST
  1

  9
$DIMAPOST
  1

  9
$DIMALT
 70
     0
  9
$DIMALTD
 70
     2
  9
$DIMALTF
 40
25.399999999999999
  9
$DIMLFAC
 40
1.0
  9
$DIMTOFL
 70
     1
  9
$DIMTVP
 40
0.0
  9
$DIMTIX
 70
     1
  9
$DIMSOXD
 70
     0
  9
$DIMSAH
 70
     0
  9
$DIMBLK1
  1

  9
$DIMBLK2
  1

  9
$DIMSTYLE
  2
BIGT
  9
$DIMCLRD
 70
   256
  9
$DIMCLRE
 70
   256
  9
$DIMCLRT
 70
    40
  9
$DIMTFAC
 40
1.0
  9
$DIMGAP
 40
1.0
  9
$LUNITS
 70
     2
  9
$LUPREC
 70
     6
  9
$SKETCHINC
 40
1.0
  9
$FILLETRAD
 40
0.0
  9
$AUNITS
 70
     0
  9
$AUPREC
 70
     6
  9
$MENU
  1
.
  9
$ELEVATION
 40
0.0
  9
$PELEVATION
 40
0.0
  9
$THICKNESS
 40
0.0
  9
$LIMCHECK
 70
     0
  9
$BLIPMODE
 70
     0
  9
$CHAMFERA
 40
0.2
  9
$CHAMFERB
 40
0.2
  9
$SKPOLY
 70
     0
  9
$TDCREATE
 40
2458141.4465861572
  9
$TDUPDATE
 40
2458142.5472183791
  9
$TDINDWG
 40
0.0112711921
  9
$TDUSRTIMER
 40
0.011271169
  9
$USRTIMER
 70
     1
  9
$ANGBASE
 50
0.0
  9
$ANGDIR
 70
     0
  9
$PDMODE
 70
     1
  9
$PDSIZE
 40
0.0
  9
$PLINEWID
 40
0.0
  9
$COORDS
 70
     1
  9
$SPLFRAME
 70
     0
  9
$SPLINETYPE
 70
     6
  9
$SPLINESEGS
 70
     4
  9
$ATTDIA
 70
     1
  9
$ATTREQ
 70
     1
  9
$HANDLING
 70
     1
  9
$HANDSEED
  5
4686
  9
$SURFTAB1
 70
     6
  9
$SURFTAB2
 70
     6
  9
$SURFTYPE
 70
     6
  9
$SURFU
 70
     6
  9
$SURFV
 70
     6
  9
$UCSNAME
  2

  9
$UCSORG
 10
0.0
 20
0.0
 30
0.0
  9
$UCSXDIR
 10
1.0
 20
0.0
 30
0.0
  9
$UCSYDIR
 10
0.0
 20
1.0
 30
0.0
  9
$PUCSNAME
  2

  9
$PUCSORG
 10
0.0
 20
0.0
 30
0.0
  9
$PUCSXDIR
 10
1.0
 20
0.0
 30
0.0
  9
$PUCSYDIR
 10
0.0
 20
1.0
 30
0.0
  9
$USERI1
 70
     1
  9
$USERI2
 70
     0
  9
$USERI3
 70
     0
  9
$USERI4
 70
     0
  9
$USERI5
 70
     0
  9
$USERR1
 40
0.0
  9
$USERR2
 40
0.0
  9
$USERR3
 40
0.0
  9
$USERR4
 40
0.0
  9
$USERR5
 40
0.0
  9
$WORLDVIEW
 70
     1
  9
$SHADEDGE
 70
     3
  9
$SHADEDIF
 70
    70
  9
$TILEMODE
 70
     1
  9
$MAXACTVP
 70
    16
  9
$PLIMCHECK
 70
     0
  9
$PEXTMIN
 10
1.0000000000000000E+020
 20
1.0000000000000000E+020
 30
1.0000000000000000E+020
  9
$PEXTMAX
 10
-1.0000000000000000E+020
 20
-1.0000000000000000E+020
 30
-1.0000000000000000E+020
  9
$PLIMMIN
 10
0.0
 20
0.0
  9
$PLIMMAX
 10
420.0
 20
297.0
  9
$UNITMODE
 70
     0
  9
$VISRETAIN
 70
     1
  9
$PLINEGEN
 70
     0
  9
$PSLTSCALE
 70
     1
  0
ENDSEC
  0
SECTION
  2
TABLES
  0
TABLE
  2
VPORT
 70
     1
  0
VPORT
  2
*ACTIVE
 70
     0
 10
0.0
 20
0.0
 11
1.0
 21
1.0
 12
48.225617270509701
 22
17.739584598482558
 13
0.0
 23
0.0
 14
7.0
 24
7.0
 15
7.0
 25
7.0
 16
0.0
 26
0.0
 36
1.0
 17
0.0
 27
0.0
 37
0.0
 40
203.16243427963599
 41
1.4533622559652919
 42
50.0
 43
0.0
 44
0.0
 50
0.0
 51
0.0
 71
     0
 72
  2000
 73
     1
 74
     0
 75
     0
 76
     1
 77
     0
 78
     0
  0
ENDTAB
  0
TABLE
  2
LTYPE
 70
    21
  0
LTYPE
  2
CONTINUOUS
 70
     0
  3
Solid line
 72
    65
 73
     0
 40
0.0
  0
LTYPE
  2
CENTER2
 70
     0
  3
___ _ ___ _ ___ _ ___ _ ___ _ ___ _ ___ _ ___ _
 72
    65
 73
     4
 40
1.125
 49
0.75
 49
-0.125
 49
0.125
 49
-0.125
  0
LTYPE
  2
HIDDEN2
 70
     0
  3
_ _ _ _ _ _ _ _ _ _ _ _ _ _ _ _ _ _ _ _ _ _ _ _
 72
    65
 73
     2
 40
0.1875
 49
0.125
 49
-0.0625
  0
LTYPE
  2
AM_ISO02W050
 70
     0
  3
__ __ __ __ __ __ __ __ __ __ __ __ __ __ __
 72
    65
 73
     2
 40
7.5
 49
6.0
 49
-1.5
  0
LTYPE
  2
AMCONSTR
 70
     0
  3
_______________________
 72
    65
 73
     2
 40
9999.0
 49
9999.0
 49
0.0
  0
LTYPE
  2
ACISOWELD
 70
     0
  3
_ _ _ _ _
 72
    65
 73
     2
 40
2.0
 49
2.0
 49
-1.0
  0
LTYPE
  2
ACISOTGB
 70
     0
  3
__ . . __ . .
 72
    65
 73
     6
 40
9.0
 49
4.0
 49
-1.0
 49
1.0
 49
-1.0
 49
1.0
 49
-1.0
  0
LTYPE
  2
ACISOTGL
 70
     0
  3
_ _ _ _ _
 72
    65
 73
     2
 40
3.0
 49
2.0
 49
-1.0
  0
LTYPE
  2
AM_ISO08W050
 70
     0
  3
____ . ____ . ____ . ____ . ____ . ____ . ____
 72
    65
 73
     4
 40
18.0
 49
12.0
 49
-1.5
 49
3.0
 49
-1.5
  0
LTYPE
  2
AM_ISO09W050
 70
     0
  3
_____ . . _____ . . _____ . . ____ .. ____
 72
    65
 73
     6
 40
22.5
 49
12.0
 49
-1.5
 49
3.0
 49
-1.5
 49
3.0
 49
-1.5
  0
LTYPE
  2
AM_ISO08W050X2
 70
     0
  3
__ . __ . __ . __ . __ . __
 72
    65
 73
     4
 40
9.0
 49
6.0
 49
-0.75
 49
1.5
 49
-0.75
  0
LTYPE
  2
AM_ISO02W050X2
 70
     0
  3
 _ _ _ _ _ _ _ _ _ _ _ _
 72
    65
 73
     2
 40
3.75
 49
3.0
 49
-0.75
  0
LTYPE
  2
AMZIGZAG
 70
     0
  3
/\/-/\/-/\/-/\/-/\/-/\/
 72
    65
 73
     2
 40
11.0001
 49
0.0001
 49
-11.0
  0
ENDTAB
  0
TABLE
  2
LAYER
 70
     8
  0
LAYER
  2
0
 70
     0
 62
     7
  6
CONTINUOUS
  0
LAYER
  2
DEFPOINTS
 70
     0
 62
     7
  6
CONTINUOUS
  0
LAYER
  2
245
 70
     0
 62
     2
  6
CENTER2
  0
LAYER
  2
240
 70
     0
 62
     4
  6
CONTINUOUS
  0
LAYER
  2
241
 70
     0
 62
   211
  6
CONTINUOUS
  0
LAYER
  2
243
 70
     0
 62
   211
  6
HIDDEN2
  0
LAYER
  2
247
 70
     0
 62
    60
  6
CONTINUOUS
  0
LAYER
  2
250
 70
     0
 62
     3
  6
CONTINUOUS
  0
ENDTAB
  0
TABLE
  2
STYLE
 70
     8
  0
STYLE
  2
STANDARD
 70
     0
 40
0.0
 41
1.0
 50
0.0
 71
     0
 42
3.0
  3
romans.shx
  4
extfont.shx
  0
STYLE
  2
ACISOGDT
 70
     0
 40
0.0
 41
1.0
 50
0.0
 71
     0
 42
3.0
  3
amgdt.shx
  4
extfont.shx
  0
STYLE
  2
YOKO
 70
     0
 40
0.0
 41
1.0
 50
0.0
 71
     0
 42
3.0
  3
romans.shx
  4
extfont.shx
  0
STYLE
  2

 70
     1
 40
0.0
 41
1.0
 50
0.0
 71
     0
 42
3.0
  3
genltshp.shx
  4

  0
ENDTAB
  0
TABLE
  2
VIEW
 70
     0
  0
ENDTAB
  0
TABLE
  2
UCS
 70
     0
  0
ENDTAB
  0
TABLE
  2
APPID
 70
    39
  0
APPID
  2
ACAD
 70
     0
  0
APPID
  2
GLOBAL
 70
     0
  0
APPID
  2
DETAIL
 70
     0
  0
APPID
  2
GRPNAME
 70
     0
  0
APPID
  2
GPARA
 70
     0
  0
APPID
  2
MCAD_NO_VIS
 70
     0
  0
APPID
  2
ACAD_TEMP_GRAPHIC
 70
     0
  0
APPID
  2
ACATTRIBSERVICES
 70
     0
  0
APPID
  2
GENIUS_GENSCREG_15
 70
     0
  0
APPID
  2
GENIUS_GENODEF_13
 70
     0
  0
APPID
  2
GENIUS_GENOBJ-N-SDF_13
 70
     0
  0
APPID
  2
GENIUS_GENREC_14
 70
     0
  0
APPID
  2
GENIUS_GENOBJ-N-REC_13
 70
     0
  0
APPID
  2
GENIUS_GENDIMSH_14
 70
     0
  0
APPID
  2
GENIUS_GENOBJ-N-DIM_13
 70
     0
  0
APPID
  2
GENIUS_GENDIM_13
 70
     0
  0
APPID
  2
GENIUS_GENDTOL_13
 70
     0
  0
APPID
  2
GENIUS_GENOLIS_13
 70
     0
  0
APPID
  2
GENIUS_GENOENT_13
 70
     0
  0
APPID
  2
GENIUS_GENOBJ-F-FEM_13
 70
     0
  0
APPID
  2
GENIUS_GENOREF_13
 70
     0
  0
APPID
  2
GENIUS_GEFFEM_13
 70
     0
  0
APPID
  2
GENIUS_GEFFEMP_13
 70
     0
  0
APPID
  2
AD_DRAW
 70
     0
  0
APPID
  2
DESIGNERASSEMBLIES
 70
     0
  0
APPID
  2
ACADM_DIM_EDIT
 70
     0
  0
APPID
  2
AMDT_DM_ADJ
 70
     0
  0
APPID
  2
ITEMNAME
 70
     0
  0
APPID
  2
GENIUS_GENOBJ-N-FIL_13
 70
     0
  0
APPID
  2
GENIUS_GENFIL_13
 70
     0
  0
APPID
  2
GENIUS_GENOBJ-N-CHA_13
 70
     0
  0
APPID
  2
ACAECLAYERSTANDARD
 70
     0
  0
APPID
  2
ACAD_NAV_VCDISPLAY
 70
     0
  0
APPID
  2
ACAD_DSTYLE_DIMJAG
 70
     0
  0
APPID
  2
ACAD_DSTYLE_DIMBREAK
 70
     0
  0
APPID
  2
ACAD_EXEMPT_FROM_CAD_STANDARDS
 70
     0
  0
APPID
  2
ASK_MEN_XD
 70
     0
  0
APPID
  2
ACAD_DSTYLE_DIMINSPECT
 70
     0
  0
APPID
  2
ACAD_MLEADERVER
 70
     0
  0
ENDTAB
  0
TABLE
  2
DIMSTYLE
 70
    29
  0
DIMSTYLE
  2
BIGT
 70
     0
  3

  4

  5
OPEN
  6

  7

 40
1.0
 41
2.2299999999999991
 42
0.5
 43
7.0
 44
1.0
 45
0.0
 46
0.0
 47
0.0
 48
0.01
140
2.7999999999999989
141
0.0
142
0.0
143
25.399999999999999
144
1.0
145
0.0
146
1.0
147
1.0
 71
     0
 72
     0
 73
     0
 74
     0
 75
     0
 76
     0
 77
     3
 78
     9
170
     0
171
     2
172
     1
173
     0
174
     1
175
     0
176
   256
177
   256
178
    40
  0
DIMSTYLE
  2
AM_ISO
 70
     0
  3

  4
"
  5

  6

  7

 40
1.0
 41
2.5
 42
1.0
 43
10.0
 44
1.0
 45
0.0
 46
0.0
 47
0.1
 48
0.1
140
3.5
141
0.0
142
0.0
143
0.0393701
144
1.0
145
0.0
146
0.71
147
1.5
 71
     0
 72
     0
 73
     0
 74
     0
 75
     0
 76
     0
 77
     1
 78
     8
170
     0
171
     2
172
     1
173
     0
174
     0
175
     0
176
   256
177
   256
178
     2
  0
DIMSTYLE
  2
AM_ISO$3
 70
     0
  3

  4
"
  5

  6

  7

 40
1.0
 41
2.5
 42
1.0
 43
10.0
 44
1.0
 45
0.0
 46
0.0
 47
0.1
 48
0.1
140
3.5
141
0.0
142
0.0
143
0.0393701
144
1.0
145
0.0
146
0.71
147
1.5
 71
     0
 72
     0
 73
     0
 74
     1
 75
     0
 76
     0
 77
     1
 78
     8
170
     0
171
     2
172
     0
173
     0
174
     0
175
     0
176
   256
177
   256
178
     2
  0
DIMSTYLE
  2
AM_ISO$4
 70
     0
  3

  4
"
  5

  6

  7

 40
1.0
 41
2.5
 42
1.0
 43
10.0
 44
1.0
 45
0.0
 46
0.0
 47
0.1
 48
0.1
140
3.5
141
0.0
142
0.0
143
0.0393701
144
1.0
145
0.0
146
0.71
147
1.5
 71
     0
 72
     0
 73
     0
 74
     1
 75
     0
 76
     0
 77
     1
 78
     8
170
     0
171
     2
172
     0
173
     0
174
     0
175
     0
176
   256
177
   256
178
     2
  0
DIMSTYLE
  2
AM_ISO$6
 70
     0
  3

  4
"
  5

  6

  7

 40
1.0
 41
2.5
 42
1.0
 43
10.0
 44
1.0
 45
0.0
 46
0.0
 47
0.1
 48
0.1
140
3.5
141
0.0
142
0.0
143
0.0393701
144
1.0
145
0.0
146
0.71
147
1.5
 71
     0
 72
     0
 73
     0
 74
     0
 75
     0
 76
     0
 77
     0
 78
     8
170
     0
171
     2
172
     1
173
     0
174
     0
175
     0
176
   256
177
   256
178
     2
  0
DIMSTYLE
  2
AM_ISO$7
 70
     0
  3

  4
"
  5

  6

  7

 40
1.0
 41
2.5
 42
1.0
 43
10.0
 44
1.0
 45
0.0
 46
0.0
 47
0.1
 48
0.1
140
5.0
141
0.0
142
0.0
143
0.0393701
144
1.0
145
0.0
146
0.71
147
1.5
 71
     0
 72
     0
 73
     0
 74
     0
 75
     0
 76
     0
 77
     1
 78
     8
170
     0
171
     2
172
     1
173
     0
174
     0
175
     0
176
   256
177
   256
178
     2
  0
DIMSTYLE
  2
AM_ISO$SF
 70
     0
  3

  4
"
  5

  6

  7

 40
1.0
 41
2.5
 42
1.0
 43
10.0
 44
1.0
 45
0.0
 46
0.0
 47
0.1
 48
0.1
140
3.5
141
0.0
142
0.0
143
0.0393701
144
1.0
145
0.0
146
0.71
147
1.5
 71
     0
 72
     0
 73
     0
 74
     0
 75
     1
 76
     1
 77
     1
 78
     8
170
     0
171
     2
172
     1
173
     0
174
     0
175
     0
176
   256
177
   256
178
     2
  0
DIMSTYLE
  2
AM_ISO$SH
 70
     0
  3

  4
"
  5

  6
GENAXEH
  7

 40
1.0
 41
2.5
 42
1.0
 43
10.0
 44
1.0
 45
0.0
 46
0.0
 47
0.1
 48
0.1
140
3.5
141
0.0
142
0.0
143
0.0393701
144
2.0
145
0.0
146
0.71
147
1.5
 71
     0
 72
     0
 73
     0
 74
     0
 75
     1
 76
     1
 77
     1
 78
     8
170
     0
171
     2
172
     1
173
     1
174
     0
175
     0
176
   256
177
   256
178
     2
  0
ENDTAB
  0
ENDSEC
  0
SECTION
  2
BLOCKS
  0
BLOCK
  8
0
  2
$MODEL_SPACE
 70
     0
 10
0.0
 20
0.0
 30
0.0
  3
$MODEL_SPACE
  1

  0
ENDBLK
  5
1C
  8
0
  0
BLOCK
 67
     1
  8
0
  2
$PAPER_SPACE
 70
     0
 10
0.0
 20
0.0
 30
0.0
  3
$PAPER_SPACE
  1

  0
ENDBLK
  5
19
 67
     1
  8
0
  0
BLOCK
  8
0
  2
_OPEN
 70
     0
 10
0.0
 20
0.0
 30
0.0
  3
_OPEN
  1

  0
LINE
  5
3E1A
  8
0
  6
BYBLOCK
 62
     0
 10
-1.0
 20
0.1666666666666666
 30
0.0
 11
0.0
 21
0.0
 31
0.0
  0
LINE
  5
3E1B
  8
0
  6
BYBLOCK
 62
     0
 10
-1.0
 20
-0.1666666666666666
 30
0.0
 11
0.0
 21
0.0
 31
0.0
  0
LINE
  5
3E1C
  8
0
  6
BYBLOCK
 62
     0
 10
0.0
 20
0.0
 30
0.0
 11
-1.0
 21
0.0
 31
0.0
  0
ENDBLK
  5
3E1D
  8
0
  0
BLOCK
  8
0
  2
GENAXEH
 70
     0
 10
0.0
 20
0.0
 30
0.0
  3
GENAXEH
  1

  0
LINE
  5
3E45
  8
0
 10
-1.0
 20
0.0
 30
0.0
 11
1.0
 21
0.0
 31
0.0
  0
ENDBLK
  5
3E46
  8
0
  0
ENDSEC
  0
SECTION
  2
ENTITIES
  0
LINE
  5
42BE
  8
240
  6
CONTINUOUS
 10
0.0
 20
-24.315000000000001
 30
0.0
 11
-31.999999999999972
 21
-22.714999999999971
 31
0.0
  0
CIRCLE
  5
42BF
  8
241
  6
CONTINUOUS
 10
-9.0000000000000284
 20
0.0
 30
0.0
 40
3.75
  0
LINE
  5
42C0
  8
245
  6
CENTER2
 10
106.30272588553891
 20
0.0
 30
0.0
 11
-32.000000000000071
 21
0.0
 31
0.0
  0
LINE
  5
42C1
  8
240
  6
CONTINUOUS
 10
-31.999999999999972
 20
-22.714999999999971
 30
0.0
 11
-31.999999999999989
 21
-6.2699999999998113
 31
0.0
  0
ARC
  5
42C2
  8
240
  6
CONTINUOUS
 10
-27.500000000000028
 20
-4.76999999999998
 30
0.0
 40
1.499999999999984
 50
270.0
 51
0.0
  0
LINE
  5
42C3
  8
243
  6
HIDDEN2
 10
-27.500000000000028
 20
-6.26999999999998
 30
0.0
 11
-23.500000000000028
 21
-6.26999999999998
 31
0.0
  0
LINE
  5
42C4
  8
240
  6
CONTINUOUS
 10
-31.999999999999989
 20
-6.2699999999998113
 30
0.0
 11
-27.500000000000028
 21
-6.26999999999998
 31
0.0
  0
LINE
  5
42C5
  8
240
  6
CONTINUOUS
 10
-26.000000000000028
 20
-4.76999999999998
 30
0.0
 11
-26.000000000000028
 21
4.76999999999998
 31
0.0
  0
LINE
  5
42C6
  8
243
  6
HIDDEN2
 10
-22.000000000000028
 20
-4.76999999999998
 30
0.0
 11
-22.000000000000028
 21
4.76999999999998
 31
0.0
  0
ARC
  5
42C7
  8
243
  6
HIDDEN2
 10
-23.500000000000028
 20
-4.76999999999998
 30
0.0
 40
1.499999999999984
 50
270.0
 51
0.0
  0
LINE
  5
42C8
  8
240
  6
CONTINUOUS
 10
19.874999999999972
 20
-28.897595264191828
 30
0.0
 11
21.377499074759239
 21
-31.5
 31
0.0
  0
LINE
  5
42C9
  8
240
  6
CONTINUOUS
 10
16.124999999999972
 20
-28.897595264191828
 30
0.0
 11
14.622500925240701
 21
-31.5
 31
0.0
  0
LINE
  5
42CA
  8
241
  6
CONTINUOUS
 10
21.377499074759239
 20
-24.336187047275931
 30
0.0
 11
21.377499074759239
 21
-31.5
 31
0.0
  0
LINE
  5
42CB
  8
241
  6
CONTINUOUS
 10
14.622500925240701
 20
-24.336187047275931
 30
0.0
 11
14.622500925240701
 21
-31.5
 31
0.0
  0
LINE
  5
42CC
  8
240
  6
CONTINUOUS
 10
21.377499074759239
 20
-31.5
 30
0.0
 11
25.99999999999989
 21
-31.499999999999829
 31
0.0
  0
LINE
  5
42CD
  8
240
  6
CONTINUOUS
 10
0.0
 20
-31.50000000000006
 30
0.0
 11
14.622500925240701
 21
-31.5
 31
0.0
  0
LINE
  5
42CE
  8
241
  6
CONTINUOUS
 10
12.99999999999997
 20
-8.0
 30
0.0
 11
26.00000000000006
 21
-8.0
 31
0.0
  0
LINE
  5
42CF
  8
241
  6
CONTINUOUS
 10
21.377499074759239
 20
-24.336187047275931
 30
0.0
 11
25.999999999999972
 21
-24.336187047275931
 31
0.0
  0
LINE
  5
42D0
  8
241
  6
CONTINUOUS
 10
19.874999999999972
 20
-20.0
 30
0.0
 11
25.999999999999972
 21
-20.0
 31
0.0
  0
LINE
  5
42D1
  8
240
  6
CONTINUOUS
 10
0.0
 20
-31.50000000000006
 30
0.0
 11
0.0
 21
-24.315000000000001
 31
0.0
  0
LINE
  5
42D2
  8
241
  6
CONTINUOUS
 10
4.999999999999714
 20
-24.336187047275931
 30
0.0
 11
14.622500925240701
 21
-24.336187047275931
 31
0.0
  0
ARC
  5
42D3
  8
241
  6
CONTINUOUS
 10
12.111713903655611
 20
-28.0
 30
0.0
 40
8.0
 50
90.0
 51
152.74338069083771
  0
LINE
  5
42D4
  8
241
  6
CONTINUOUS
 10
14.622500925240701
 20
-8.0
 30
0.0
 11
14.622500925240701
 21
-20.0
 31
0.0
  0
LINE
  5
42D5
  8
241
  6
CONTINUOUS
 10
16.124999999999972
 20
-8.0
 30
0.0
 11
16.124999999999972
 21
-27.5
 31
0.0
  0
LINE
  5
42D6
  8
241
  6
CONTINUOUS
 10
19.874999999999972
 20
-8.0
 30
0.0
 11
19.874999999999972
 21
-27.499999999999559
 31
0.0
  0
LINE
  5
42D7
  8
241
  6
CONTINUOUS
 10
21.377499074759239
 20
-8.0
 30
0.0
 11
21.377499074759239
 21
-20.0
 31
0.0
  0
LINE
  5
42D8
  8
241
  6
CONTINUOUS
 10
14.622500925240701
 20
-24.336187047275931
 30
0.0
 11
16.124999999999972
 21
-20.858355928812841
 31
0.0
  0
LINE
  5
42D9
  8
241
  6
CONTINUOUS
 10
12.111713903655611
 20
-20.0
 30
0.0
 11
16.124999999999972
 21
-20.0
 31
0.0
  0
LINE
  5
42DA
  8
240
  6
CONTINUOUS
 10
16.124999999999741
 20
-27.5
 30
0.0
 11
19.875000000001311
 21
-27.499999999998892
 31
0.0
  0
LINE
  5
42DB
  8
240
  6
CONTINUOUS
 10
16.124999999999741
 20
-27.5
 30
0.0
 11
16.124999999999972
 21
-28.897595264191828
 31
0.0
  0
LINE
  5
42DC
  8
240
  6
CONTINUOUS
 10
19.875000000001311
 20
-27.499999999998892
 30
0.0
 11
19.874999999999972
 21
-28.897595264191828
 31
0.0
  0
LINE
  5
42DD
  8
241
  6
CONTINUOUS
 10
21.377499074759239
 20
-24.336187047275931
 30
0.0
 11
19.874999999999972
 21
-20.858355928812841
 31
0.0
  0
LINE
  5
42DF
  8
241
  6
CONTINUOUS
 10
0.0
 20
-24.315000000000001
 30
0.0
 11
0.0
 21
24.31500000000003
 31
0.0
  0
LINE
  5
42E0
  8
240
  6
CONTINUOUS
 10
25.99999999999989
 20
-31.499999999999829
 30
0.0
 11
25.99999999999968
 21
-26.300000000000011
 31
0.0
  0
LINE
  5
42E1
  8
241
  6
CONTINUOUS
 10
26.0
 20
-26.300000000000011
 30
0.0
 11
25.99999999999968
 21
26.300000000000011
 31
0.0
  0
LINE
  5
42E2
  8
240
  6
CONTINUOUS
 10
0.0
 20
24.31500000000003
 30
0.0
 11
-31.999999999999972
 21
22.714999999999971
 31
0.0
  0
ARC
  5
42E3
  8
240
  6
CONTINUOUS
 10
-27.500000000000028
 20
4.76999999999998
 30
0.0
 40
1.499999999999984
 50
0.0
 51
90.0
  0
LINE
  5
42E4
  8
243
  6
HIDDEN2
 10
-27.500000000000028
 20
6.26999999999998
 30
0.0
 11
-23.500000000000028
 21
6.26999999999998
 31
0.0
  0
LINE
  5
42E5
  8
240
  6
CONTINUOUS
 10
-31.999999999999989
 20
6.2699999999998113
 30
0.0
 11
-27.500000000000028
 21
6.26999999999998
 31
0.0
  0
ARC
  5
42E6
  8
243
  6
HIDDEN2
 10
-23.500000000000028
 20
4.76999999999998
 30
0.0
 40
1.499999999999984
 50
0.0
 51
90.0
  0
LINE
  5
42E7
  8
240
  6
CONTINUOUS
 10
19.874999999999972
 20
28.897595264191871
 30
0.0
 11
21.377499074759239
 21
31.5
 31
0.0
  0
LINE
  5
42E8
  8
240
  6
CONTINUOUS
 10
16.124999999999972
 20
28.897595264191871
 30
0.0
 11
14.622500925240701
 21
31.5
 31
0.0
  0
LINE
  5
42E9
  8
240
  6
CONTINUOUS
 10
21.377499074759239
 20
31.5
 30
0.0
 11
25.99999999999989
 21
31.499999999999829
 31
0.0
  0
LINE
  5
42EA
  8
240
  6
CONTINUOUS
 10
0.0
 20
31.50000000000006
 30
0.0
 11
14.622500925240701
 21
31.5
 31
0.0
  0
LINE
  5
42EB
  8
241
  6
CONTINUOUS
 10
12.99999999999997
 20
8.0
 30
0.0
 11
26.00000000000006
 21
8.0
 31
0.0
  0
LINE
  5
42EC
  8
240
  6
CONTINUOUS
 10
0.0
 20
31.50000000000006
 30
0.0
 11
0.0
 21
24.31500000000003
 31
0.0
  0
LINE
  5
42ED
  8
241
  6
CONTINUOUS
 10
14.622500925240701
 20
8.0
 30
0.0
 11
14.622500925240841
 21
31.49999999999995
 31
0.0
  0
LINE
  5
42EE
  8
241
  6
CONTINUOUS
 10
16.124999999999972
 20
8.0
 30
0.0
 11
16.124999999999972
 21
27.5
 31
0.0
  0
LINE
  5
42EF
  8
241
  6
CONTINUOUS
 10
19.874999999999972
 20
8.0
 30
0.0
 11
19.874999999999972
 21
27.499999999999559
 31
0.0
  0
LINE
  5
42F0
  8
241
  6
CONTINUOUS
 10
21.377499074759239
 20
8.0
 30
0.0
 11
21.377499074759388
 21
31.49999999999989
 31
0.0
  0
LINE
  5
42F1
  8
240
  6
CONTINUOUS
 10
16.124999999999741
 20
27.5
 30
0.0
 11
19.875000000001311
 21
27.49999999999886
 31
0.0
  0
LINE
  5
42F2
  8
240
  6
CONTINUOUS
 10
16.124999999999741
 20
27.5
 30
0.0
 11
16.124999999999972
 21
28.897595264191871
 31
0.0
  0
LINE
  5
42F3
  8
240
  6
CONTINUOUS
 10
19.875000000001311
 20
27.49999999999886
 30
0.0
 11
19.874999999999972
 21
28.897595264191871
 31
0.0
  0
LINE
  5
42F4
  8
240
  6
CONTINUOUS
 10
25.99999999999989
 20
31.499999999999829
 30
0.0
 11
25.99999999999968
 21
26.300000000000011
 31
0.0
  0
LINE
  5
42F6
  8
250
  6
CONTINUOUS
 10
-18.436872775073201
 20
-25.210403317106
 30
0.0
 11
-17.0
 21
-23.465000000000028
 31
0.0
  0
LINE
  5
42F7
  8
250
  6
CONTINUOUS
 10
-17.793127224926788
 20
-25.582069983772669
 30
0.0
 11
-17.0
 21
-23.465000000000028
 31
0.0
  0
LINE
  5
42F8
  8
250
  6
CONTINUOUS
 10
-17.0
 20
-23.465000000000028
 30
0.0
 11
-18.114999999999998
 21
-25.396236650439331
 31
0.0
  0
LINE
  5
42F9
  8
250
  6
CONTINUOUS
 10
-18.114999999999998
 20
-25.396236650439331
 30
0.0
 11
-23.572223203118501
 21
-34.848424506484321
 31
0.0
  0
TEXT
  5
42FA
  8
250
  6
CONTINUOUS
 10
-45.572223203118497
 20
-33.848424506484321
 30
0.0
 40
2.799999999999998
  1
HSK-A63
  7
YOKO
1001
ITEMNAME
1000
LNSP3
  0
LINE
  5
42FB
  8
250
  6
CONTINUOUS
 10
-23.572223203118501
 20
-34.848424506484321
 30
0.0
 11
-47.838889869785127
 21
-34.848424506484321
 31
0.0
1001
ITEMNAME
1000
LNSP2
  0
LINE
  5
42FC
  8
240
  6
CONTINUOUS
 10
-31.999999999999972
 20
22.714999999999971
 30
0.0
 11
-31.999999999999989
 21
6.2699999999998113
 31
0.0
  0
LINE
  5
42FD
  8
247
  6
CONTINUOUS
 10
6.5
 20
-17.250000000070031
 30
0.0
 11
6.5
 21
-10.557692308030029
 31
0.0
  0
ARC
  5
42FE
  8
247
  6
CONTINUOUS
 10
4.7500000000699742
 20
-17.250000000070031
 30
0.0
 40
1.7499999999299991
 50
180.0
 51
0.0
  0
ARC
  5
42FF
  8
247
  6
CONTINUOUS
 10
4.7500000000699742
 20
-10.557692308030029
 30
0.0
 40
1.7499999999299991
 50
0.0
 51
180.0
  0
LINE
  5
4300
  8
247
  6
CONTINUOUS
 10
3.000000000140004
 20
-16.38461538472
 30
0.0
 11
6.0000000000200071
 21
-17.244851541962021
 31
0.0
  0
LINE
  5
4301
  8
247
  6
CONTINUOUS
 10
4.423076923160008
 20
-15.48498381833582
 30
0.0
 11
4.423076923160008
 21
-16.792676125975841
 31
0.0
  0
ARC
  5
4302
  8
247
  6
CONTINUOUS
 10
3.54959866770298
 20
-15.14514381608978
 30
0.0
 40
0.5538165441895349
 50
72.997889675291773
 51
172.92416621851359
  0
ARC
  5
4303
  8
247
  6
CONTINUOUS
 10
3.4360330444657721
 20
-15.56687832302879
 30
0.0
 40
0.9904354236226808
 50
4.7429368522022122
 51
73.849226273266297
1001
GENIUS_GENOBJ-N-FIL_13
1002
{
1000
OWNER
1000
GEN
1002
}
1001
GENIUS_GENODEF_13
1002
{
1000
HIER
1070
     0
1002
}
1002
{
1000
MANEDIT
1070
     0
1002
}
1002
{
1000
NOSEL
1070
     0
1002
}
1002
{
1000
BEHIND
1070
     0
1002
}
1002
{
1000
OTHER
1070
     0
1002
}
1002
{
1000
REACTOR
1002
}
  0
LINE
  5
4304
  8
247
  6
CONTINUOUS
 10
6.0000000000200071
 20
-15.937159234321991
 30
0.0
 11
6.0000000000200071
 21
-17.244851541962021
 31
0.0
  0
LINE
  5
4305
  8
247
  6
CONTINUOUS
 10
3.000000000140004
 20
-16.38461538472
 30
0.0
 11
3.000000000140004
 21
-15.07692307707998
 31
0.0
  0
ARC
  5
4306
  8
247
  6
CONTINUOUS
 10
4.9820242326655348
 20
-15.56091963654694
 30
0.0
 40
0.5640818586791229
 50
65.990941652528889
 51
172.26344345906909
  0
ARC
  5
4307
  8
247
  6
CONTINUOUS
 10
4.987429039186563
 20
-16.038262685347028
 30
0.0
 40
1.0176059446230981
 50
5.7019851642564632
 51
77.277338436822376
1001
GENIUS_GENOBJ-N-FIL_13
1002
{
1000
OWNER
1000
GEN
1002
}
1001
GENIUS_GENODEF_13
1002
{
1000
HIER
1070
     0
1002
}
1002
{
1000
MANEDIT
1070
     0
1002
}
1002
{
1000
NOSEL
1070
     0
1002
}
1002
{
1000
BEHIND
1070
     0
1002
}
1002
{
1000
OTHER
1070
     0
1002
}
1002
{
1000
REACTOR
1002
}
  0
LINE
  5
4308
  8
247
  6
CONTINUOUS
 10
6.0000000000200071
 20
-14.28331308054203
 30
0.0
 11
3.000000000140004
 21
-13.423076923300011
 31
0.0
  0
LINE
  5
4309
  8
247
  6
CONTINUOUS
 10
3.000000000140004
 20
-11.00000000032003
 30
0.0
 11
3.000000000140004
 21
-11.565736619456629
 31
0.0
  0
LINE
  5
430A
  8
247
  6
CONTINUOUS
 10
6.0000000000200071
 20
-12.461538461799989
 30
0.0
 11
6.0000000000200071
 21
-11.846153846440011
 31
0.0
  0
ARC
  5
430B
  8
247
  6
CONTINUOUS
 10
5.0832851359733668
 20
-10.708791209122859
 30
0.0
 40
2.2526500823422122
 50
202.35948814152559
 51
254.99324854284609
  0
ARC
  5
430C
  8
247
  6
CONTINUOUS
 10
3.8083126551945261
 20
-11.37406947921323
 30
0.0
 40
0.8906723995727782
 50
94.994589319075317
 51
155.1663289573039
1001
GENIUS_GENOBJ-N-FIL_13
1002
{
1000
OWNER
1000
GEN
1002
}
1001
GENIUS_GENODEF_13
1002
{
1000
HIER
1070
     0
1002
}
1002
{
1000
MANEDIT
1070
     0
1002
}
1002
{
1000
NOSEL
1070
     0
1002
}
1002
{
1000
BEHIND
1070
     0
1002
}
1002
{
1000
OTHER
1070
     0
1002
}
1002
{
1000
REACTOR
1002
}
  0
ARC
  5
430D
  8
247
  6
CONTINUOUS
 10
4.660145888667782
 20
-12.22645888621258
 30
0.0
 40
1.392781735586712
 50
15.8460965557808
 51
82.325137004169065
  0
ARC
  5
430E
  8
247
  6
CONTINUOUS
 10
4.9592434315272831
 20
-11.64221272584035
 30
0.0
 40
1.324563662670287
 50
249.7136016704969
 51
321.78874565641053
1001
GENIUS_GENOBJ-N-FIL_13
1002
{
1000
OWNER
1000
GEN
1002
}
1001
GENIUS_GENODEF_13
1002
{
1000
HIER
1070
     0
1002
}
1002
{
1000
MANEDIT
1070
     0
1002
}
1002
{
1000
NOSEL
1070
     0
1002
}
1002
{
1000
BEHIND
1070
     0
1002
}
1002
{
1000
OTHER
1070
     0
1002
}
1002
{
1000
REACTOR
1002
}
  0
LINE
  5
430F
  8
247
  6
CONTINUOUS
 10
4.846153846219976
 20
-11.53846153875997
 30
0.0
 11
4.846153846219976
 21
-10.84615384647998
 31
0.0
  0
ARC
  5
4310
  8
241
  6
CONTINUOUS
 10
12.99999999999997
 20
0.0
 30
0.0
 40
8.0
 50
90.0
 51
270.0
  0
LINE
  5
4311
  8
247
  6
CONTINUOUS
 10
3.000000000139976
 20
-17.250000000070031
 30
0.0
 11
3.000000000139976
 21
-16.576923077020009
 31
0.0
  0
LINE
  5
4335
  8
240
  6
CONTINUOUS
 10
25.99999999999968
 20
26.300000000000011
 30
0.0
 11
42.0
 21
26.300000000000011
 31
0.0
  0
LINE
  5
4336
  8
241
  6
CONTINUOUS
 10
56.599999999999852
 20
31.350000000001959
 30
0.0
 11
56.600000000000144
 21
-31.350000000001959
 31
0.0
  0
LINE
  5
4338
  8
241
  6
CONTINUOUS
 10
47.050000000064237
 20
-31.170359442253599
 30
0.0
 11
47.050000000064237
 21
31.350000000001959
 31
0.0
  0
LINE
  5
4339
  8
240
  6
CONTINUOUS
 10
47.050000000062958
 20
31.350000000001959
 30
0.0
 11
42.0
 21
26.300000000000011
 31
0.0
  0
LINE
  5
433A
  8
241
  6
CONTINUOUS
 10
42.0
 20
-26.299999999999692
 30
0.0
 11
42.0
 21
26.300000000000011
 31
0.0
  0
LINE
  5
433D
  8
240
  6
CONTINUOUS
 10
47.050000000062958
 20
31.350000000001959
 30
0.0
 11
61.099999999998062
 21
31.350000000001959
 31
0.0
  0
LINE
  5
433E
  8
241
  6
CONTINUOUS
 10
52.199999999996862
 20
-31.350000000000279
 30
0.0
 11
52.199999999996862
 21
31.350000000001959
 31
0.0
  0
LINE
  5
433F
  8
241
  6
CONTINUOUS
 10
50.999999754256429
 20
-31.350000000000289
 30
0.0
 11
50.999999754256443
 21
31.350000000001959
 31
0.0
  0
LINE
  5
4340
  8
240
  6
CONTINUOUS
 10
25.99999999999968
 20
-26.300000000000011
 30
0.0
 11
42.0
 21
-26.300000000000011
 31
0.0
  0
LINE
  5
4341
  8
240
  6
CONTINUOUS
 10
47.050000000062958
 20
-31.350000000001959
 30
0.0
 11
42.0
 21
-26.300000000000011
 31
0.0
  0
LINE
  5
4349
  8
240
  6
CONTINUOUS
 10
47.050000000062958
 20
-31.350000000001959
 30
0.0
 11
61.099999999997969
 21
-31.350000000001959
 31
0.0
  0
LINE
  5
43FF
  8
240
  6
CONTINUOUS
 10
103.5999999999997
 20
-19.92000000000111
 30
0.0
 11
101.5999999999991
 21
-19.920000000001629
 31
0.0
  0
LINE
  5
4400
  8
240
  6
CONTINUOUS
 10
103.60000000000031
 20
19.920000000000801
 30
0.0
 11
103.5999999999997
 21
-19.92000000000111
 31
0.0
  0
LINE
  5
4401
  8
240
  6
CONTINUOUS
 10
103.60000000000031
 20
19.920000000000801
 30
0.0
 11
101.5999999999995
 21
19.920000000001341
 31
0.0
  0
LINE
  5
4402
  8
241
  6
CONTINUOUS
 10
101.5999999999988
 20
-19.920000000008031
 30
0.0
 11
101.5999999999994
 21
19.920000000007729
 31
0.0
  0
LINE
  5
4403
  8
243
  6
HIDDEN2
 10
36.599999999999291
 20
12.69999999999993
 30
0.0
 11
103.60000000000009
 21
12.700000000000021
 31
0.0
1001
GRPNAME
1000
PASTMD3T
  0
LINE
  5
4404
  8
243
  6
HIDDEN2
 10
36.599999999999291
 20
-12.699999999999809
 30
0.0
 11
103.5999999999998
 21
-12.700000000000079
 31
0.0
1001
GRPNAME
1000
PASTMD3T
  0
LINE
  5
4405
  8
240
  6
CONTINUOUS
 10
101.5999999999995
 20
24.698019036063069
 30
0.0
 11
101.5999999999995
 21
19.920000000001341
 31
0.0
  0
ARC
  5
4406
  8
240
  6
CONTINUOUS
 10
98.599999999999525
 20
-24.698019036063151
 30
0.0
 40
3.0
 50
284.9999999999996
 51
0.0
1001
ASK_MEN_XD
1005
4407
1070
     1
1005
4405
1070
     1
  0
LINE
  5
4407
  8
240
  6
CONTINUOUS
 10
99.376457135307092
 20
-27.595796514930331
 30
0.0
 11
90.590450117670841
 21
-29.950000000000241
 31
0.0
  0
LINE
  5
4408
  8
241
  6
CONTINUOUS
 10
90.590450117670841
 20
-29.950000000000241
 30
0.0
 11
90.590450117671026
 21
29.950000000000269
 31
0.0
  0
LINE
  5
4409
  8
241
  6
CONTINUOUS
 10
61.100000000000023
 20
-31.350000000000168
 30
0.0
 11
61.100000000000051
 21
31.35000000000019
 31
0.0
  0
LINE
  5
440A
  8
240
  6
CONTINUOUS
 10
61.449999999993757
 20
-31.000000000000028
 30
0.0
 11
78.381346652047299
 21
-31.0
 31
0.0
  0
LINE
  5
440B
  8
240
  6
CONTINUOUS
 10
61.449999999993757
 20
-31.000000000000028
 30
0.0
 11
61.099999999997969
 21
-31.350000000001959
 31
0.0
1001
GRPNAME
1000
PASTMD1P
  0
LINE
  5
440C
  8
240
  6
CONTINUOUS
 10
90.590450117670144
 20
-29.950000000000301
 30
0.0
 11
80.467949192431945
 21
-29.949999999999928
 31
0.0
  0
ARC
  5
440D
  8
240
  6
CONTINUOUS
 10
80.467949192431917
 20
-30.949999999999928
 30
0.0
 40
1.0
 50
89.999999999997556
 51
119.9999999999078
  0
LINE
  5
440E
  8
241
  6
CONTINUOUS
 10
80.199999999999491
 20
-29.949999999999928
 30
0.0
 11
80.199999999999562
 21
29.950000000001008
 31
0.0
  0
LINE
  5
440F
  8
240
  6
CONTINUOUS
 10
79.967949192433309
 20
-30.083974596214691
 30
0.0
 11
78.381346652052287
 21
-30.99999999999719
 31
0.0
  0
LINE
  5
4410
  8
241
  6
CONTINUOUS
 10
78.381346652052287
 20
-30.99999999999719
 30
0.0
 11
78.381346652052287
 21
30.999999999997499
 31
0.0
  0
ARC
  5
4411
  8
240
  6
CONTINUOUS
 10
98.599999999999525
 20
24.698019036063069
 30
0.0
 40
3.0
 50
0.0
 51
75.000000000000469
1001
ASK_MEN_XD
1005
4407
1070
     1
1005
4405
1070
     1
  0
LINE
  5
4412
  8
240
  6
CONTINUOUS
 10
99.376457135307092
 20
27.595796514930271
 30
0.0
 11
90.590450117670869
 21
29.95000000000022
 31
0.0
  0
LINE
  5
4413
  8
240
  6
CONTINUOUS
 10
61.449999999993842
 20
31.00000000000006
 30
0.0
 11
78.381346652047981
 21
31.0
 31
0.0
  0
LINE
  5
4414
  8
240
  6
CONTINUOUS
 10
61.449999999993842
 20
31.00000000000006
 30
0.0
 11
61.099999999998062
 21
31.350000000001959
 31
0.0
1001
GRPNAME
1000
PASTMD1P
  0
LINE
  5
4415
  8
240
  6
CONTINUOUS
 10
90.590450117670244
 20
29.950000000000269
 30
0.0
 11
80.467949192431604
 21
29.949999999999928
 31
0.0
  0
ARC
  5
4416
  8
240
  6
CONTINUOUS
 10
80.467949192431604
 20
30.949999999999928
 30
0.0
 40
1.0
 50
240.00000000007901
 51
270.00000000000171
  0
LINE
  5
4417
  8
240
  6
CONTINUOUS
 10
79.967949192432769
 20
30.083974596214802
 30
0.0
 11
78.381346652047981
 21
31.0
 31
0.0
  0
LINE
  5
4418
  8
250
  6
CONTINUOUS
 10
121.5999999999995
 20
-12.70000000000006
 30
0.0
 11
104.0999999999998
 21
-12.70000000000006
 31
0.0
  0
LINE
  5
4419
  8
250
  6
CONTINUOUS
 10
121.5999999999995
 20
12.700000000000021
 30
0.0
 11
104.10000000000019
 21
12.700000000000021
 31
0.0
  0
LINE
  5
441A
  8
250
  6
CONTINUOUS
 10
120.5999999999995
 20
-12.70000000000006
 30
0.0
 11
120.5999999999995
 21
12.700000000000029
 31
0.0
  0
INSERT
  5
441B
  8
250
  6
CONTINUOUS
  2
_OPEN
 10
120.5999999999995
 20
-12.70000000000006
 30
0.0
 41
2.0
 42
2.0
 43
2.0
 50
270.0
  0
INSERT
  5
441C
  8
250
  6
CONTINUOUS
  2
_OPEN
 10
120.5999999999995
 20
12.700000000000021
 30
0.0
 41
2.0
 42
2.0
 43
2.0
 50
90.0
  0
LINE
  5
441E
  8
250
  6
CONTINUOUS
 10
78.881346652047299
 20
-31.0
 30
0.0
 11
128.59999999999951
 21
-31.000000000000028
 31
0.0
  0
LINE
  5
441F
  8
250
  6
CONTINUOUS
 10
78.881346652052315
 20
30.999999999997499
 30
0.0
 11
128.59999999999951
 21
30.99999999999747
 31
0.0
  0
LINE
  5
4420
  8
250
  6
CONTINUOUS
 10
127.5999999999995
 20
-29.000000000000021
 30
0.0
 11
127.5999999999995
 21
28.999999999997488
 31
0.0
  0
INSERT
  5
4421
  8
250
  6
CONTINUOUS
  2
_OPEN
 10
127.5999999999995
 20
-31.000000000000028
 30
0.0
 41
2.0
 42
2.0
 43
2.0
 50
270.0
  0
INSERT
  5
4422
  8
250
  6
CONTINUOUS
  2
_OPEN
 10
127.5999999999995
 20
30.99999999999747
 30
0.0
 41
2.0
 42
2.0
 43
2.0
 50
90.0
  0
LINE
  5
4424
  8
240
  6
CONTINUOUS
 10
101.5999999999995
 20
-24.698019036063151
 30
0.0
 11
101.5999999999995
 21
-19.920000000001391
 31
0.0
  0
TEXT
  5
4425
  8
250
  6
CONTINUOUS
 10
106.3492711759352
 20
16.113517841677851
 30
0.0
 40
2.799999999999998
  1
Coolant
  7
YOKO
 11
106.3492711759352
 21
16.113517841677851
 31
0.0
 73
     1
  0
LINE
  5
4426
  8
250
  6
CONTINUOUS
 10
119.8785622841549
 20
14.871666666666981
 30
0.0
 11
122.1085622841549
 21
14.500000000000311
 31
0.0
  0
LINE
  5
4427
  8
250
  6
CONTINUOUS
 10
119.8785622841549
 20
14.128333333333639
 30
0.0
 11
122.1085622841549
 21
14.500000000000311
 31
0.0
  0
LINE
  5
4428
  8
250
  6
CONTINUOUS
 10
122.1085622841549
 20
14.500000000000311
 30
0.0
 11
119.8785622841549
 21
14.500000000000311
 31
0.0
  0
LINE
  5
4429
  8
250
  6
CONTINUOUS
 10
119.8785622841549
 20
14.500000000000311
 30
0.0
 11
106.5999999999992
 21
14.500000000000311
 31
0.0
  0
LINE
  5
442A
  8
250
  6
CONTINUOUS
 10
119.878562284155
 20
-14.128333333333639
 30
0.0
 11
122.108562284155
 21
-14.500000000000311
 31
0.0
  0
LINE
  5
442B
  8
250
  6
CONTINUOUS
 10
119.878562284155
 20
-14.871666666666981
 30
0.0
 11
122.108562284155
 21
-14.500000000000311
 31
0.0
  0
LINE
  5
442C
  8
250
  6
CONTINUOUS
 10
122.108562284155
 20
-14.500000000000311
 30
0.0
 11
119.878562284155
 21
-14.500000000000311
 31
0.0
  0
LINE
  5
442D
  8
250
  6
CONTINUOUS
 10
119.878562284155
 20
-14.500000000000311
 30
0.0
 11
106.5999999999993
 21
-14.500000000000311
 31
0.0
  0
TEXT
  5
442E
  8
250
  6
CONTINUOUS
 10
106.1869008417919
 20
-19.315545675999669
 30
0.0
 40
2.799999999999998
  1
Coolant
  7
YOKO
 11
106.1869008417919
 21
-19.315545675999669
 31
0.0
 73
     1
  0
TEXT
  5
44BC
  8
250
  6
CONTINUOUS
 10
119.57540711126801
 20
-6.9326113701878942
 30
0.0
 40
2.799999999999998
  1
\U+2205
 50
90.0
  0
TEXT
  5
44BD
  8
250
  6
CONTINUOUS
 10
119.57540711126801
 20
-4.3992780368545574
 30
0.0
 40
2.799999999999998
  1
1.000
 50
90.0
  0
TEXT
  5
44BE
  8
250
  6
CONTINUOUS
 10
126.57540711126801
 20
-6.9326113701891297
 30
0.0
 40
2.799999999999998
  1
\U+2205
 50
90.0
  0
TEXT
  5
44BF
  8
250
  6
CONTINUOUS
 10
126.57540711126801
 20
-4.3992780368557947
 30
0.0
 40
2.799999999999998
  1
2.441
 50
90.0
  0
TEXT
  5
4556
  8
241
  6
CONTINUOUS
 10
-35.0
 20
63.0
 30
0.0
 40
5.0
  1
HSK-A63-MEGA1.000DS-4A
  7
YOKO
 11
-35.0
 21
63.0
 31
0.0
 73
     1
  0
LINE
  5
4569
  8
250
  6
CONTINUOUS
 10
25.099999999999859
 20
13.499999999999741
 30
0.0
 11
25.099999999999859
 21
42.99999999999995
 31
0.0
  0
LINE
  5
456A
  8
250
  6
CONTINUOUS
 10
103.60000000000031
 20
20.420000000000812
 30
0.0
 11
103.60000000000031
 21
42.99999999999995
 31
0.0
  0
LINE
  5
456B
  8
250
  6
CONTINUOUS
 10
27.329999999999849
 20
41.999999999999943
 30
0.0
 11
101.3700000000003
 21
41.999999999999943
 31
0.0
  0
LINE
  5
456F
  8
250
  6
CONTINUOUS
 10
0.0
 20
32.000000000000057
 30
0.0
 11
0.0000000000000011
 21
50.0
 31
0.0
  0
LINE
  5
4570
  8
250
  6
CONTINUOUS
 10
103.60000000000031
 20
20.420000000000812
 30
0.0
 11
103.60000000000031
 21
50.0
 31
0.0
  0
LINE
  5
4571
  8
250
  6
CONTINUOUS
 10
2.23
 20
49.0
 30
0.0
 11
101.3700000000003
 21
49.0
 31
0.0
  0
TEXT
  5
4575
  8
250
  6
CONTINUOUS
 10
52.293002951378362
 20
43.312997029258163
 30
0.0
 40
2.7999999999999989
  1
(max.3.09)
  0
LINE
  5
4576
  8
250
  6
CONTINUOUS
 10
101.3700000000003
 20
42.37166666666662
 30
0.0
 11
103.60000000000031
 21
41.999999999999943
 31
0.0
  0
LINE
  5
4577
  8
250
  6
CONTINUOUS
 10
101.3700000000003
 20
41.628333333333281
 30
0.0
 11
103.60000000000031
 21
41.999999999999943
 31
0.0
  0
LINE
  5
4578
  8
250
  6
CONTINUOUS
 10
103.60000000000031
 20
41.999999999999943
 30
0.0
 11
101.3700000000003
 21
41.999999999999943
 31
0.0
  0
LINE
  5
4579
  8
250
  6
CONTINUOUS
 10
27.329999999999849
 20
41.628333333333281
 30
0.0
 11
25.099999999999859
 21
41.999999999999943
 31
0.0
  0
LINE
  5
457A
  8
250
  6
CONTINUOUS
 10
27.329999999999849
 20
42.37166666666662
 30
0.0
 11
25.099999999999859
 21
41.999999999999943
 31
0.0
  0
LINE
  5
457B
  8
250
  6
CONTINUOUS
 10
25.099999999999859
 20
41.999999999999943
 30
0.0
 11
27.329999999999849
 21
41.999999999999943
 31
0.0
  0
TEXT
  5
457C
  8
250
  6
CONTINUOUS
 10
45.866666666666809
 20
50.0
 30
0.0
 40
2.7999999999999989
  1
4.08
  0
LINE
  5
457D
  8
250
  6
CONTINUOUS
 10
101.3700000000003
 20
49.37166666666667
 30
0.0
 11
103.60000000000031
 21
49.0
 31
0.0
  0
LINE
  5
457E
  8
250
  6
CONTINUOUS
 10
101.3700000000003
 20
48.62833333333333
 30
0.0
 11
103.60000000000031
 21
49.0
 31
0.0
  0
LINE
  5
457F
  8
250
  6
CONTINUOUS
 10
103.60000000000031
 20
49.0
 30
0.0
 11
101.3700000000003
 21
49.0
 31
0.0
  0
LINE
  5
4580
  8
250
  6
CONTINUOUS
 10
2.23
 20
48.62833333333333
 30
0.0
 11
0.0000000000000011
 21
49.0
 31
0.0
  0
LINE
  5
4581
  8
250
  6
CONTINUOUS
 10
2.23
 20
49.37166666666667
 30
0.0
 11
0.0000000000000011
 21
49.0
 31
0.0
  0
LINE
  5
4582
  8
250
  6
CONTINUOUS
 10
0.0000000000000011
 20
49.0
 30
0.0
 11
2.23
 21
49.0
 31
0.0
  0
VIEWPORT
  5
22
 67
     1
  8
0
 10
261.51769911504419
 20
148.5
 30
0.0
 40
523.0353982300885
 41
297.0
 68
     1
 69
     1
1001
ACAD
1000
MVIEW
1002
{
1070
    16
1010
0.0
1020
0.0
1030
0.0
1010
0.0
1020
0.0
1030
1.0
1040
0.0
1040
297.0
1040
261.51769911504419
1040
148.5
1040
50.0
1040
0.0
1040
0.0
1070
     0
1070
   100
1070
     1
1070
     1
1070
     0
1070
     0
1070
     0
1070
     0
1040
0.0
1040
0.0
1040
0.0
1040
1.0
1040
1.0
1040
10.0
1040
10.0
1070
     0
1002
{
1002
}
1002
}
1001
GENIUS_GENODEF_13
1002
{
1000
HIER
1070
     0
1002
}
1002
{
1000
MANEDIT
1070
     0
1002
}
1002
{
1000
NOSEL
1070
     0
1002
}
1002
{
1000
BEHIND
1070
     0
1002
}
1002
{
1000
OTHER
1070
     0
1002
}
1002
{
1000
REACTOR
1002
}
1001
GENIUS_GENOBJ-N-SDF_13
1002
{
1000
OWNER
1000
GEN
1002
}
1001
GENIUS_GENSCREG_15
1000
PF
1040
1.0
1000
DF
1040
1.0
1000
MIN
1011
0.0
1021
0.0
1031
0.0
1021
0.0
1031
0.0
1000
MAX
1011
523.0353982300885
1021
0.0
1031
0.0
1021
297.0
1031
0.0
1000
FLAGS
1070
     4
  0
ENDSEC
  0
EOF
