ISO-10303-21;
HEADER;
FILE_DESCRIPTION((''),'1');
FILE_NAME('//Big_tech03/bigt/Translate/21_\X2\8F2A90ED7DDA\X0\-DXF/71_\X2\5207524A5DE55177\X0\/01_\X2\30A830F330C930DF30EB52A05DE5\X0\/02_\X2\30D530EB30AB30C330C830DF30EB\X0\ FCR/HSK/A 63/HSK-A63-FCR32102L-135.stp','2012-05-31T06:18:58',(''),(''),'Spatial Interop R18','Kubotek KeyCreator V8.5.1 (14335)',' ');
FILE_SCHEMA(('CONFIG_CONTROL_DESIGN'));
ENDSEC;
DATA;
#1=DESIGN_CONTEXT('',#27,'design');
#2=APPLICATION_PROTOCOL_DEFINITION('INTERNATIONAL STANDARD','config_control_design',1994,#27);
#3=PRODUCT_CATEGORY_RELATIONSHIP('NONE','NONE',#28,#29);
#4=DATE_AND_TIME(#30,#31);
#5=DATE_TIME_ROLE('creation_date');
#6=DATE_TIME_ROLE('classification_date');
#7=PERSON_AND_ORGANIZATION_ROLE('creator');
#8=PERSON_AND_ORGANIZATION_ROLE('design_supplier');
#9=PERSON_AND_ORGANIZATION_ROLE('classification_officer');
#10=PERSON_AND_ORGANIZATION_ROLE('design_owner');
#11=APPROVAL_PERSON_ORGANIZATION(#32,#33,#34);
#12=APPROVAL_DATE_TIME(#4,#33);
#13=CC_DESIGN_APPROVAL(#33,(#35,#36,#37));
#14=CC_DESIGN_DATE_AND_TIME_ASSIGNMENT(#4,#5,(#37));
#15=CC_DESIGN_DATE_AND_TIME_ASSIGNMENT(#4,#6,(#35));
#16=CC_DESIGN_PERSON_AND_ORGANIZATION_ASSIGNMENT(#32,#10,(#38));
#17=CC_DESIGN_PERSON_AND_ORGANIZATION_ASSIGNMENT(#32,#7,(#37));
#18=CC_DESIGN_PERSON_AND_ORGANIZATION_ASSIGNMENT(#32,#7,(#36));
#19=CC_DESIGN_PERSON_AND_ORGANIZATION_ASSIGNMENT(#32,#8,(#36));
#20=CC_DESIGN_SECURITY_CLASSIFICATION(#35,(#36));
#21=CC_DESIGN_PERSON_AND_ORGANIZATION_ASSIGNMENT(#32,#9,(#35));
#22=SHAPE_DEFINITION_REPRESENTATION(#39,#40);
#23= (GEOMETRIC_REPRESENTATION_CONTEXT(3)GLOBAL_UNCERTAINTY_ASSIGNED_CONTEXT((#43))GLOBAL_UNIT_ASSIGNED_CONTEXT((#45,#46,#47))REPRESENTATION_CONTEXT('NONE','WORKSPACE'));
#27=APPLICATION_CONTEXT('CONFIGURATION CONTROLLED 3D DESIGNS OF MECHANICAL PARTS AND ASSEMBLIES');
#28=PRODUCT_CATEGORY('part','NONE');
#29=PRODUCT_RELATED_PRODUCT_CATEGORY('detail',' ',(#38));
#30=CALENDAR_DATE(2012,31,4);
#31=LOCAL_TIME(15,18,58.0,#49);
#32=PERSON_AND_ORGANIZATION(#50,#51);
#33=APPROVAL(#52,'SOLID MODEL');
#34=APPROVAL_ROLE('APPROVED');
#35=SECURITY_CLASSIFICATION('','',#53);
#36=PRODUCT_DEFINITION_FORMATION_WITH_SPECIFIED_SOURCE(' ','NONE',#38,.NOT_KNOWN.);
#37=PRODUCT_DEFINITION('NONE','NONE',#36,#1);
#38=PRODUCT('1','1','PART-1-DESC',(#54));
#39=PRODUCT_DEFINITION_SHAPE('NONE','NONE',#37);
#40=ADVANCED_BREP_SHAPE_REPRESENTATION('1',(#55,#56),#23);
#43=UNCERTAINTY_MEASURE_WITH_UNIT(LENGTH_MEASURE(1.0E-006),#45,'','');
#45= (CONVERSION_BASED_UNIT('MILLIMETRE',#59)LENGTH_UNIT()NAMED_UNIT(#62));
#46= (NAMED_UNIT(#64)PLANE_ANGLE_UNIT()SI_UNIT($,.RADIAN.));
#47= (NAMED_UNIT(#64)SOLID_ANGLE_UNIT()SI_UNIT($,.STERADIAN.));
#49=COORDINATED_UNIVERSAL_TIME_OFFSET(9,0,.AHEAD.);
#50=PERSON('','UNSPECIFIED',$,$,$,$);
#51=ORGANIZATION('UNSPECIFIED','UNSPECIFIED','UNSPECIFIED');
#52=APPROVAL_STATUS('approved');
#53=SECURITY_CLASSIFICATION_LEVEL('unclassified');
#54=MECHANICAL_CONTEXT('',#27,'mechanical');
#55=MANIFOLD_SOLID_BREP('1',#70);
#56=AXIS2_PLACEMENT_3D('',#71,#72,#73);
#59=LENGTH_MEASURE_WITH_UNIT(LENGTH_MEASURE(1.0),#74);
#62=DIMENSIONAL_EXPONENTS(1.0,0.0,0.0,0.0,0.0,0.0,0.0);
#64=DIMENSIONAL_EXPONENTS(0.0,0.0,0.0,0.0,0.0,0.0,0.0);
#70=CLOSED_SHELL('',(#75,#76,#77,#78,#79,#80,#81,#82,#83,#84,#85,#86,#87,#88,#89,#90,#91,#92,#93,#94));
#71=CARTESIAN_POINT('',(0.0,0.0,0.0));
#72=DIRECTION('',(0.0,0.0,1.0));
#73=DIRECTION('',(1.0,0.0,0.0));
#74= (NAMED_UNIT(#62)LENGTH_UNIT()SI_UNIT(.MILLI.,.METRE.));
#75=ADVANCED_FACE('',(#96,#97),#98,.T.);
#76=ADVANCED_FACE('',(#99,#100),#101,.T.);
#77=ADVANCED_FACE('',(#102,#103),#104,.T.);
#78=ADVANCED_FACE('',(#105),#106,.T.);
#79=ADVANCED_FACE('',(#107,#108),#109,.T.);
#80=ADVANCED_FACE('',(#110,#111),#112,.T.);
#81=ADVANCED_FACE('',(#113,#114),#115,.T.);
#82=ADVANCED_FACE('',(#116,#117),#118,.T.);
#83=ADVANCED_FACE('',(#119,#120),#121,.T.);
#84=ADVANCED_FACE('',(#122,#123),#124,.T.);
#85=ADVANCED_FACE('',(#125,#126),#127,.T.);
#86=ADVANCED_FACE('',(#128,#129),#130,.T.);
#87=ADVANCED_FACE('',(#131,#132),#133,.T.);
#88=ADVANCED_FACE('',(#134,#135),#136,.T.);
#89=ADVANCED_FACE('',(#137,#138),#139,.T.);
#90=ADVANCED_FACE('',(#140,#141),#142,.T.);
#91=ADVANCED_FACE('',(#143,#144),#145,.T.);
#92=ADVANCED_FACE('',(#146,#147),#148,.T.);
#93=ADVANCED_FACE('',(#149),#150,.T.);
#94=ADVANCED_FACE('',(#151,#152),#153,.T.);
#96=FACE_BOUND('',#154,.T.);
#97=FACE_BOUND('',#155,.T.);
#98=CYLINDRICAL_SURFACE('',#156,15.25);
#99=FACE_BOUND('',#157,.T.);
#100=FACE_BOUND('',#158,.T.);
#101=CONICAL_SURFACE('',#159,15.625,0.287865885212124);
#102=FACE_BOUND('',#160,.T.);
#103=FACE_BOUND('',#161,.T.);
#104=CYLINDRICAL_SURFACE('',#162,16.0);
#105=FACE_OUTER_BOUND('',#163,.T.);
#106=PLANE('',#164);
#107=FACE_BOUND('',#165,.T.);
#108=FACE_BOUND('',#166,.T.);
#109=CONICAL_SURFACE('',#167,15.507244895,0.0677510882293529);
#110=FACE_OUTER_BOUND('',#168,.T.);
#111=FACE_BOUND('',#169,.T.);
#112=PLANE('',#170);
#113=FACE_BOUND('',#171,.T.);
#114=FACE_BOUND('',#172,.T.);
#115=CYLINDRICAL_SURFACE('',#173,31.5);
#116=FACE_BOUND('',#174,.T.);
#117=FACE_BOUND('',#175,.T.);
#118=CONICAL_SURFACE('',#176,30.19879763,1.04719755326565);
#119=FACE_BOUND('',#177,.T.);
#120=FACE_OUTER_BOUND('',#178,.T.);
#121=PLANE('',#179);
#122=FACE_BOUND('',#180,.T.);
#123=FACE_BOUND('',#181,.T.);
#124=CYLINDRICAL_SURFACE('',#182,27.5);
#125=FACE_OUTER_BOUND('',#183,.T.);
#126=FACE_BOUND('',#184,.T.);
#127=PLANE('',#185);
#128=FACE_BOUND('',#186,.T.);
#129=FACE_BOUND('',#187,.T.);
#130=CONICAL_SURFACE('',#188,30.19879763,1.04719755326565);
#131=FACE_BOUND('',#189,.T.);
#132=FACE_BOUND('',#190,.T.);
#133=CYLINDRICAL_SURFACE('',#191,31.5);
#134=FACE_BOUND('',#192,.T.);
#135=FACE_OUTER_BOUND('',#193,.T.);
#136=PLANE('',#194);
#137=FACE_BOUND('',#195,.T.);
#138=FACE_BOUND('',#196,.T.);
#139=CYLINDRICAL_SURFACE('',#197,26.3);
#140=FACE_BOUND('',#198,.T.);
#141=FACE_OUTER_BOUND('',#199,.T.);
#142=PLANE('',#200);
#143=FACE_BOUND('',#201,.T.);
#144=FACE_BOUND('',#202,.T.);
#145=CONICAL_SURFACE('',#203,20.53429932,0.878131392529428);
#146=FACE_BOUND('',#204,.T.);
#147=FACE_BOUND('',#205,.T.);
#148=CONICAL_SURFACE('',#206,17.166544215,0.185466459168615);
#149=FACE_OUTER_BOUND('',#207,.T.);
#150=PLANE('',#208);
#151=FACE_BOUND('',#209,.T.);
#152=FACE_BOUND('',#210,.T.);
#153=CONICAL_SURFACE('',#211,23.5149999985447,0.0499583958256321);
#154=EDGE_LOOP('',(#212));
#155=EDGE_LOOP('',(#213));
#156=AXIS2_PLACEMENT_3D('',#214,#215,#216);
#157=EDGE_LOOP('',(#217));
#158=EDGE_LOOP('',(#218));
#159=AXIS2_PLACEMENT_3D('',#219,#220,#221);
#160=EDGE_LOOP('',(#222));
#161=EDGE_LOOP('',(#223));
#162=AXIS2_PLACEMENT_3D('',#224,#225,#226);
#163=EDGE_LOOP('',(#227));
#164=AXIS2_PLACEMENT_3D('',#228,#229,#230);
#165=EDGE_LOOP('',(#231));
#166=EDGE_LOOP('',(#232));
#167=AXIS2_PLACEMENT_3D('',#233,#234,#235);
#168=EDGE_LOOP('',(#236));
#169=EDGE_LOOP('',(#237));
#170=AXIS2_PLACEMENT_3D('',#238,#239,#240);
#171=EDGE_LOOP('',(#241));
#172=EDGE_LOOP('',(#242));
#173=AXIS2_PLACEMENT_3D('',#243,#244,#245);
#174=EDGE_LOOP('',(#246));
#175=EDGE_LOOP('',(#247));
#176=AXIS2_PLACEMENT_3D('',#248,#249,#250);
#177=EDGE_LOOP('',(#251));
#178=EDGE_LOOP('',(#252));
#179=AXIS2_PLACEMENT_3D('',#253,#254,#255);
#180=EDGE_LOOP('',(#256));
#181=EDGE_LOOP('',(#257));
#182=AXIS2_PLACEMENT_3D('',#258,#259,#260);
#183=EDGE_LOOP('',(#261));
#184=EDGE_LOOP('',(#262));
#185=AXIS2_PLACEMENT_3D('',#263,#264,#265);
#186=EDGE_LOOP('',(#266));
#187=EDGE_LOOP('',(#267));
#188=AXIS2_PLACEMENT_3D('',#268,#269,#270);
#189=EDGE_LOOP('',(#271));
#190=EDGE_LOOP('',(#272));
#191=AXIS2_PLACEMENT_3D('',#273,#274,#275);
#192=EDGE_LOOP('',(#276));
#193=EDGE_LOOP('',(#277));
#194=AXIS2_PLACEMENT_3D('',#278,#279,#280);
#195=EDGE_LOOP('',(#281));
#196=EDGE_LOOP('',(#282));
#197=AXIS2_PLACEMENT_3D('',#283,#284,#285);
#198=EDGE_LOOP('',(#286));
#199=EDGE_LOOP('',(#287));
#200=AXIS2_PLACEMENT_3D('',#288,#289,#290);
#201=EDGE_LOOP('',(#291));
#202=EDGE_LOOP('',(#292));
#203=AXIS2_PLACEMENT_3D('',#293,#294,#295);
#204=EDGE_LOOP('',(#296));
#205=EDGE_LOOP('',(#297));
#206=AXIS2_PLACEMENT_3D('',#298,#299,#300);
#207=EDGE_LOOP('',(#301));
#208=AXIS2_PLACEMENT_3D('',#302,#303,#304);
#209=EDGE_LOOP('',(#305));
#210=EDGE_LOOP('',(#306));
#211=AXIS2_PLACEMENT_3D('',#307,#308,#309);
#212=ORIENTED_EDGE('',*,*,#310,.F.);
#213=ORIENTED_EDGE('',*,*,#311,.T.);
#214=CARTESIAN_POINT('',(5.58001240857328E-015,1.11600248171466E-014,-91.1285182382104));
#215=DIRECTION('',(-6.12323399573677E-017,-1.22464679914735E-016,1.0));
#216=DIRECTION('',(-1.23259516440783E-032,1.0,1.22464679914735E-016));
#217=ORIENTED_EDGE('',*,*,#312,.F.);
#218=ORIENTED_EDGE('',*,*,#310,.T.);
#219=CARTESIAN_POINT('',(7.57649134667727E-015,1.51529826933545E-014,-123.73349364));
#220=DIRECTION('',(6.12323399573677E-017,1.22464679914735E-016,-1.0));
#221=DIRECTION('',(-1.23259516440783E-032,1.0,1.22464679914735E-016));
#222=ORIENTED_EDGE('',*,*,#313,.F.);
#223=ORIENTED_EDGE('',*,*,#312,.T.);
#224=CARTESIAN_POINT('',(7.9602041944578E-015,1.59204083889156E-014,-130.0));
#225=DIRECTION('',(-6.12323399573677E-017,-1.22464679914735E-016,1.0));
#226=DIRECTION('',(-1.23259516440783E-032,1.0,1.22464679914735E-016));
#227=ORIENTED_EDGE('',*,*,#313,.T.);
#228=CARTESIAN_POINT('',(8.26636589424463E-015,8.00000000000002,-135.0));
#229=DIRECTION('',(6.12323399573677E-017,1.22464679914735E-016,-1.0));
#230=DIRECTION('',(-1.23259516440783E-032,1.0,1.22464679914735E-016));
#231=ORIENTED_EDGE('',*,*,#311,.F.);
#232=ORIENTED_EDGE('',*,*,#314,.T.);
#233=CARTESIAN_POINT('',(3.42894667527199E-015,6.85789335054398E-015,-55.9989488832104));
#234=DIRECTION('',(-6.12323399573677E-017,-1.22464679914735E-016,1.0));
#235=DIRECTION('',(-1.23259516440783E-032,1.0,1.22464679914735E-016));
#236=ORIENTED_EDGE('',*,*,#315,.F.);
#237=ORIENTED_EDGE('',*,*,#316,.T.);
#238=CARTESIAN_POINT('',(-3.40924878510528E-031,27.907500000104,3.36768305473321E-015));
#239=DIRECTION('',(-6.12323399573677E-017,-1.08546795432774E-016,1.0));
#240=DIRECTION('',(1.14737270099915E-032,-1.0,-1.08546795432774E-016));
#241=ORIENTED_EDGE('',*,*,#317,.F.);
#242=ORIENTED_EDGE('',*,*,#315,.T.);
#243=CARTESIAN_POINT('',(4.47684973986342E-016,8.95369947972684E-016,-7.311250465));
#244=DIRECTION('',(-6.12323399573677E-017,-1.22464679914735E-016,1.0));
#245=DIRECTION('',(-1.23259516440783E-032,1.0,1.22464679914735E-016));
#246=ORIENTED_EDGE('',*,*,#318,.F.);
#247=ORIENTED_EDGE('',*,*,#317,.T.);
#248=CARTESIAN_POINT('',(9.41370714892619E-016,1.88274142978524E-015,-15.373750465));
#249=DIRECTION('',(-6.12323399573677E-017,-1.22464679914735E-016,1.0));
#250=DIRECTION('',(-1.23259516440783E-032,1.0,1.22464679914735E-016));
#251=ORIENTED_EDGE('',*,*,#319,.F.);
#252=ORIENTED_EDGE('',*,*,#318,.T.);
#253=CARTESIAN_POINT('',(9.87371481812553E-016,28.19879763,-16.125));
#254=DIRECTION('',(6.12323399573677E-017,1.22464679914735E-016,-1.0));
#255=DIRECTION('',(-1.23259516440783E-032,1.0,1.22464679914735E-016));
#256=ORIENTED_EDGE('',*,*,#320,.F.);
#257=ORIENTED_EDGE('',*,*,#319,.T.);
#258=CARTESIAN_POINT('',(1.10218211923262E-015,2.20436423846524E-015,-18.0));
#259=DIRECTION('',(-6.12323399573677E-017,-1.22464679914735E-016,1.0));
#260=DIRECTION('',(-1.23259516440783E-032,1.0,1.22464679914735E-016));
#261=ORIENTED_EDGE('',*,*,#321,.F.);
#262=ORIENTED_EDGE('',*,*,#320,.T.);
#263=CARTESIAN_POINT('',(1.21699275665268E-015,28.19879763,-19.875));
#264=DIRECTION('',(-6.12323399573677E-017,-1.22464679914735E-016,1.0));
#265=DIRECTION('',(1.23259516440783E-032,-1.0,-1.22464679914735E-016));
#266=ORIENTED_EDGE('',*,*,#322,.F.);
#267=ORIENTED_EDGE('',*,*,#321,.T.);
#268=CARTESIAN_POINT('',(1.26299352357262E-015,2.52598704714523E-015,-20.626249535));
#269=DIRECTION('',(6.12323399573677E-017,1.22464679914735E-016,-1.0));
#270=DIRECTION('',(-1.23259516440783E-032,1.0,1.22464679914735E-016));
#271=ORIENTED_EDGE('',*,*,#323,.F.);
#272=ORIENTED_EDGE('',*,*,#322,.T.);
#273=CARTESIAN_POINT('',(1.45051756469206E-015,2.90103512938411E-015,-23.688749535));
#274=DIRECTION('',(-6.12323399573677E-017,-1.22464679914735E-016,1.0));
#275=DIRECTION('',(-1.23259516440783E-032,1.0,1.22464679914735E-016));
#276=ORIENTED_EDGE('',*,*,#324,.F.);
#277=ORIENTED_EDGE('',*,*,#323,.T.);
#278=CARTESIAN_POINT('',(1.59204083889156E-015,28.9,-26.0));
#279=DIRECTION('',(6.12323399573677E-017,1.22464679914735E-016,-1.0));
#280=DIRECTION('',(-1.23259516440783E-032,1.0,1.22464679914735E-016));
#281=ORIENTED_EDGE('',*,*,#325,.F.);
#282=ORIENTED_EDGE('',*,*,#324,.T.);
#283=CARTESIAN_POINT('',(1.83697019872103E-015,3.67394039744206E-015,-30.0));
#284=DIRECTION('',(-6.12323399573677E-017,-1.22464679914735E-016,1.0));
#285=DIRECTION('',(-1.23259516440783E-032,1.0,1.22464679914735E-016));
#286=ORIENTED_EDGE('',*,*,#326,.F.);
#287=ORIENTED_EDGE('',*,*,#325,.T.);
#288=CARTESIAN_POINT('',(2.0818995585505E-015,24.4,-34.0));
#289=DIRECTION('',(6.12323399573677E-017,1.22464679914735E-016,-1.0));
#290=DIRECTION('',(-1.23259516440783E-032,1.0,1.22464679914735E-016));
#291=ORIENTED_EDGE('',*,*,#327,.F.);
#292=ORIENTED_EDGE('',*,*,#326,.T.);
#293=CARTESIAN_POINT('',(2.18178113763475E-015,4.3635622752695E-015,-35.631189975));
#294=DIRECTION('',(-6.12323399573677E-017,-1.22464679914735E-016,1.0));
#295=DIRECTION('',(-1.23259516440783E-032,1.0,1.22464679914735E-016));
#296=ORIENTED_EDGE('',*,*,#314,.F.);
#297=ORIENTED_EDGE('',*,*,#327,.T.);
#298=CARTESIAN_POINT('',(2.73923572440001E-015,5.47847144880001E-015,-44.73511426));
#299=DIRECTION('',(-6.12323399573677E-017,-1.22464679914735E-016,1.0));
#300=DIRECTION('',(-1.23259516440783E-032,1.0,1.22464679914735E-016));
#301=ORIENTED_EDGE('',*,*,#328,.F.);
#302=CARTESIAN_POINT('',(-1.95943487863577E-015,11.3574999984407,32.0));
#303=DIRECTION('',(-6.12323399573677E-017,-1.22464679914735E-016,1.0));
#304=DIRECTION('',(1.23259516440783E-032,-1.0,-1.22464679914735E-016));
#305=ORIENTED_EDGE('',*,*,#316,.F.);
#306=ORIENTED_EDGE('',*,*,#328,.T.);
#307=CARTESIAN_POINT('',(-9.79717439317883E-016,-1.95943487863576E-015,16.0));
#308=DIRECTION('',(6.12323399573676E-017,1.22464679914735E-016,-1.0));
#309=DIRECTION('',(-1.23259516440783E-032,1.0,1.22464679914735E-016));
#310=EDGE_CURVE('',#329,#329,#330,.T.);
#311=EDGE_CURVE('',#331,#331,#332,.T.);
#312=EDGE_CURVE('',#333,#333,#334,.T.);
#313=EDGE_CURVE('',#335,#335,#336,.T.);
#314=EDGE_CURVE('',#337,#337,#338,.T.);
#315=EDGE_CURVE('',#339,#339,#340,.T.);
#316=EDGE_CURVE('',#341,#341,#342,.T.);
#317=EDGE_CURVE('',#343,#343,#344,.T.);
#318=EDGE_CURVE('',#345,#345,#346,.T.);
#319=EDGE_CURVE('',#347,#347,#348,.T.);
#320=EDGE_CURVE('',#349,#349,#350,.T.);
#321=EDGE_CURVE('',#351,#351,#352,.T.);
#322=EDGE_CURVE('',#353,#353,#354,.T.);
#323=EDGE_CURVE('',#355,#355,#356,.T.);
#324=EDGE_CURVE('',#357,#357,#358,.T.);
#325=EDGE_CURVE('',#359,#359,#360,.T.);
#326=EDGE_CURVE('',#361,#361,#362,.T.);
#327=EDGE_CURVE('',#363,#363,#364,.T.);
#328=EDGE_CURVE('',#365,#365,#366,.T.);
#329=VERTEX_POINT('',#367);
#330=CIRCLE('',#368,15.25);
#331=VERTEX_POINT('',#369);
#332=CIRCLE('',#370,15.25);
#333=VERTEX_POINT('',#371);
#334=CIRCLE('',#372,16.0);
#335=VERTEX_POINT('',#373);
#336=CIRCLE('',#374,16.0);
#337=VERTEX_POINT('',#375);
#338=CIRCLE('',#376,15.76448979);
#339=VERTEX_POINT('',#377);
#340=CIRCLE('',#378,31.5);
#341=VERTEX_POINT('',#379);
#342=CIRCLE('',#380,24.3150000002079);
#343=VERTEX_POINT('',#381);
#344=CIRCLE('',#382,31.5);
#345=VERTEX_POINT('',#383);
#346=CIRCLE('',#384,28.89759526);
#347=VERTEX_POINT('',#385);
#348=CIRCLE('',#386,27.5);
#349=VERTEX_POINT('',#387);
#350=CIRCLE('',#388,27.5);
#351=VERTEX_POINT('',#389);
#352=CIRCLE('',#390,28.89759526);
#353=VERTEX_POINT('',#391);
#354=CIRCLE('',#392,31.5);
#355=VERTEX_POINT('',#393);
#356=CIRCLE('',#394,31.5);
#357=VERTEX_POINT('',#395);
#358=CIRCLE('',#396,26.3);
#359=VERTEX_POINT('',#397);
#360=CIRCLE('',#398,26.3);
#361=VERTEX_POINT('',#399);
#362=CIRCLE('',#400,22.5);
#363=VERTEX_POINT('',#401);
#364=CIRCLE('',#402,18.56859864);
#365=VERTEX_POINT('',#403);
#366=CIRCLE('',#404,22.7149999968815);
#367=CARTESIAN_POINT('',(7.49894019868358E-015,15.25,-122.46698728));
#368=AXIS2_PLACEMENT_3D('',#405,#406,#407);
#369=CARTESIAN_POINT('',(3.66108461846297E-015,15.25,-59.7900491964207));
#370=AXIS2_PLACEMENT_3D('',#408,#409,#410);
#371=CARTESIAN_POINT('',(7.65404249467096E-015,16.0,-125.0));
#372=AXIS2_PLACEMENT_3D('',#411,#412,#413);
#373=CARTESIAN_POINT('',(8.26636589424463E-015,16.0,-135.0));
#374=AXIS2_PLACEMENT_3D('',#414,#415,#416);
#375=CARTESIAN_POINT('',(3.19680873208101E-015,15.76448979,-52.20784857));
#376=AXIS2_PLACEMENT_3D('',#417,#418,#419);
#377=CARTESIAN_POINT('',(-3.8214424279273E-031,31.5,3.75763741731416E-015));
#378=AXIS2_PLACEMENT_3D('',#420,#421,#422);
#379=CARTESIAN_POINT('',(-2.99705514228327E-031,24.3150000002079,2.97772869215225E-015));
#380=AXIS2_PLACEMENT_3D('',#423,#424,#425);
#381=CARTESIAN_POINT('',(8.95369947972684E-016,31.5,-14.62250093));
#382=AXIS2_PLACEMENT_3D('',#426,#427,#428);
#383=CARTESIAN_POINT('',(9.87371481812553E-016,28.89759526,-16.125));
#384=AXIS2_PLACEMENT_3D('',#429,#430,#431);
#385=CARTESIAN_POINT('',(9.87371481812553E-016,27.5,-16.125));
#386=AXIS2_PLACEMENT_3D('',#432,#433,#434);
#387=CARTESIAN_POINT('',(1.21699275665268E-015,27.5,-19.875));
#388=AXIS2_PLACEMENT_3D('',#435,#436,#437);
#389=CARTESIAN_POINT('',(1.21699275665268E-015,28.89759526,-19.875));
#390=AXIS2_PLACEMENT_3D('',#438,#439,#440);
#391=CARTESIAN_POINT('',(1.30899429049255E-015,31.5,-21.37749907));
#392=AXIS2_PLACEMENT_3D('',#441,#442,#443);
#393=CARTESIAN_POINT('',(1.59204083889156E-015,31.5,-26.0));
#394=AXIS2_PLACEMENT_3D('',#444,#445,#446);
#395=CARTESIAN_POINT('',(1.59204083889156E-015,26.3,-26.0));
#396=AXIS2_PLACEMENT_3D('',#447,#448,#449);
#397=CARTESIAN_POINT('',(2.0818995585505E-015,26.3,-34.0));
#398=AXIS2_PLACEMENT_3D('',#450,#451,#452);
#399=CARTESIAN_POINT('',(2.0818995585505E-015,22.5,-34.0));
#400=AXIS2_PLACEMENT_3D('',#453,#454,#455);
#401=CARTESIAN_POINT('',(2.281662716719E-015,18.56859864,-37.26237995));
#402=AXIS2_PLACEMENT_3D('',#456,#457,#458);
#403=CARTESIAN_POINT('',(-1.95943487863577E-015,22.7149999968815,32.0));
#404=AXIS2_PLACEMENT_3D('',#459,#460,#461);
#405=CARTESIAN_POINT('',(7.49894019868358E-015,1.49978803973672E-014,-122.46698728));
#406=DIRECTION('',(6.12323399573677E-017,1.22464679914735E-016,-1.0));
#407=DIRECTION('',(-1.23259516440783E-032,1.0,1.22464679914735E-016));
#408=CARTESIAN_POINT('',(3.66108461846297E-015,7.32216923692594E-015,-59.7900491964207));
#409=DIRECTION('',(6.12323399573677E-017,1.22464679914735E-016,-1.0));
#410=DIRECTION('',(-1.23259516440783E-032,1.0,1.22464679914735E-016));
#411=CARTESIAN_POINT('',(7.65404249467096E-015,1.53080849893419E-014,-125.0));
#412=DIRECTION('',(6.12323399573677E-017,1.22464679914735E-016,-1.0));
#413=DIRECTION('',(-1.23259516440783E-032,1.0,1.22464679914735E-016));
#414=CARTESIAN_POINT('',(8.26636589424463E-015,1.65327317884893E-014,-135.0));
#415=DIRECTION('',(6.12323399573677E-017,1.22464679914735E-016,-1.0));
#416=DIRECTION('',(-1.23259516440783E-032,1.0,1.22464679914735E-016));
#417=CARTESIAN_POINT('',(3.19680873208101E-015,6.39361746416202E-015,-52.20784857));
#418=DIRECTION('',(6.12323399573677E-017,1.22464679914735E-016,-1.0));
#419=DIRECTION('',(-1.23259516440783E-032,1.0,1.22464679914735E-016));
#420=CARTESIAN_POINT('',(6.12323399573677E-033,1.22464679914735E-032,-1.0E-016));
#421=DIRECTION('',(6.12323399573677E-017,1.22464679914735E-016,-1.0));
#422=DIRECTION('',(-1.23259516440783E-032,1.0,1.22464679914735E-016));
#423=CARTESIAN_POINT('',(0.0,0.0,0.0));
#424=DIRECTION('',(6.12323399573677E-017,1.22464679914735E-016,-1.0));
#425=DIRECTION('',(-1.23259516440783E-032,1.0,1.22464679914735E-016));
#426=CARTESIAN_POINT('',(8.95369947972685E-016,1.79073989594537E-015,-14.62250093));
#427=DIRECTION('',(6.12323399573677E-017,1.22464679914735E-016,-1.0));
#428=DIRECTION('',(-1.23259516440783E-032,1.0,1.22464679914735E-016));
#429=CARTESIAN_POINT('',(9.87371481812554E-016,1.97474296362511E-015,-16.125));
#430=DIRECTION('',(6.12323399573677E-017,1.22464679914735E-016,-1.0));
#431=DIRECTION('',(-1.23259516440783E-032,1.0,1.22464679914735E-016));
#432=CARTESIAN_POINT('',(9.87371481812554E-016,1.97474296362511E-015,-16.125));
#433=DIRECTION('',(6.12323399573677E-017,1.22464679914735E-016,-1.0));
#434=DIRECTION('',(-1.23259516440783E-032,1.0,1.22464679914735E-016));
#435=CARTESIAN_POINT('',(1.21699275665268E-015,2.43398551330536E-015,-19.875));
#436=DIRECTION('',(6.12323399573677E-017,1.22464679914735E-016,-1.0));
#437=DIRECTION('',(-1.23259516440783E-032,1.0,1.22464679914735E-016));
#438=CARTESIAN_POINT('',(1.21699275665268E-015,2.43398551330536E-015,-19.875));
#439=DIRECTION('',(6.12323399573677E-017,1.22464679914735E-016,-1.0));
#440=DIRECTION('',(-1.23259516440783E-032,1.0,1.22464679914735E-016));
#441=CARTESIAN_POINT('',(1.30899429049255E-015,2.6179885809851E-015,-21.37749907));
#442=DIRECTION('',(6.12323399573677E-017,1.22464679914735E-016,-1.0));
#443=DIRECTION('',(-1.23259516440783E-032,1.0,1.22464679914735E-016));
#444=CARTESIAN_POINT('',(1.59204083889156E-015,3.18408167778312E-015,-26.0));
#445=DIRECTION('',(6.12323399573677E-017,1.22464679914735E-016,-1.0));
#446=DIRECTION('',(-1.23259516440783E-032,1.0,1.22464679914735E-016));
#447=CARTESIAN_POINT('',(1.59204083889156E-015,3.18408167778312E-015,-26.0));
#448=DIRECTION('',(6.12323399573677E-017,1.22464679914735E-016,-1.0));
#449=DIRECTION('',(-1.23259516440783E-032,1.0,1.22464679914735E-016));
#450=CARTESIAN_POINT('',(2.0818995585505E-015,4.163799117101E-015,-34.0));
#451=DIRECTION('',(6.12323399573677E-017,1.22464679914735E-016,-1.0));
#452=DIRECTION('',(-1.23259516440783E-032,1.0,1.22464679914735E-016));
#453=CARTESIAN_POINT('',(2.0818995585505E-015,4.163799117101E-015,-34.0));
#454=DIRECTION('',(6.12323399573677E-017,1.22464679914735E-016,-1.0));
#455=DIRECTION('',(-1.23259516440783E-032,1.0,1.22464679914735E-016));
#456=CARTESIAN_POINT('',(2.281662716719E-015,4.563325433438E-015,-37.26237995));
#457=DIRECTION('',(6.12323399573677E-017,1.22464679914735E-016,-1.0));
#458=DIRECTION('',(-1.23259516440783E-032,1.0,1.22464679914735E-016));
#459=CARTESIAN_POINT('',(-1.95943487863577E-015,-3.91886975727153E-015,32.0));
#460=DIRECTION('',(6.12323399573677E-017,1.22464679914735E-016,-1.0));
#461=DIRECTION('',(-1.23259516440783E-032,1.0,1.22464679914735E-016));
ENDSEC;
END-ISO-10303-21;
