  0
SECTION
  2
HEADER
  9
$ACADVER
  1
AC1009
  9
$INSBASE
 10
0.0
 20
0.0
 30
0.0
  9
$EXTMIN
 10
-43.14145302
 20
-27.884403040521541
 30
0.0
  9
$EXTMAX
 10
105.96142896000001
 20
54.000000000000021
 30
0.0
  9
$LIMMIN
 10
0.0
 20
0.0
  9
$LIMMAX
 10
420.0
 20
297.0
  9
$ORTHOMODE
 70
     1
  9
$REGENMODE
 70
     1
  9
$FILLMODE
 70
     1
  9
$QTEXTMODE
 70
     0
  9
$MIRRTEXT
 70
     1
  9
$DRAGMODE
 70
     2
  9
$LTSCALE
 40
10.0
  9
$OSMODE
 70
    47
  9
$ATTMODE
 70
     1
  9
$TEXTSIZE
 40
3.0
  9
$TRACEWID
 40
1.0
  9
$TEXTSTYLE
  7
YOKO
  9
$CLAYER
  8
240
  9
$CELTYPE
  6
BYLAYER
  9
$CECOLOR
 62
   256
  9
$DIMSCALE
 40
1.0
  9
$DIMASZ
 40
2.0
  9
$DIMEXO
 40
2.0
  9
$DIMDLI
 40
2.5
  9
$DIMRND
 40
0.0
  9
$DIMDLE
 40
0.0
  9
$DIMEXE
 40
2.0
  9
$DIMTP
 40
0.0
  9
$DIMTM
 40
0.0
  9
$DIMTXT
 40
4.0
  9
$DIMCEN
 40
0.0
  9
$DIMTSZ
 40
0.0
  9
$DIMTOL
 70
     0
  9
$DIMLIM
 70
     0
  9
$DIMTIH
 70
     0
  9
$DIMTOH
 70
     0
  9
$DIMSE1
 70
     0
  9
$DIMSE2
 70
     0
  9
$DIMTAD
 70
     3
  9
$DIMZIN
 70
     8
  9
$DIMBLK
  1

  9
$DIMASO
 70
     1
  9
$DIMSHO
 70
     1
  9
$DIMPOST
  1

  9
$DIMAPOST
  1

  9
$DIMALT
 70
     0
  9
$DIMALTD
 70
     2
  9
$DIMALTF
 40
25.399999999999999
  9
$DIMLFAC
 40
1.0
  9
$DIMTOFL
 70
     1
  9
$DIMTVP
 40
0.0
  9
$DIMTIX
 70
     1
  9
$DIMSOXD
 70
     0
  9
$DIMSAH
 70
     1
  9
$DIMBLK1
  1
OPEN
  9
$DIMBLK2
  1
OPEN
  9
$DIMSTYLE
  2
BIGT
  9
$DIMCLRD
 70
   256
  9
$DIMCLRE
 70
   256
  9
$DIMCLRT
 70
    40
  9
$DIMTFAC
 40
1.0
  9
$DIMGAP
 40
1.0
  9
$LUNITS
 70
     2
  9
$LUPREC
 70
     3
  9
$SKETCHINC
 40
1.0
  9
$FILLETRAD
 40
0.0
  9
$AUNITS
 70
     0
  9
$AUPREC
 70
     3
  9
$MENU
  1
.
  9
$ELEVATION
 40
0.0
  9
$PELEVATION
 40
0.0
  9
$THICKNESS
 40
0.0
  9
$LIMCHECK
 70
     0
  9
$BLIPMODE
 70
     0
  9
$CHAMFERA
 40
10.0
  9
$CHAMFERB
 40
10.0
  9
$SKPOLY
 70
     0
  9
$TDCREATE
 40
2455037.703073449
  9
$TDUPDATE
 40
2457673.6632094211
  9
$TDINDWG
 40
0.0441962847
  9
$TDUSRTIMER
 40
0.0441962616
  9
$USRTIMER
 70
     1
  9
$ANGBASE
 50
0.0
  9
$ANGDIR
 70
     0
  9
$PDMODE
 70
     1
  9
$PDSIZE
 40
-5.0
  9
$PLINEWID
 40
0.0
  9
$COORDS
 70
     1
  9
$SPLFRAME
 70
     0
  9
$SPLINETYPE
 70
     6
  9
$SPLINESEGS
 70
     8
  9
$ATTDIA
 70
     1
  9
$ATTREQ
 70
     1
  9
$HANDLING
 70
     1
  9
$HANDSEED
  5
1D33
  9
$SURFTAB1
 70
     6
  9
$SURFTAB2
 70
     6
  9
$SURFTYPE
 70
     6
  9
$SURFU
 70
     6
  9
$SURFV
 70
     6
  9
$UCSNAME
  2

  9
$UCSORG
 10
0.0
 20
0.0
 30
0.0
  9
$UCSXDIR
 10
1.0
 20
0.0
 30
0.0
  9
$UCSYDIR
 10
0.0
 20
1.0
 30
0.0
  9
$PUCSNAME
  2

  9
$PUCSORG
 10
0.0
 20
0.0
 30
0.0
  9
$PUCSXDIR
 10
1.0
 20
0.0
 30
0.0
  9
$PUCSYDIR
 10
0.0
 20
1.0
 30
0.0
  9
$USERI1
 70
     1
  9
$USERI2
 70
     0
  9
$USERI3
 70
     0
  9
$USERI4
 70
     0
  9
$USERI5
 70
     0
  9
$USERR1
 40
0.0
  9
$USERR2
 40
0.0
  9
$USERR3
 40
0.0
  9
$USERR4
 40
0.0
  9
$USERR5
 40
0.0
  9
$WORLDVIEW
 70
     1
  9
$SHADEDGE
 70
     3
  9
$SHADEDIF
 70
    70
  9
$TILEMODE
 70
     1
  9
$MAXACTVP
 70
    16
  9
$PLIMCHECK
 70
     0
  9
$PEXTMIN
 10
1.0000000000000000E+020
 20
1.0000000000000000E+020
 30
1.0000000000000000E+020
  9
$PEXTMAX
 10
-1.0000000000000000E+020
 20
-1.0000000000000000E+020
 30
-1.0000000000000000E+020
  9
$PLIMMIN
 10
0.0
 20
0.0
  9
$PLIMMAX
 10
420.0
 20
297.0
  9
$UNITMODE
 70
     0
  9
$VISRETAIN
 70
     0
  9
$PLINEGEN
 70
     0
  9
$PSLTSCALE
 70
     1
  0
ENDSEC
  0
SECTION
  2
TABLES
  0
TABLE
  2
VPORT
 70
     1
  0
VPORT
  2
*ACTIVE
 70
     0
 10
0.0
 20
0.0
 11
1.0
 21
1.0
 12
28.904937309311389
 22
12.496180355512999
 13
0.0
 23
0.0
 14
7.0
 24
7.0
 15
7.0
 25
7.0
 16
0.0
 26
0.0
 36
1.0
 17
0.0
 27
0.0
 37
0.0
 40
108.3401045956801
 41
1.502092050209205
 42
50.0
 43
0.0
 44
0.0
 50
0.0
 51
0.0
 71
     0
 72
  2000
 73
     1
 74
     0
 75
     0
 76
     0
 77
     0
 78
     0
  0
ENDTAB
  0
TABLE
  2
LTYPE
 70
    16
  0
LTYPE
  2
CONTINUOUS
 70
     0
  3
Solid line
 72
    65
 73
     0
 40
0.0
  0
LTYPE
  2
CENTER2
 70
     0
  3
___ _ ___ _ ___ _ ___ _ ___ _ ___ _ ___ _ ___ _
 72
    65
 73
     4
 40
1.125
 49
0.75
 49
-0.125
 49
0.125
 49
-0.125
  0
LTYPE
  2
HIDDEN2
 70
     0
  3
_ _ _ _ _ _ _ _ _ _ _ _ _ _ _ _ _ _ _ _ _ _ _ _
 72
    65
 73
     2
 40
0.1875
 49
0.125
 49
-0.0625
  0
LTYPE
  2
PHANTOM2
 70
     0
  3
___ _ _ ___ _ _ ___ _ _ ___ _ _ ___ _ _ ___ _ _
 72
    65
 73
     6
 40
1.25
 49
0.625
 49
-0.125
 49
0.125
 49
-0.125
 49
0.125
 49
-0.125
  0
LTYPE
  2
AMCONSTR
 70
     0
  3
_______________________
 72
    65
 73
     2
 40
9999.0
 49
9999.0
 49
0.0
  0
LTYPE
  2
AM_ISO02W050
 70
     0
  3
__ __ __ __ __ __ __ __ __ __ __ __ __ __ __
 72
    65
 73
     2
 40
7.5
 49
6.0
 49
-1.5
  0
LTYPE
  2
ACJISTGB
 70
     0
  3
__ . . __ . .
 72
    65
 73
     6
 40
9.0
 49
4.0
 49
-1.0
 49
1.0
 49
-1.0
 49
1.0
 49
-1.0
  0
LTYPE
  2
ACJISTGL
 70
     0
  3
_ _ _ _ _
 72
    65
 73
     2
 40
3.0
 49
2.0
 49
-1.0
  0
LTYPE
  2
ACISOWELD
 70
     0
  3
_ _ _ _ _
 72
    65
 73
     2
 40
2.0
 49
2.0
 49
-1.0
  0
LTYPE
  2
ACISOTGB
 70
     0
  3
__ . . __ . .
 72
    65
 73
     6
 40
9.0
 49
4.0
 49
-1.0
 49
1.0
 49
-1.0
 49
1.0
 49
-1.0
  0
LTYPE
  2
ACISOTGL
 70
     0
  3
_ _ _ _ _
 72
    65
 73
     2
 40
3.0
 49
2.0
 49
-1.0
  0
ENDTAB
  0
TABLE
  2
LAYER
 70
     8
  0
LAYER
  2
0
 70
     0
 62
     7
  6
CONTINUOUS
  0
LAYER
  2
240
 70
     0
 62
     4
  6
CONTINUOUS
  0
LAYER
  2
241
 70
     0
 62
   211
  6
CONTINUOUS
  0
LAYER
  2
245
 70
     0
 62
     2
  6
CENTER2
  0
LAYER
  2
250
 70
     0
 62
     3
  6
CONTINUOUS
  0
LAYER
  2
DEFPOINTS
 70
     0
 62
     7
  6
CONTINUOUS
  0
LAYER
  2
243
 70
     0
 62
   211
  6
HIDDEN2
  0
LAYER
  2
247
 70
     0
 62
    60
  6
CONTINUOUS
  0
ENDTAB
  0
TABLE
  2
STYLE
 70
     7
  0
STYLE
  2
STANDARD
 70
     0
 40
0.0
 41
1.0
 50
0.0
 71
     0
 42
3.0
  3
romans.shx
  4
BIGFONT.SHX
  0
STYLE
  2
YOKO
 70
     0
 40
0.0
 41
1.0
 50
0.0
 71
     0
 42
3.0
  3
romans.shx
  4
extfont.shx
  0
STYLE
  2
ACJISTS
 70
     0
 40
1.0
 41
1.0
 50
0.0
 71
     0
 42
3.0
  3
amgdt.shx
  4
extfont.shx
  0
STYLE
  2
ACJISGDT
 70
     0
 40
0.0
 41
1.0
 50
0.0
 71
     0
 42
3.0
  3
amgdt.shx
  4
extfont.shx
  0
STYLE
  2
ACISOTS
 70
     0
 40
1.0
 41
1.0
 50
0.0
 71
     0
 42
3.0
  3
amgdt.shx
  4
extfont.shx
  0
STYLE
  2
ACISOGDT
 70
     0
 40
0.0
 41
1.0
 50
0.0
 71
     0
 42
3.0
  3
amgdt.shx
  4
extfont.shx
  0
ENDTAB
  0
TABLE
  2
VIEW
 70
     2
  0
VIEW
  2
OLE1
 70
     0
 40
102.72432723999999
 10
32.827647460000001
 20
12.9916398
 41
147.08553352000001
 11
0.0
 21
0.0
 31
1.0
 12
0.0
 22
0.0
 32
0.0
 42
50.0
 43
0.0
 44
0.0
 50
0.0
 71
     0
  0
VIEW
  2
OLE2
 70
     0
 40
104.06401409999999
 10
31.883510380000001
 20
12.88673253
 41
149.00376032
 11
0.0
 21
0.0
 31
1.0
 12
0.0
 22
0.0
 32
0.0
 42
50.0
 43
0.0
 44
0.0
 50
0.0
 71
     0
  0
ENDTAB
  0
TABLE
  2
UCS
 70
     0
  0
ENDTAB
  0
TABLE
  2
APPID
 70
    42
  0
APPID
  2
ACAD
 70
     0
  0
APPID
  2
GLOBAL
 70
     0
  0
APPID
  2
DETAIL
 70
     0
  0
APPID
  2
GRPNAME
 70
     0
  0
APPID
  2
GPARA
 70
     0
  0
APPID
  2
DCO15
 70
     0
  0
APPID
  2
ITEMNAME
 70
     0
  0
APPID
  2
GRADE_0
 70
     0
  0
APPID
  2
GENIUS_GENODEF_13
 70
     0
  0
APPID
  2
GENIUS_GENOBJ-N-FIL_13
 70
     0
  0
APPID
  2
GENIUS_GENFIL_13
 70
     0
  0
APPID
  2
GENIUS_GENOBJ-N-CHA_13
 70
     0
  0
APPID
  2
GENIUS_GENOREF_13
 70
     0
  0
APPID
  2
GENIUS_GENOBJ-N-CEN_13
 70
     0
  0
APPID
  2
ACAD_PSEXT
 70
     0
  0
APPID
  2
CONTENTBLOCKICON
 70
     0
  0
APPID
  2
HATCH_TYPE
 70
     0
  0
APPID
  2
HATCH_DISPLAY
 70
     0
  0
APPID
  2
HATCH_DISTANCE
 70
     0
  0
APPID
  2
MCAD_NO_VIS
 70
     0
  0
APPID
  2
ACAD_TEMP_GRAPHIC
 70
     0
  0
APPID
  2
ACATTRIBSERVICES
 70
     0
  0
APPID
  2
GENIUS_GENSCREG_15
 70
     0
  0
APPID
  2
GENIUS_GENOBJ-N-SDF_13
 70
     0
  0
APPID
  2
GENIUS_GENREC_14
 70
     0
  0
APPID
  2
GENIUS_GENOBJ-N-REC_13
 70
     0
  0
APPID
  2
GENIUS_GENDIMSH_14
 70
     0
  0
APPID
  2
GENIUS_GENOBJ-N-DIM_13
 70
     0
  0
APPID
  2
GENIUS_GENDIM_13
 70
     0
  0
APPID
  2
GENIUS_GENDTOL_13
 70
     0
  0
APPID
  2
GENIUS_GENOLIS_13
 70
     0
  0
APPID
  2
GENIUS_GENOENT_13
 70
     0
  0
APPID
  2
GENIUS_GENOBJ-F-FEM_13
 70
     0
  0
APPID
  2
GENIUS_GEFFEM_13
 70
     0
  0
APPID
  2
GENIUS_GEFFEMP_13
 70
     0
  0
APPID
  2
AD_DRAW
 70
     0
  0
APPID
  2
DESIGNERASSEMBLIES
 70
     0
  0
APPID
  2
ACADM_DIM_EDIT
 70
     0
  0
APPID
  2
AMDT_DM_ADJ
 70
     0
  0
APPID
  2
ACAD_NAV_VCDISPLAY
 70
     0
  0
APPID
  2
ACAECLAYERSTANDARD
 70
     0
  0
APPID
  2
ACAD_MLEADERVER
 70
     0
  0
ENDTAB
  0
TABLE
  2
DIMSTYLE
 70
    29
  0
DIMSTYLE
  2
BIGT
 70
     0
  3

  4

  5
OPEN
  6

  7

 40
1.0
 41
2.2299999999999991
 42
0.5
 43
7.0
 44
1.0
 45
0.0
 46
0.0
 47
0.0
 48
0.01
140
2.7999999999999989
141
0.0
142
0.0
143
25.399999999999999
144
1.0
145
0.0
146
1.0
147
1.0
 71
     0
 72
     0
 73
     0
 74
     0
 75
     0
 76
     0
 77
     3
 78
     9
170
     0
171
     2
172
     1
173
     0
174
     1
175
     0
176
   256
177
   256
178
    40
  0
DIMSTYLE
  2
BIGT$0
 70
     0
  3

  4

  5
OPEN
  6

  7

 40
1.0
 41
2.2299999999999991
 42
0.5
 43
7.0
 44
1.0
 45
0.0
 46
0.0
 47
0.0
 48
0.01
140
2.7999999999999989
141
0.0
142
0.0
143
25.399999999999999
144
1.0
145
0.0
146
1.0
147
1.0
 71
     0
 72
     0
 73
     0
 74
     0
 75
     0
 76
     0
 77
     3
 78
     9
170
     0
171
     2
172
     1
173
     0
174
     1
175
     0
176
   256
177
   256
178
    40
  0
DIMSTYLE
  2
BIGT$2
 70
     0
  3

  4

  5
OPEN
  6

  7

 40
1.0
 41
2.2299999999999991
 42
0.5
 43
7.0
 44
1.0
 45
0.0
 46
0.0
 47
0.0
 48
0.01
140
2.7999999999999989
141
0.0
142
0.0
143
25.399999999999999
144
1.0
145
0.0
146
1.0
147
1.0
 71
     0
 72
     0
 73
     0
 74
     0
 75
     0
 76
     0
 77
     3
 78
     9
170
     0
171
     2
172
     1
173
     0
174
     0
175
     0
176
   256
177
   256
178
    40
  0
DIMSTYLE
  2
BIGT$3
 70
     0
  3

  4

  5
OPEN
  6

  7

 40
1.0
 41
2.2299999999999991
 42
0.5
 43
2.5
 44
1.0
 45
0.0
 46
0.0
 47
0.0
 48
0.01
140
2.7999999999999989
141
0.0
142
0.0
143
25.399999999999999
144
1.0
145
0.0
146
1.0
147
1.0
 71
     0
 72
     0
 73
     0
 74
     0
 75
     0
 76
     0
 77
     3
 78
     9
170
     0
171
     2
172
     1
173
     0
174
     0
175
     0
176
   256
177
   256
178
    40
  0
DIMSTYLE
  2
BIGT$4
 70
     0
  3

  4

  5
OPEN
  6

  7

 40
1.0
 41
2.2299999999999991
 42
0.5
 43
2.5
 44
1.0
 45
0.0
 46
0.0
 47
0.0
 48
0.01
140
2.7999999999999989
141
0.0
142
0.0
143
25.399999999999999
144
1.0
145
0.0
146
1.0
147
1.0
 71
     0
 72
     0
 73
     0
 74
     0
 75
     0
 76
     0
 77
     3
 78
     9
170
     0
171
     2
172
     1
173
     0
174
     0
175
     0
176
   256
177
   256
178
    40
  0
DIMSTYLE
  2
BIGT$6
 70
     0
  3

  4

  5
OPEN
  6

  7

 40
1.0
 41
2.2299999999999991
 42
0.5
 43
2.5
 44
1.0
 45
0.0
 46
0.0
 47
0.0
 48
0.01
140
2.7999999999999989
141
0.0
142
0.0
143
25.399999999999999
144
1.0
145
0.0
146
1.0
147
1.0
 71
     0
 72
     0
 73
     0
 74
     0
 75
     0
 76
     0
 77
     3
 78
     9
170
     0
171
     2
172
     1
173
     0
174
     0
175
     0
176
   256
177
   256
178
    40
  0
DIMSTYLE
  2
BIGT$7
 70
     0
  3

  4

  5
OPEN
  6

  7

 40
0.0
 41
2.2299999999999991
 42
0.5
 43
7.0
 44
1.0
 45
0.0
 46
0.0
 47
0.0
 48
0.01
140
2.7999999999999989
141
0.0
142
0.0
143
25.399999999999999
144
1.0
145
0.0
146
1.0
147
1.0
 71
     0
 72
     0
 73
     0
 74
     0
 75
     0
 76
     0
 77
     3
 78
     9
170
     0
171
     2
172
     0
173
     0
174
     0
175
     0
176
   256
177
   256
178
    40
  0
DIMSTYLE
  2
BIGT$SF
 70
     0
  3

  4

  5
OPEN
  6

  7

 40
1.0
 41
2.2299999999999991
 42
0.5
 43
7.0
 44
1.0
 45
0.0
 46
0.0
 47
0.0
 48
0.0
140
2.7999999999999989
141
0.0
142
0.0
143
25.399999999999999
144
1.0
145
0.0
146
1.0
147
1.0
 71
     0
 72
     0
 73
     0
 74
     0
 75
     0
 76
     0
 77
     3
 78
     9
170
     0
171
     2
172
     1
173
     0
174
     0
175
     0
176
   256
177
   256
178
    40
  0
DIMSTYLE
  2
BIGT$SH
 70
     0
  3

  4

  5
OPEN
  6

  7

 40
1.0
 41
2.2299999999999991
 42
0.5
 43
7.0
 44
1.0
 45
0.0
 46
0.0
 47
0.0
 48
0.0
140
2.7999999999999989
141
0.0
142
0.0
143
25.399999999999999
144
1.0
145
0.0
146
1.0
147
1.0
 71
     0
 72
     0
 73
     0
 74
     0
 75
     0
 76
     0
 77
     3
 78
     9
170
     0
171
     2
172
     1
173
     0
174
     0
175
     0
176
   256
177
   256
178
    40
  0
DIMSTYLE
  2
AM_ISO
 70
     0
  3

  4
"
  5

  6

  7

 40
1.0
 41
2.5
 42
1.0
 43
10.0
 44
1.0
 45
0.0
 46
0.0
 47
0.1
 48
0.1
140
3.5
141
0.0
142
0.0
143
0.0393701
144
1.0
145
0.0
146
0.71
147
1.5
 71
     0
 72
     0
 73
     0
 74
     0
 75
     0
 76
     0
 77
     1
 78
     8
170
     0
171
     2
172
     1
173
     0
174
     0
175
     0
176
   256
177
   256
178
     2
  0
DIMSTYLE
  2
AM_ISO$3
 70
     0
  3

  4
"
  5

  6

  7

 40
1.0
 41
2.5
 42
1.0
 43
10.0
 44
1.0
 45
0.0
 46
0.0
 47
0.1
 48
0.1
140
3.5
141
0.0
142
0.0
143
0.0393701
144
1.0
145
0.0
146
0.71
147
1.5
 71
     0
 72
     0
 73
     0
 74
     1
 75
     0
 76
     0
 77
     1
 78
     8
170
     0
171
     2
172
     0
173
     0
174
     0
175
     0
176
   256
177
   256
178
     2
  0
DIMSTYLE
  2
AM_ISO$4
 70
     0
  3

  4
"
  5

  6

  7

 40
1.0
 41
2.5
 42
1.0
 43
10.0
 44
1.0
 45
0.0
 46
0.0
 47
0.1
 48
0.1
140
3.5
141
0.0
142
0.0
143
0.0393701
144
1.0
145
0.0
146
0.71
147
1.5
 71
     0
 72
     0
 73
     0
 74
     1
 75
     0
 76
     0
 77
     1
 78
     8
170
     0
171
     2
172
     0
173
     0
174
     0
175
     0
176
   256
177
   256
178
     2
  0
DIMSTYLE
  2
AM_ISO$6
 70
     0
  3

  4
"
  5

  6

  7

 40
1.0
 41
2.5
 42
1.0
 43
10.0
 44
1.0
 45
0.0
 46
0.0
 47
0.1
 48
0.1
140
3.5
141
0.0
142
0.0
143
0.0393701
144
1.0
145
0.0
146
0.71
147
1.5
 71
     0
 72
     0
 73
     0
 74
     0
 75
     0
 76
     0
 77
     0
 78
     8
170
     0
171
     2
172
     1
173
     0
174
     0
175
     0
176
   256
177
   256
178
     2
  0
DIMSTYLE
  2
AM_ISO$7
 70
     0
  3

  4
"
  5

  6

  7

 40
1.0
 41
2.5
 42
1.0
 43
10.0
 44
1.0
 45
0.0
 46
0.0
 47
0.1
 48
0.1
140
5.0
141
0.0
142
0.0
143
0.0393701
144
1.0
145
0.0
146
0.71
147
1.5
 71
     0
 72
     0
 73
     0
 74
     0
 75
     0
 76
     0
 77
     1
 78
     8
170
     0
171
     2
172
     1
173
     0
174
     0
175
     0
176
   256
177
   256
178
     2
  0
DIMSTYLE
  2
AM_ISO$SF
 70
     0
  3

  4
"
  5

  6

  7

 40
1.0
 41
2.5
 42
1.0
 43
10.0
 44
1.0
 45
0.0
 46
0.0
 47
0.1
 48
0.1
140
3.5
141
0.0
142
0.0
143
0.0393701
144
1.0
145
0.0
146
0.71
147
1.5
 71
     0
 72
     0
 73
     0
 74
     0
 75
     1
 76
     1
 77
     1
 78
     8
170
     0
171
     2
172
     1
173
     0
174
     0
175
     0
176
   256
177
   256
178
     2
  0
DIMSTYLE
  2
AM_ISO$SH
 70
     0
  3

  4
"
  5

  6
GENAXEH
  7

 40
1.0
 41
2.5
 42
1.0
 43
10.0
 44
1.0
 45
0.0
 46
0.0
 47
0.1
 48
0.1
140
3.5
141
0.0
142
0.0
143
0.0393701
144
2.0
145
0.0
146
0.71
147
1.5
 71
     0
 72
     0
 73
     0
 74
     0
 75
     1
 76
     1
 77
     1
 78
     8
170
     0
171
     2
172
     1
173
     1
174
     0
175
     0
176
   256
177
   256
178
     2
  0
DIMSTYLE
  2
TECHNICAL_OSAKA
 70
     0
  3

  4
"
  5
OPEN30
  6

  7

 40
1.0
 41
2.5
 42
1.0
 43
10.0
 44
1.0
 45
0.0
 46
0.0
 47
0.1
 48
0.1
140
2.7999999999999989
141
0.0
142
0.0
143
0.0393701
144
1.0
145
0.0
146
0.71
147
1.5
 71
     0
 72
     0
 73
     0
 74
     0
 75
     0
 76
     0
 77
     3
 78
     8
170
     0
171
     2
172
     1
173
     0
174
     0
175
     0
176
   256
177
   256
178
    40
  0
DIMSTYLE
  2
TECHNICAL_OSAKA$3
 70
     0
  3

  4
"
  5
OPEN30
  6

  7

 40
1.0
 41
2.5
 42
1.0
 43
10.0
 44
1.0
 45
0.0
 46
0.0
 47
0.1
 48
0.1
140
2.7999999999999989
141
0.0
142
0.0
143
0.0393701
144
1.0
145
0.0
146
0.71
147
1.5
 71
     0
 72
     0
 73
     0
 74
     1
 75
     0
 76
     0
 77
     3
 78
     8
170
     0
171
     2
172
     0
173
     0
174
     0
175
     0
176
   256
177
   256
178
    40
  0
DIMSTYLE
  2
TECHNICAL_OSAKA$4
 70
     0
  3

  4
"
  5
OPEN30
  6

  7

 40
1.0
 41
2.5
 42
1.0
 43
10.0
 44
1.0
 45
0.0
 46
0.0
 47
0.1
 48
0.1
140
2.7999999999999989
141
0.0
142
0.0
143
0.0393701
144
1.0
145
0.0
146
0.71
147
1.5
 71
     0
 72
     0
 73
     0
 74
     1
 75
     0
 76
     0
 77
     3
 78
     8
170
     0
171
     2
172
     0
173
     0
174
     0
175
     0
176
   256
177
   256
178
    40
  0
DIMSTYLE
  2
TECHNICAL_OSAKA$6
 70
     0
  3

  4
"
  5
OPEN30
  6

  7

 40
1.0
 41
2.5
 42
1.0
 43
10.0
 44
1.0
 45
0.0
 46
0.0
 47
0.1
 48
0.1
140
2.7999999999999989
141
0.0
142
0.0
143
0.0393701
144
1.0
145
0.0
146
0.71
147
1.5
 71
     0
 72
     0
 73
     0
 74
     0
 75
     0
 76
     0
 77
     0
 78
     8
170
     0
171
     2
172
     1
173
     0
174
     0
175
     0
176
   256
177
   256
178
    40
  0
DIMSTYLE
  2
TECHNICAL_OSAKA$7
 70
     0
  3

  4
"
  5
OPEN30
  6

  7

 40
1.0
 41
2.5
 42
1.0
 43
10.0
 44
1.0
 45
0.0
 46
0.0
 47
0.1
 48
0.1
140
2.7999999999999989
141
0.0
142
0.0
143
0.0393701
144
1.0
145
0.0
146
0.71
147
1.5
 71
     0
 72
     0
 73
     0
 74
     0
 75
     0
 76
     0
 77
     3
 78
     8
170
     0
171
     2
172
     1
173
     0
174
     0
175
     0
176
   256
177
   256
178
    40
  0
DIMSTYLE
  2
TECHNICAL_OSAKA$SF
 70
     0
  3

  4
"
  5
OPEN30
  6
OPEN30
  7
OPEN30
 40
1.0
 41
2.5
 42
1.0
 43
10.0
 44
1.0
 45
0.0
 46
0.0
 47
0.1
 48
0.1
140
3.5
141
0.0
142
0.0
143
0.0393701
144
1.0
145
0.0
146
0.71
147
1.5
 71
     0
 72
     0
 73
     0
 74
     0
 75
     1
 76
     1
 77
     3
 78
     8
170
     0
171
     2
172
     1
173
     0
174
     0
175
     0
176
   256
177
   256
178
    40
  0
DIMSTYLE
  2
TECHNICAL_OSAKA$SH
 70
     0
  3

  4
"
  5
OPEN30
  6
GENAXEH
  7
OPEN30
 40
1.0
 41
2.5
 42
1.0
 43
10.0
 44
1.0
 45
0.0
 46
0.0
 47
0.1
 48
0.1
140
3.5
141
0.0
142
0.0
143
0.0393701
144
2.0
145
0.0
146
0.71
147
1.5
 71
     0
 72
     0
 73
     0
 74
     0
 75
     1
 76
     1
 77
     3
 78
     8
170
     0
171
     2
172
     1
173
     1
174
     0
175
     0
176
   256
177
   256
178
    40
  0
ENDTAB
  0
ENDSEC
  0
SECTION
  2
BLOCKS
  0
BLOCK
  8
0
  2
$MODEL_SPACE
 70
     0
 10
0.0
 20
0.0
 30
0.0
  3
$MODEL_SPACE
  1

  0
ENDBLK
  5
1C
  8
0
  0
BLOCK
 67
     1
  8
0
  2
$PAPER_SPACE
 70
     0
 10
0.0
 20
0.0
 30
0.0
  3
$PAPER_SPACE
  1

  0
ENDBLK
  5
19
 67
     1
  8
0
  0
BLOCK
  8
0
  2
_OPEN
 70
     0
 10
0.0
 20
0.0
 30
0.0
  3
_OPEN
  1

  0
LINE
  5
1C22
  8
0
  6
BYBLOCK
 62
     0
 10
-1.0
 20
0.1666666666666666
 30
0.0
 11
0.0
 21
0.0
 31
0.0
  0
LINE
  5
1C23
  8
0
  6
BYBLOCK
 62
     0
 10
-1.0
 20
-0.1666666666666666
 30
0.0
 11
0.0
 21
0.0
 31
0.0
  0
LINE
  5
1C24
  8
0
  6
BYBLOCK
 62
     0
 10
0.0
 20
0.0
 30
0.0
 11
-1.0
 21
0.0
 31
0.0
  0
ENDBLK
  5
1C25
  8
0
  0
BLOCK
  8
0
  2
矢印なし
 70
     0
 10
0.0
 20
0.0
 30
0.0
  3
矢印なし
  1

  0
ENDBLK
  5
6E5
  8
0
  0
BLOCK
  8
0
  2
GENAXEH
 70
     0
 10
0.0
 20
0.0
 30
0.0
  3
GENAXEH
  1

  0
LINE
  5
1C5D
  8
0
 10
-1.0
 20
0.0
 30
0.0
 11
1.0
 21
0.0
 31
0.0
  0
ENDBLK
  5
1C5E
  8
0
  0
BLOCK
  8
0
  2
_OPEN30
 70
     0
 10
0.0
 20
0.0
 30
0.0
  3
_OPEN30
  1

  0
LINE
  5
1C99
  8
0
  6
BYBLOCK
 62
     0
 10
-1.0
 20
0.26794919
 30
0.0
 11
0.0
 21
0.0
 31
0.0
  0
LINE
  5
1C9A
  8
0
  6
BYBLOCK
 62
     0
 10
0.0
 20
0.0
 30
0.0
 11
-1.0
 21
-0.26794919
 31
0.0
  0
LINE
  5
1C9B
  8
0
  6
BYBLOCK
 62
     0
 10
0.0
 20
0.0
 30
0.0
 11
-1.0
 21
0.0
 31
0.0
  0
ENDBLK
  5
1C9C
  8
0
  0
BLOCK
  8
0
  2
*U7
 70
     1
 10
0.0
 20
0.0
 30
0.0
  3
*U7
  1

  0
TEXT
  5
1CE9
  8
250
 10
90.094762296666673
 20
28.99259151
 30
0.0
 40
2.7999999999999989
  1
MGT12
  7
YOKO
  0
ENDBLK
  5
1CEB
  8
0
  0
BLOCK
  8
0
  2
*U8
 70
     1
 10
0.0
 20
0.0
 30
0.0
  3
*U8
  1

  0
TEXT
  5
1D29
  8
250
 10
39.833333333333343
 20
36.0
 30
0.0
 40
2.7999999999999989
  1
85
  0
ENDBLK
  5
1D2B
  8
0
  0
ENDSEC
  0
SECTION
  2
ENTITIES
  0
INSERT
  5
6E6
  8
245
  2
矢印なし
 10
175.62382697000001
 20
90.551235719999994
 30
0.0
  0
TEXT
  5
86A
  8
241
  6
CONTINUOUS
 10
-25.0
 20
49.0
 30
0.0
 40
5.0
  1
HSK-A50-MGT12-85
  7
YOKO
 11
-25.0
 21
49.0
 31
0.0
 73
     1
  0
INSERT
  5
126A
  8
240
  2
*U7
 10
0.0
 20
0.0
 30
0.0
  0
LINE
  5
126C
  8
250
  6
CONTINUOUS
 10
87.828095630000007
 20
27.99259151
 30
0.0
 11
105.96142896000001
 21
27.99259151
 31
0.0
1001
ITEMNAME
1000
LNSP2
  0
LINE
  5
18D5
  8
245
  6
CENTER2
 10
86.0
 20
0.0
 30
0.0
 11
-26.0
 21
0.0
 31
0.0
  0
LINE
  5
191D
  8
241
  6
CONTINUOUS
 10
57.399999999999999
 20
-20.5
 30
0.0
 11
57.399999999999999
 21
20.5
 31
0.0
  0
LINE
  5
191E
  8
241
  6
CONTINUOUS
 10
59.0
 20
-20.5
 30
0.0
 11
59.0
 21
20.5
 31
0.0
  0
LINE
  5
191F
  8
241
  6
CONTINUOUS
 10
60.399999999999999
 20
-20.5
 30
0.0
 11
60.399999999999999
 21
20.5
 31
0.0
  0
LINE
  5
1920
  8
241
  6
CONTINUOUS
 10
62.0
 20
-20.5
 30
0.0
 11
62.0
 21
20.5
 31
0.0
  0
LINE
  5
1921
  8
241
  6
CONTINUOUS
 10
77.0
 20
-20.412959300000001
 30
0.0
 11
77.0
 21
20.412959300000001
 31
0.0
  0
LINE
  5
1922
  8
241
  6
CONTINUOUS
 10
69.0
 20
20.5
 30
0.0
 11
69.0
 21
-20.5
 31
0.0
  0
LINE
  5
1923
  8
240
  6
CONTINUOUS
 10
76.999999990111391
 20
-20.5
 30
0.0
 11
85.0
 21
-18.356406464558351
 31
0.0
  0
LINE
  5
1924
  8
240
  6
CONTINUOUS
 10
26.0
 20
-20.5
 30
0.0
 11
76.999999990111391
 21
-20.5
 31
0.0
  0
LINE
  5
192D
  8
240
  6
CONTINUOUS
 10
76.999999990111391
 20
20.5
 30
0.0
 11
85.0
 21
18.356406464558351
 31
0.0
  0
LINE
  5
1934
  8
245
  6
CENTER2
 10
50.0
 20
24.57620229871776
 30
0.0
 11
50.0
 21
8.0000000000013802
 31
0.0
1001
GENIUS_GENOBJ-N-CEN_13
1002
{
1000
OWNER
1000
GEN
1002
}
1001
GENIUS_GENODEF_13
1002
{
1000
HIER
1070
     0
1002
}
1002
{
1000
MANEDIT
1070
     0
1002
}
1002
{
1000
NOSEL
1070
     0
1002
}
1002
{
1000
BEHIND
1070
     0
1002
}
1002
{
1000
OTHER
1070
     0
1002
}
1002
{
1000
REACTOR
1002
}
  0
LINE
  5
1935
  8
240
  6
CONTINUOUS
 10
26.0
 20
20.5
 30
0.0
 11
76.999999990111391
 21
20.5
 31
0.0
  0
LINE
  5
193F
  8
240
  6
CONTINUOUS
 10
85.0
 20
-18.356406464558351
 30
0.0
 11
85.0
 21
18.356406464558351
 31
0.0
  0
LINE
  5
1941
  8
250
  6
CONTINUOUS
 10
0.0
 20
25.5
 30
0.0
 11
0.0
 21
36.0
 31
0.0
  0
LINE
  5
1942
  8
250
  6
CONTINUOUS
 10
85.000000000000014
 20
18.874044554655701
 30
0.0
 11
85.0
 21
36.0
 31
0.0
  0
LINE
  5
1943
  8
250
  6
CONTINUOUS
 10
2.2299999999999991
 20
35.0
 30
0.0
 11
82.769999999999996
 21
35.0
 31
0.0
  0
INSERT
  5
1946
  8
240
  2
*U8
 10
0.0
 20
0.0
 30
0.0
  0
LINE
  5
1947
  8
250
  6
CONTINUOUS
 10
76.999999990111391
 20
-20.5
 30
0.0
 11
96.0
 21
-20.5
 31
0.0
  0
LINE
  5
1948
  8
250
  6
CONTINUOUS
 10
76.999999990111391
 20
20.5
 30
0.0
 11
96.0
 21
20.5
 31
0.0
  0
LINE
  5
1949
  8
250
  6
CONTINUOUS
 10
95.0
 20
-18.27
 30
0.0
 11
95.0
 21
18.27
 31
0.0
  0
POLYLINE
  5
194E
  8
250
  6
CONTINUOUS
 66
     1
 10
0.0
 20
0.0
 30
0.0
1001
ACAD
1000
DSTYLE
1002
{
1070
     6
1000
OPEN
1070
    41
1040
2.0
1070
    42
1040
2.0
1070
    44
1040
2.0
1070
    79
1070
     2
1070
   140
1040
4.0
1070
   179
1070
     3
1070
   343
1005
594
1070
   371
1070
    -1
1070
   372
1070
    -1
1002
}
  0
VERTEX
  5
1D2C
  8
250
  6
CONTINUOUS
 10
83.631110131016399
 20
20.723199396982061
 30
0.0
  0
VERTEX
  5
1D2D
  8
250
  6
CONTINUOUS
 10
87.828095630000007
 20
27.99259151
 30
0.0
  0
SEQEND
  5
1D2E
  8
250
  6
CONTINUOUS
  0
LINE
  5
194F
  8
250
  6
CONTINUOUS
 10
82.769999999999996
 20
35.37166666666667
 30
0.0
 11
85.0
 21
35.0
 31
0.0
  0
LINE
  5
1950
  8
250
  6
CONTINUOUS
 10
82.769999999999996
 20
34.62833333333333
 30
0.0
 11
85.0
 21
35.0
 31
0.0
  0
LINE
  5
1951
  8
250
  6
CONTINUOUS
 10
85.0
 20
35.0
 30
0.0
 11
82.769999999999996
 21
35.0
 31
0.0
  0
LINE
  5
1952
  8
250
  6
CONTINUOUS
 10
2.2299999999999991
 20
34.62833333333333
 30
0.0
 11
0.0
 21
35.0
 31
0.0
  0
LINE
  5
1953
  8
250
  6
CONTINUOUS
 10
2.2299999999999991
 20
35.37166666666667
 30
0.0
 11
0.0
 21
35.0
 31
0.0
  0
LINE
  5
1954
  8
250
  6
CONTINUOUS
 10
0.0
 20
35.0
 30
0.0
 11
2.2299999999999991
 21
35.0
 31
0.0
  0
TEXT
  5
1955
  8
250
  6
CONTINUOUS
 10
93.999999999999986
 20
-3.5333333333333319
 30
0.0
 40
2.7999999999999989
  1
\U+220541
 50
90.0
1001
ACAD
1000
MTEXTBEGIN
1070
    73
1070
     1
1070
    44
1040
1.0
1070
    74
1070
     0
1000
MTEXTEND
1000
MTEXTBEGIN
1070
    73
1070
     1
1070
    44
1040
1.0
1070
    74
1070
     0
1000
MTEXTEND
1000
MTEXTBEGIN
1070
    73
1070
     1
1070
    44
1040
1.0
1070
    74
1070
     0
1000
MTEXTEND
1000
MTEXTBEGIN
1070
    73
1070
     1
1070
    44
1040
1.0
1070
    74
1070
     0
1000
MTEXTEND
1000
MTEXTBEGIN
1070
    73
1070
     1
1070
    44
1040
1.0
1070
    74
1070
     0
1000
MTEXTEND
  0
LINE
  5
1956
  8
250
  6
CONTINUOUS
 10
94.628333333333345
 20
18.27
 30
0.0
 11
95.0
 21
20.5
 31
0.0
  0
LINE
  5
1957
  8
250
  6
CONTINUOUS
 10
95.37166666666667
 20
18.27
 30
0.0
 11
95.0
 21
20.5
 31
0.0
  0
LINE
  5
1958
  8
250
  6
CONTINUOUS
 10
95.0
 20
20.5
 30
0.0
 11
95.0
 21
18.27
 31
0.0
  0
LINE
  5
1959
  8
250
  6
CONTINUOUS
 10
95.37166666666667
 20
-18.27
 30
0.0
 11
95.0
 21
-20.5
 31
0.0
  0
LINE
  5
195A
  8
250
  6
CONTINUOUS
 10
94.628333333333345
 20
-18.27
 30
0.0
 11
95.0
 21
-20.5
 31
0.0
  0
LINE
  5
195B
  8
250
  6
CONTINUOUS
 10
95.0
 20
-20.5
 30
0.0
 11
95.0
 21
-18.27
 31
0.0
  0
LINE
  5
195C
  8
250
  6
CONTINUOUS
 10
83.919785265513411
 20
20.556532730145989
 30
0.0
 11
82.631110129999996
 21
18.991148590000002
 31
0.0
  0
LINE
  5
195D
  8
250
  6
CONTINUOUS
 10
83.342434996519387
 20
20.889866063818118
 30
0.0
 11
82.631110129999996
 21
18.991148590000002
 31
0.0
  0
LINE
  5
195E
  8
250
  6
CONTINUOUS
 10
82.631110129999996
 20
18.991148590000002
 30
0.0
 11
83.631110131016399
 21
20.723199396982061
 31
0.0
  0
LINE
  5
1A09
  8
240
  6
CONTINUOUS
 10
14.622500929999999
 20
25.0
 30
0.0
 11
0.0
 21
25.0
 31
0.0
  0
ARC
  5
1A0A
  8
241
  6
CONTINUOUS
 10
12.6987211
 20
13.622614099999961
 30
0.0
 40
6.00000000000027
 50
92.878211950000406
 51
161.76605656000021
  0
LINE
  5
1A0B
  8
241
  6
CONTINUOUS
 10
7.0
 20
15.5
 30
0.0
 11
16.125
 21
15.5
 31
0.0
  0
LINE
  5
1A0C
  8
243
  6
HIDDEN2
 10
7.0
 20
21.0
 30
0.0
 11
26.0
 21
21.0
 31
0.0
  0
LINE
  5
1A0D
  8
243
  6
HIDDEN2
 10
7.0
 20
-21.0
 30
0.0
 11
26.0
 21
-21.0
 31
0.0
  0
LINE
  5
1A0E
  8
240
  6
CONTINUOUS
 10
14.622500929999999
 20
-25.0
 30
0.0
 11
0.0
 21
-25.0
 31
0.0
  0
LINE
  5
1A0F
  8
240
  6
CONTINUOUS
 10
0.0
 20
-19.249999999909281
 30
0.0
 11
-25.0
 21
-18.00000000104308
 31
0.0
  0
LINE
  5
1A10
  8
240
  6
CONTINUOUS
 10
-25.0
 20
18.00000000104308
 30
0.0
 11
-25.0
 21
-18.00000000104308
 31
0.0
  0
LINE
  5
1A11
  8
241
  6
CONTINUOUS
 10
0.0
 20
19.249999999909281
 30
0.0
 11
0.0
 21
-19.249999999909281
 31
0.0
  0
LINE
  5
1A12
  8
240
  6
CONTINUOUS
 10
0.0
 20
-19.249999999909281
 30
0.0
 11
0.0
 21
-25.0
 31
0.0
  0
LINE
  5
1A13
  8
243
  6
HIDDEN2
 10
7.0
 20
-21.0
 30
0.0
 11
7.0
 21
-25.0
 31
0.0
  0
LINE
  5
1A14
  8
243
  6
HIDDEN2
 10
-13.26397459999998
 20
16.0
 30
0.0
 11
-14.996025400000009
 21
13.0
 31
0.0
  0
LINE
  5
1A15
  8
240
  6
CONTINUOUS
 10
0.0
 20
19.249999999909281
 30
0.0
 11
-25.0
 21
18.00000000104308
 31
0.0
  0
LINE
  5
1A16
  8
243
  6
HIDDEN2
 10
-20.5
 20
13.0
 30
0.0
 11
-20.5
 21
18.225000000000009
 31
0.0
  0
LINE
  5
1A17
  8
243
  6
HIDDEN2
 10
-14.996025400000009
 20
13.0
 30
0.0
 11
-25.0
 21
13.0
 31
0.0
  0
LINE
  5
1A18
  8
243
  6
HIDDEN2
 10
7.0
 20
21.0
 30
0.0
 11
7.0
 21
25.0
 31
0.0
  0
LINE
  5
1A19
  8
240
  6
CONTINUOUS
 10
0.0
 20
25.0
 30
0.0
 11
0.0
 21
19.249999999909281
 31
0.0
  0
ARC
  5
1A1A
  8
243
  6
HIDDEN2
 10
-5.0609879300000076
 20
10.0
 30
0.0
 40
5.999999999156417
 50
33.36701297000058
 51
90.0
  0
LINE
  5
1A1B
  8
243
  6
HIDDEN2
 10
-5.0609879300000076
 20
16.0
 30
0.0
 11
-13.26397459999998
 21
16.0
 31
0.0
  0
LINE
  5
1A1C
  8
243
  6
HIDDEN2
 10
-10.5
 20
16.0
 30
0.0
 11
-10.5
 21
18.725000000000009
 31
0.0
1001
GRPNAME
1000
PASTMD02
  0
LINE
  5
1A1D
  8
245
  6
CENTER2
 10
-7.5
 20
15.25996314399435
 30
0.0
 11
-7.5
 21
19.606323407045348
 31
0.0
1001
GRPNAME
1000
PASTMD02
  0
LINE
  5
1A1E
  8
243
  6
HIDDEN2
 10
-4.5
 20
16.0
 30
0.0
 11
-4.5
 21
19.024999999999981
 31
0.0
1001
GRPNAME
1000
PASTMD02
  0
LINE
  5
1A1F
  8
241
  6
CONTINUOUS
 10
14.622500929999999
 20
-25.0
 30
0.0
 11
14.622500929999999
 21
15.5
 31
0.0
  0
LINE
  5
1A20
  8
241
  6
CONTINUOUS
 10
21.377499069999999
 20
15.5
 30
0.0
 11
21.377499069999999
 21
-25.0
 31
0.0
  0
LINE
  5
1A21
  8
241
  6
CONTINUOUS
 10
19.875
 20
22.0
 30
0.0
 11
19.875
 21
-21.5
 31
0.0
  0
LINE
  5
1A22
  8
241
  6
CONTINUOUS
 10
16.125
 20
22.0
 30
0.0
 11
16.125
 21
-21.5
 31
0.0
  0
LINE
  5
1A23
  8
241
  6
CONTINUOUS
 10
26.0
 20
-20.5
 30
0.0
 11
26.0
 21
20.5
 31
0.0
  0
LINE
  5
1A24
  8
240
  6
CONTINUOUS
 10
21.377499069999999
 20
-25.0
 30
0.0
 11
19.875
 21
-22.397595259999999
 31
0.0
  0
LINE
  5
1A25
  8
240
  6
CONTINUOUS
 10
14.622500929999999
 20
-25.0
 30
0.0
 11
16.125
 21
-22.397595259999999
 31
0.0
  0
LINE
  5
1A26
  8
240
  6
CONTINUOUS
 10
19.875
 20
-21.5
 30
0.0
 11
19.875
 21
-22.397595259999999
 31
0.0
  0
LINE
  5
1A27
  8
240
  6
CONTINUOUS
 10
16.125
 20
-22.397595259999999
 30
0.0
 11
16.125
 21
-21.5
 31
0.0
  0
LINE
  5
1A28
  8
240
  6
CONTINUOUS
 10
16.125
 20
-21.5
 30
0.0
 11
19.875
 21
-21.5
 31
0.0
  0
LINE
  5
1A29
  8
240
  6
CONTINUOUS
 10
26.0
 20
-20.5
 30
0.0
 11
26.0
 21
-25.0
 31
0.0
  0
LINE
  5
1A2A
  8
240
  6
CONTINUOUS
 10
26.0
 20
-25.0
 30
0.0
 11
21.377499069999999
 21
-25.0
 31
0.0
  0
LINE
  5
1A2B
  8
241
  6
CONTINUOUS
 10
14.622500929999999
 20
19.615045239999969
 30
0.0
 11
14.622500929999999
 21
25.0
 31
0.0
  0
LINE
  5
1A2C
  8
241
  6
CONTINUOUS
 10
21.377499069999999
 20
19.615045239999969
 30
0.0
 11
21.377499069999999
 21
25.0
 31
0.0
  0
LINE
  5
1A2D
  8
240
  6
CONTINUOUS
 10
14.622500929999999
 20
25.0
 30
0.0
 11
16.125
 21
22.397595259999999
 31
0.0
  0
LINE
  5
1A2E
  8
240
  6
CONTINUOUS
 10
21.377499069999999
 20
25.0
 30
0.0
 11
19.875
 21
22.397595259999999
 31
0.0
  0
LINE
  5
1A2F
  8
240
  6
CONTINUOUS
 10
26.0
 20
25.0
 30
0.0
 11
26.0
 21
20.5
 31
0.0
  0
LINE
  5
1A30
  8
241
  6
CONTINUOUS
 10
19.875
 20
17.012640499999971
 30
0.0
 11
21.377499069999999
 21
19.615045239999969
 31
0.0
  0
LINE
  5
1A31
  8
241
  6
CONTINUOUS
 10
19.875
 20
15.5
 30
0.0
 11
26.0
 21
15.5
 31
0.0
  0
LINE
  5
1A32
  8
241
  6
CONTINUOUS
 10
16.125
 20
17.012640499999971
 30
0.0
 11
14.622500929999999
 21
19.615045239999969
 31
0.0
  0
LINE
  5
1A33
  8
241
  6
CONTINUOUS
 10
12.3974422
 20
19.615045239999969
 30
0.0
 11
14.622500929999999
 21
19.615045239999969
 31
0.0
  0
LINE
  5
1A34
  8
240
  6
CONTINUOUS
 10
16.125
 20
21.5
 30
0.0
 11
19.875
 21
21.5
 31
0.0
  0
LINE
  5
1A35
  8
240
  6
CONTINUOUS
 10
16.125
 20
22.397595259999999
 30
0.0
 11
16.125
 21
21.5
 31
0.0
  0
LINE
  5
1A36
  8
240
  6
CONTINUOUS
 10
19.875
 20
21.5
 30
0.0
 11
19.875
 21
22.397595259999999
 31
0.0
  0
LINE
  5
1A37
  8
241
  6
CONTINUOUS
 10
21.377499069999999
 20
19.615045239999969
 30
0.0
 11
26.0
 21
19.615045239999969
 31
0.0
  0
LINE
  5
1A38
  8
240
  6
CONTINUOUS
 10
26.0
 20
25.0
 30
0.0
 11
21.377499069999999
 21
25.0
 31
0.0
  0
LINE
  5
1A39
  8
243
  6
HIDDEN2
 10
-13.26397459999998
 20
-16.0
 30
0.0
 11
-14.996025400000009
 21
-13.0
 31
0.0
  0
LINE
  5
1A3A
  8
243
  6
HIDDEN2
 10
-17.5
 20
-13.0
 30
0.0
 11
-17.5
 21
-18.375000000702919
 31
0.0
  0
LINE
  5
1A3B
  8
243
  6
HIDDEN2
 10
-14.996025400000009
 20
-13.0
 30
0.0
 11
-25.0
 21
-13.0
 31
0.0
  0
ARC
  5
1A3C
  8
243
  6
HIDDEN2
 10
-5.0609879300000076
 20
-10.0
 30
0.0
 40
5.999999999156417
 50
270.0
 51
326.63298702999941
  0
LINE
  5
1A3D
  8
243
  6
HIDDEN2
 10
-5.0609879300000076
 20
-16.0
 30
0.0
 11
-13.26397459999998
 21
-16.0
 31
0.0
  0
LINE
  5
1A3E
  8
243
  6
HIDDEN2
 10
-10.5
 20
-16.0
 30
0.0
 11
-10.5
 21
-18.725000000000009
 31
0.0
1001
GRPNAME
1000
PASTMD02
  0
LINE
  5
1A3F
  8
245
  6
CENTER2
 10
-7.5
 20
-15.25996314399435
 30
0.0
 11
-7.5
 21
-19.606323407045348
 31
0.0
1001
GRPNAME
1000
PASTMD02
  0
LINE
  5
1A40
  8
243
  6
HIDDEN2
 10
-4.5
 20
-16.0
 30
0.0
 11
-4.5
 21
-19.024999999999981
 31
0.0
1001
GRPNAME
1000
PASTMD02
  0
LINE
  5
1A41
  8
250
  6
CONTINUOUS
 10
-14.9368727749131
 20
-20.320403317759311
 30
0.0
 11
-13.5
 21
-18.575000000521531
 31
0.0
  0
LINE
  5
1A42
  8
250
  6
CONTINUOUS
 10
-14.293127224732549
 20
-20.69206998436692
 30
0.0
 11
-13.5
 21
-18.575000000521531
 31
0.0
  0
LINE
  5
1A43
  8
250
  6
CONTINUOUS
 10
-13.5
 20
-18.575000000521531
 30
0.0
 11
-14.61499999982283
 21
-20.506236651063091
 31
0.0
  0
POLYLINE
  5
1A44
  8
250
  6
CONTINUOUS
 66
     1
 10
0.0
 20
0.0
 30
0.0
1001
ACAD
1000
DSTYLE
1002
{
1070
     6
1000
OPEN
1070
   343
1005
0
1002
}
  0
VERTEX
  5
1A45
  8
250
  6
CONTINUOUS
 10
-14.61499999982283
 20
-20.506236651063091
 30
0.0
  0
VERTEX
  5
1A46
  8
250
  6
CONTINUOUS
 10
-18.87478634999999
 20
-27.884403040521541
 30
0.0
  0
SEQEND
  5
1A47
  8
250
  6
CONTINUOUS
  0
TEXT
  5
1A48
  8
250
  6
CONTINUOUS
 10
-40.87478635333332
 20
-26.884403040521541
 30
0.0
 40
2.799999999999998
  1
HSK-A50
  7
YOKO
1001
ITEMNAME
1000
LNSP3
  0
LINE
  5
1A49
  8
250
  6
CONTINUOUS
 10
-18.87478634999999
 20
-27.884403040521541
 30
0.0
 11
-43.14145302
 21
-27.884403040521541
 31
0.0
1001
ITEMNAME
1000
LNSP2
  0
LINE
  5
1A4A
  8
247
  6
CONTINUOUS
 10
6.4999999999999432
 20
-14.75
 30
0.0
 11
6.5
 21
-10.11538461566999
 31
0.0
  0
LINE
  5
1A4B
  8
247
  6
CONTINUOUS
 10
4.0
 20
-13.95489349998792
 30
0.0
 11
6.0999999999160082
 21
-14.557058810057351
 31
0.0
  0
LINE
  5
1A4C
  8
247
  6
CONTINUOUS
 10
4.996153846113998
 20
-13.32515140351904
 30
0.0
 11
4.996153846113998
 21
-14.240536018867029
 31
0.0
  0
ARC
  5
1A4D
  8
247
  6
CONTINUOUS
 10
4.384719067294097
 20
-13.08726340194676
 30
0.0
 40
0.3876715809326743
 50
72.997889675291773
 51
172.92416621851359
  0
ARC
  5
1A4E
  8
247
  6
CONTINUOUS
 10
4.305223131028014
 20
-13.38247755680413
 30
0.0
 40
0.6933047965358768
 50
4.7429368522022122
 51
73.849226273266297
1001
GENIUS_GENOBJ-N-FIL_13
1002
{
1000
OWNER
1000
GEN
1002
}
1001
GENIUS_GENODEF_13
1002
{
1000
HIER
1070
     0
1002
}
1002
{
1000
MANEDIT
1070
     0
1002
}
1002
{
1000
NOSEL
1070
     0
1002
}
1002
{
1000
BEHIND
1070
     0
1002
}
1002
{
1000
OTHER
1070
     0
1002
}
1002
{
1000
REACTOR
1002
}
  0
LINE
  5
1A4F
  8
247
  6
CONTINUOUS
 10
6.0999999999160082
 20
-13.64167419470937
 30
0.0
 11
6.0999999999160082
 21
-14.557058810057351
 31
0.0
  0
LINE
  5
1A50
  8
247
  6
CONTINUOUS
 10
4.0
 20
-13.954893499987969
 30
0.0
 11
4.0
 21
-13.039508884639931
 31
0.0
  0
ARC
  5
1A51
  8
247
  6
CONTINUOUS
 10
5.3874169627678707
 20
-13.378306476266861
 30
0.0
 40
0.394857301075386
 50
65.990941652528889
 51
172.26344345906909
  0
ARC
  5
1A52
  8
247
  6
CONTINUOUS
 10
5.3912003273325668
 20
-13.71244661042692
 30
0.0
 40
0.7123241612361686
 50
5.7019851642564632
 51
77.277338436822376
1001
GENIUS_GENOBJ-N-FIL_13
1002
{
1000
OWNER
1000
GEN
1002
}
1001
GENIUS_GENODEF_13
1002
{
1000
HIER
1070
     0
1002
}
1002
{
1000
MANEDIT
1070
     0
1002
}
1002
{
1000
NOSEL
1070
     0
1002
}
1002
{
1000
BEHIND
1070
     0
1002
}
1002
{
1000
OTHER
1070
     0
1002
}
1002
{
1000
REACTOR
1002
}
  0
LINE
  5
1A53
  8
247
  6
CONTINUOUS
 10
6.0999999999160082
 20
-12.6839818870634
 30
0.0
 11
4.0
 21
-12.08181657699396
 31
0.0
  0
LINE
  5
1A54
  8
247
  6
CONTINUOUS
 10
4.0
 20
-10.58566273090798
 30
0.0
 11
4.0
 21
-10.98167836430355
 31
0.0
  0
LINE
  5
1A55
  8
247
  6
CONTINUOUS
 10
6.0999999999160082
 20
-11.60873965394398
 30
0.0
 11
6.0999999999160082
 21
-11.17797042319193
 31
0.0
  0
ARC
  5
1A56
  8
247
  6
CONTINUOUS
 10
5.4582995950833579
 20
-10.381816577069911
 30
0.0
 40
1.576855057639547
 50
202.35948814152559
 51
254.99324854284609
  0
ARC
  5
1A57
  8
247
  6
CONTINUOUS
 10
4.5658188585381341
 20
-10.847511366133171
 30
0.0
 40
0.6234706797009447
 50
94.994589319075317
 51
155.1663289573039
1001
GENIUS_GENOBJ-N-FIL_13
1002
{
1000
OWNER
1000
GEN
1002
}
1001
GENIUS_GENODEF_13
1002
{
1000
HIER
1070
     0
1002
}
1002
{
1000
MANEDIT
1070
     0
1002
}
1002
{
1000
NOSEL
1070
     0
1002
}
1002
{
1000
BEHIND
1070
     0
1002
}
1002
{
1000
OTHER
1070
     0
1002
}
1002
{
1000
REACTOR
1002
}
  0
ARC
  5
1A58
  8
247
  6
CONTINUOUS
 10
5.1621021219694381
 20
-11.44418395103275
 30
0.0
 40
0.9749472149106983
 50
15.8460965557808
 51
82.325137004169065
  0
ARC
  5
1A59
  8
247
  6
CONTINUOUS
 10
5.371470401971064
 20
-11.035211638772241
 30
0.0
 40
0.9271945638692009
 50
249.7136016704969
 51
321.78874565640689
1001
GENIUS_GENOBJ-N-FIL_13
1002
{
1000
OWNER
1000
GEN
1002
}
1001
GENIUS_GENODEF_13
1002
{
1000
HIER
1070
     0
1002
}
1002
{
1000
MANEDIT
1070
     0
1002
}
1002
{
1000
NOSEL
1070
     0
1002
}
1002
{
1000
BEHIND
1070
     0
1002
}
1002
{
1000
OTHER
1070
     0
1002
}
1002
{
1000
REACTOR
1002
}
  0
LINE
  5
1A5A
  8
247
  6
CONTINUOUS
 10
5.2923076922559744
 20
-10.962585807815911
 30
0.0
 11
5.2923076922559744
 21
-10.47797042321997
 31
0.0
  0
ARC
  5
1A5B
  8
247
  6
CONTINUOUS
 10
5.25
 20
-14.75
 30
0.0
 40
1.25
 50
180.0
 51
0.0
  0
LINE
  5
1A5C
  8
247
  6
CONTINUOUS
 10
4.0
 20
-14.75
 30
0.0
 11
4.0
 21
-14.30384615391398
 31
0.0
  0
ARC
  5
1A5D
  8
247
  6
CONTINUOUS
 10
5.25
 20
-10.11538461566999
 30
0.0
 40
1.25
 50
0.0
 51
180.0
  0
LINE
  5
1A6E
  8
243
  6
HIDDEN2
 10
32.999999999977717
 20
10.00000000000203
 30
0.0
 11
78.500000000003666
 21
10.0000000000003
 31
0.0
  0
LINE
  5
1A6F
  8
243
  6
HIDDEN2
 10
85.0
 20
13.59999999999985
 30
0.0
 11
78.50000000000054
 21
13.59999999999985
 31
0.0
  0
LINE
  5
1A73
  8
243
  6
HIDDEN2
 10
32.999999999977717
 20
-10.00000000000203
 30
0.0
 11
78.500000000003666
 21
-10.0000000000003
 31
0.0
  0
LINE
  5
1A74
  8
243
  6
HIDDEN2
 10
85.0
 20
-13.59999999999985
 30
0.0
 11
78.50000000000054
 21
-13.59999999999985
 31
0.0
  0
LINE
  5
1A75
  8
243
  6
HIDDEN2
 10
78.50000000002413
 20
13.59999999999985
 30
0.0
 11
78.50000000000054
 21
-13.59999999999985
 31
0.0
  0
VIEWPORT
  5
22
 67
     1
  8
0
 10
261.51769911999997
 20
148.5
 30
0.0
 40
523.03539823000006
 41
297.0
 68
     1
 69
     1
1001
ACAD
1000
MVIEW
1002
{
1070
    16
1010
0.0
1020
0.0
1030
0.0
1010
0.0
1020
0.0
1030
1.0
1040
0.0
1040
297.0
1040
261.51769911999997
1040
148.5
1040
50.0
1040
0.0
1040
0.0
1070
     0
1070
   100
1070
     1
1070
     1
1070
     0
1070
     0
1070
     0
1070
     0
1040
0.0
1040
0.0
1040
0.0
1040
1.0
1040
1.0
1040
10.0
1040
10.0
1070
     0
1002
{
1002
}
1002
}
1001
GENIUS_GENOBJ-N-SDF_13
1002
{
1000
OWNER
1000
GEN
1002
}
1001
GENIUS_GENODEF_13
1002
{
1000
HIER
1070
     0
1002
}
1002
{
1000
MANEDIT
1070
     0
1002
}
1002
{
1000
NOSEL
1070
     0
1002
}
1002
{
1000
BEHIND
1070
     0
1002
}
1002
{
1000
OTHER
1070
     0
1002
}
1002
{
1000
REACTOR
1002
}
1001
GENIUS_GENSCREG_15
1000
PF
1040
1.0
1000
DF
1040
1.0
1000
MIN
1011
0.0000000049999471
1021
0.0
1031
0.0
1021
0.0
1031
0.0
1000
MAX
1011
523.035398235
1021
0.0
1031
0.0
1021
297.0
1031
0.0
1000
FLAGS
1070
     4
  0
ENDSEC
  0
EOF
