ISO-10303-21;
HEADER;
FILE_DESCRIPTION((''),'1');
FILE_NAME('//Big_tech03/bigt/Translate/21_\X2\8F2A90ED7DDA\X0\-DXF/71_\X2\5207524A5DE55177\X0\/01_\X2\30A830F330C930DF30EB52A05DE5\X0\/01_\X2\30D530EB30AB30C330C830DF30EB\X0\ FCM/HSK/A 50/HSK-A50-FCM20093-75.stp','2012-05-30T04:52:19',(''),(''),'Spatial Interop R18','Kubotek KeyCreator V8.5.1 (14335)',' ');
FILE_SCHEMA(('CONFIG_CONTROL_DESIGN'));
ENDSEC;
DATA;
#1=DESIGN_CONTEXT('',#27,'design');
#2=APPLICATION_PROTOCOL_DEFINITION('INTERNATIONAL STANDARD','config_control_design',1994,#27);
#3=PRODUCT_CATEGORY_RELATIONSHIP('NONE','NONE',#28,#29);
#4=DATE_AND_TIME(#30,#31);
#5=DATE_TIME_ROLE('creation_date');
#6=DATE_TIME_ROLE('classification_date');
#7=PERSON_AND_ORGANIZATION_ROLE('creator');
#8=PERSON_AND_ORGANIZATION_ROLE('design_supplier');
#9=PERSON_AND_ORGANIZATION_ROLE('classification_officer');
#10=PERSON_AND_ORGANIZATION_ROLE('design_owner');
#11=APPROVAL_PERSON_ORGANIZATION(#32,#33,#34);
#12=APPROVAL_DATE_TIME(#4,#33);
#13=CC_DESIGN_APPROVAL(#33,(#35,#36,#37));
#14=CC_DESIGN_DATE_AND_TIME_ASSIGNMENT(#4,#5,(#37));
#15=CC_DESIGN_DATE_AND_TIME_ASSIGNMENT(#4,#6,(#35));
#16=CC_DESIGN_PERSON_AND_ORGANIZATION_ASSIGNMENT(#32,#10,(#38));
#17=CC_DESIGN_PERSON_AND_ORGANIZATION_ASSIGNMENT(#32,#7,(#37));
#18=CC_DESIGN_PERSON_AND_ORGANIZATION_ASSIGNMENT(#32,#7,(#36));
#19=CC_DESIGN_PERSON_AND_ORGANIZATION_ASSIGNMENT(#32,#8,(#36));
#20=CC_DESIGN_SECURITY_CLASSIFICATION(#35,(#36));
#21=CC_DESIGN_PERSON_AND_ORGANIZATION_ASSIGNMENT(#32,#9,(#35));
#22=SHAPE_DEFINITION_REPRESENTATION(#39,#40);
#23= (GEOMETRIC_REPRESENTATION_CONTEXT(3)GLOBAL_UNCERTAINTY_ASSIGNED_CONTEXT((#43))GLOBAL_UNIT_ASSIGNED_CONTEXT((#45,#46,#47))REPRESENTATION_CONTEXT('NONE','WORKSPACE'));
#27=APPLICATION_CONTEXT('CONFIGURATION CONTROLLED 3D DESIGNS OF MECHANICAL PARTS AND ASSEMBLIES');
#28=PRODUCT_CATEGORY('part','NONE');
#29=PRODUCT_RELATED_PRODUCT_CATEGORY('detail',' ',(#38));
#30=CALENDAR_DATE(2012,30,4);
#31=LOCAL_TIME(13,52,19.0,#49);
#32=PERSON_AND_ORGANIZATION(#50,#51);
#33=APPROVAL(#52,'SOLID MODEL');
#34=APPROVAL_ROLE('APPROVED');
#35=SECURITY_CLASSIFICATION('','',#53);
#36=PRODUCT_DEFINITION_FORMATION_WITH_SPECIFIED_SOURCE(' ','NONE',#38,.NOT_KNOWN.);
#37=PRODUCT_DEFINITION('NONE','NONE',#36,#1);
#38=PRODUCT('1','1','PART-1-DESC',(#54));
#39=PRODUCT_DEFINITION_SHAPE('NONE','NONE',#37);
#40=ADVANCED_BREP_SHAPE_REPRESENTATION('1',(#55,#56),#23);
#43=UNCERTAINTY_MEASURE_WITH_UNIT(LENGTH_MEASURE(1.0E-006),#45,'','');
#45= (CONVERSION_BASED_UNIT('MILLIMETRE',#59)LENGTH_UNIT()NAMED_UNIT(#62));
#46= (NAMED_UNIT(#64)PLANE_ANGLE_UNIT()SI_UNIT($,.RADIAN.));
#47= (NAMED_UNIT(#64)SOLID_ANGLE_UNIT()SI_UNIT($,.STERADIAN.));
#49=COORDINATED_UNIVERSAL_TIME_OFFSET(9,0,.AHEAD.);
#50=PERSON('','UNSPECIFIED',$,$,$,$);
#51=ORGANIZATION('UNSPECIFIED','UNSPECIFIED','UNSPECIFIED');
#52=APPROVAL_STATUS('approved');
#53=SECURITY_CLASSIFICATION_LEVEL('unclassified');
#54=MECHANICAL_CONTEXT('',#27,'mechanical');
#55=MANIFOLD_SOLID_BREP('1',#70);
#56=AXIS2_PLACEMENT_3D('',#71,#72,#73);
#59=LENGTH_MEASURE_WITH_UNIT(LENGTH_MEASURE(1.0),#74);
#62=DIMENSIONAL_EXPONENTS(1.0,0.0,0.0,0.0,0.0,0.0,0.0);
#64=DIMENSIONAL_EXPONENTS(0.0,0.0,0.0,0.0,0.0,0.0,0.0);
#70=CLOSED_SHELL('',(#75,#76,#77,#78,#79,#80,#81,#82,#83,#84,#85,#86,#87,#88,#89,#90,#91,#92,#93,#94));
#71=CARTESIAN_POINT('',(0.0,0.0,0.0));
#72=DIRECTION('',(0.0,0.0,1.0));
#73=DIRECTION('',(1.0,0.0,0.0));
#74= (NAMED_UNIT(#62)LENGTH_UNIT()SI_UNIT(.MILLI.,.METRE.));
#75=ADVANCED_FACE('',(#96,#97),#98,.T.);
#76=ADVANCED_FACE('',(#99,#100),#101,.T.);
#77=ADVANCED_FACE('',(#102,#103),#104,.T.);
#78=ADVANCED_FACE('',(#105,#106),#107,.T.);
#79=ADVANCED_FACE('',(#108,#109),#110,.T.);
#80=ADVANCED_FACE('',(#111,#112),#113,.T.);
#81=ADVANCED_FACE('',(#114,#115),#116,.T.);
#82=ADVANCED_FACE('',(#117,#118),#119,.T.);
#83=ADVANCED_FACE('',(#120,#121),#122,.T.);
#84=ADVANCED_FACE('',(#123,#124),#125,.T.);
#85=ADVANCED_FACE('',(#126,#127),#128,.T.);
#86=ADVANCED_FACE('',(#129,#130),#131,.T.);
#87=ADVANCED_FACE('',(#132,#133),#134,.T.);
#88=ADVANCED_FACE('',(#135,#136),#137,.T.);
#89=ADVANCED_FACE('',(#138,#139),#140,.T.);
#90=ADVANCED_FACE('',(#141,#142),#143,.T.);
#91=ADVANCED_FACE('',(#144),#145,.T.);
#92=ADVANCED_FACE('',(#146),#147,.T.);
#93=ADVANCED_FACE('',(#148,#149),#150,.T.);
#94=ADVANCED_FACE('',(#151,#152),#153,.T.);
#96=FACE_OUTER_BOUND('',#154,.T.);
#97=FACE_BOUND('',#155,.T.);
#98=PLANE('',#156);
#99=FACE_BOUND('',#157,.T.);
#100=FACE_BOUND('',#158,.T.);
#101=CYLINDRICAL_SURFACE('',#159,25.0);
#102=FACE_BOUND('',#160,.T.);
#103=FACE_BOUND('',#161,.T.);
#104=CONICAL_SURFACE('',#162,23.69879763,1.04719755326565);
#105=FACE_BOUND('',#163,.T.);
#106=FACE_OUTER_BOUND('',#164,.T.);
#107=PLANE('',#165);
#108=FACE_BOUND('',#166,.T.);
#109=FACE_BOUND('',#167,.T.);
#110=CYLINDRICAL_SURFACE('',#168,21.5);
#111=FACE_OUTER_BOUND('',#169,.T.);
#112=FACE_BOUND('',#170,.T.);
#113=PLANE('',#171);
#114=FACE_BOUND('',#172,.T.);
#115=FACE_BOUND('',#173,.T.);
#116=CONICAL_SURFACE('',#174,23.69879763,1.04719755326565);
#117=FACE_BOUND('',#175,.T.);
#118=FACE_BOUND('',#176,.T.);
#119=CYLINDRICAL_SURFACE('',#177,25.0);
#120=FACE_BOUND('',#178,.T.);
#121=FACE_OUTER_BOUND('',#179,.T.);
#122=PLANE('',#180);
#123=FACE_BOUND('',#181,.T.);
#124=FACE_BOUND('',#182,.T.);
#125=CYLINDRICAL_SURFACE('',#183,20.8);
#126=FACE_BOUND('',#184,.T.);
#127=FACE_OUTER_BOUND('',#185,.T.);
#128=PLANE('',#186);
#129=FACE_BOUND('',#187,.T.);
#130=FACE_BOUND('',#188,.T.);
#131=CONICAL_SURFACE('',#189,14.6952365786551,1.04335506315284);
#132=FACE_BOUND('',#190,.T.);
#133=FACE_BOUND('',#191,.T.);
#134=CONICAL_SURFACE('',#192,11.3952365786551,0.301225816893821);
#135=FACE_BOUND('',#193,.T.);
#136=FACE_BOUND('',#194,.T.);
#137=CYLINDRICAL_SURFACE('',#195,9.4);
#138=FACE_BOUND('',#196,.T.);
#139=FACE_BOUND('',#197,.T.);
#140=CONICAL_SURFACE('',#198,9.7,0.369443267706019);
#141=FACE_BOUND('',#199,.T.);
#142=FACE_BOUND('',#200,.T.);
#143=CYLINDRICAL_SURFACE('',#201,10.0);
#144=FACE_OUTER_BOUND('',#202,.T.);
#145=PLANE('',#203);
#146=FACE_OUTER_BOUND('',#204,.T.);
#147=PLANE('',#205);
#148=FACE_BOUND('',#206,.T.);
#149=FACE_BOUND('',#207,.T.);
#150=CONICAL_SURFACE('',#208,18.5750000005215,0.049958395676703);
#151=FACE_BOUND('',#209,.T.);
#152=FACE_BOUND('',#210,.T.);
#153=CYLINDRICAL_SURFACE('',#211,19.15);
#154=EDGE_LOOP('',(#212));
#155=EDGE_LOOP('',(#213));
#156=AXIS2_PLACEMENT_3D('',#214,#215,#216);
#157=EDGE_LOOP('',(#217));
#158=EDGE_LOOP('',(#218));
#159=AXIS2_PLACEMENT_3D('',#219,#220,#221);
#160=EDGE_LOOP('',(#222));
#161=EDGE_LOOP('',(#223));
#162=AXIS2_PLACEMENT_3D('',#224,#225,#226);
#163=EDGE_LOOP('',(#227));
#164=EDGE_LOOP('',(#228));
#165=AXIS2_PLACEMENT_3D('',#229,#230,#231);
#166=EDGE_LOOP('',(#232));
#167=EDGE_LOOP('',(#233));
#168=AXIS2_PLACEMENT_3D('',#234,#235,#236);
#169=EDGE_LOOP('',(#237));
#170=EDGE_LOOP('',(#238));
#171=AXIS2_PLACEMENT_3D('',#239,#240,#241);
#172=EDGE_LOOP('',(#242));
#173=EDGE_LOOP('',(#243));
#174=AXIS2_PLACEMENT_3D('',#244,#245,#246);
#175=EDGE_LOOP('',(#247));
#176=EDGE_LOOP('',(#248));
#177=AXIS2_PLACEMENT_3D('',#249,#250,#251);
#178=EDGE_LOOP('',(#252));
#179=EDGE_LOOP('',(#253));
#180=AXIS2_PLACEMENT_3D('',#254,#255,#256);
#181=EDGE_LOOP('',(#257));
#182=EDGE_LOOP('',(#258));
#183=AXIS2_PLACEMENT_3D('',#259,#260,#261);
#184=EDGE_LOOP('',(#262));
#185=EDGE_LOOP('',(#263));
#186=AXIS2_PLACEMENT_3D('',#264,#265,#266);
#187=EDGE_LOOP('',(#267));
#188=EDGE_LOOP('',(#268));
#189=AXIS2_PLACEMENT_3D('',#269,#270,#271);
#190=EDGE_LOOP('',(#272));
#191=EDGE_LOOP('',(#273));
#192=AXIS2_PLACEMENT_3D('',#274,#275,#276);
#193=EDGE_LOOP('',(#277));
#194=EDGE_LOOP('',(#278));
#195=AXIS2_PLACEMENT_3D('',#279,#280,#281);
#196=EDGE_LOOP('',(#282));
#197=EDGE_LOOP('',(#283));
#198=AXIS2_PLACEMENT_3D('',#284,#285,#286);
#199=EDGE_LOOP('',(#287));
#200=EDGE_LOOP('',(#288));
#201=AXIS2_PLACEMENT_3D('',#289,#290,#291);
#202=EDGE_LOOP('',(#292));
#203=AXIS2_PLACEMENT_3D('',#293,#294,#295);
#204=EDGE_LOOP('',(#296));
#205=AXIS2_PLACEMENT_3D('',#297,#298,#299);
#206=EDGE_LOOP('',(#300));
#207=EDGE_LOOP('',(#301));
#208=AXIS2_PLACEMENT_3D('',#302,#303,#304);
#209=EDGE_LOOP('',(#305));
#210=EDGE_LOOP('',(#306));
#211=AXIS2_PLACEMENT_3D('',#307,#308,#309);
#212=ORIENTED_EDGE('',*,*,#310,.F.);
#213=ORIENTED_EDGE('',*,*,#311,.T.);
#214=CARTESIAN_POINT('',(-2.72095382543029E-031,22.075,2.70340780911778E-015));
#215=DIRECTION('',(-6.12323399573677E-017,-1.22464679914735E-016,1.0));
#216=DIRECTION('',(1.23259516440783E-032,-1.0,-1.22464679914735E-016));
#217=ORIENTED_EDGE('',*,*,#312,.F.);
#218=ORIENTED_EDGE('',*,*,#310,.T.);
#219=CARTESIAN_POINT('',(4.47684973986342E-016,8.95369947972684E-016,-7.311250465));
#220=DIRECTION('',(-6.12323399573677E-017,-1.22464679914735E-016,1.0));
#221=DIRECTION('',(-1.23259516440783E-032,1.0,1.22464679914735E-016));
#222=ORIENTED_EDGE('',*,*,#313,.F.);
#223=ORIENTED_EDGE('',*,*,#312,.T.);
#224=CARTESIAN_POINT('',(9.41370714892619E-016,1.88274142978524E-015,-15.373750465));
#225=DIRECTION('',(-6.12323399573676E-017,-1.22464679914735E-016,1.0));
#226=DIRECTION('',(-1.23259516440783E-032,1.0,1.22464679914735E-016));
#227=ORIENTED_EDGE('',*,*,#314,.F.);
#228=ORIENTED_EDGE('',*,*,#313,.T.);
#229=CARTESIAN_POINT('',(9.87371481812553E-016,21.94879763,-16.125));
#230=DIRECTION('',(6.12323399573677E-017,1.22464679914735E-016,-1.0));
#231=DIRECTION('',(-1.23259516440783E-032,1.0,1.22464679914735E-016));
#232=ORIENTED_EDGE('',*,*,#315,.F.);
#233=ORIENTED_EDGE('',*,*,#314,.T.);
#234=CARTESIAN_POINT('',(1.10218211923262E-015,2.20436423846524E-015,-18.0));
#235=DIRECTION('',(-6.12323399573677E-017,-1.22464679914735E-016,1.0));
#236=DIRECTION('',(-1.23259516440783E-032,1.0,1.22464679914735E-016));
#237=ORIENTED_EDGE('',*,*,#316,.F.);
#238=ORIENTED_EDGE('',*,*,#315,.T.);
#239=CARTESIAN_POINT('',(1.21699275665268E-015,21.94879763,-19.875));
#240=DIRECTION('',(-6.12323399573677E-017,-1.22464679914735E-016,1.0));
#241=DIRECTION('',(1.23259516440783E-032,-1.0,-1.22464679914735E-016));
#242=ORIENTED_EDGE('',*,*,#317,.F.);
#243=ORIENTED_EDGE('',*,*,#316,.T.);
#244=CARTESIAN_POINT('',(1.26299352357262E-015,2.52598704714523E-015,-20.626249535));
#245=DIRECTION('',(6.12323399573676E-017,1.22464679914735E-016,-1.0));
#246=DIRECTION('',(-1.23259516440783E-032,1.0,1.22464679914735E-016));
#247=ORIENTED_EDGE('',*,*,#318,.F.);
#248=ORIENTED_EDGE('',*,*,#317,.T.);
#249=CARTESIAN_POINT('',(1.45051756469206E-015,2.90103512938411E-015,-23.688749535));
#250=DIRECTION('',(-6.12323399573677E-017,-1.22464679914735E-016,1.0));
#251=DIRECTION('',(-1.23259516440783E-032,1.0,1.22464679914735E-016));
#252=ORIENTED_EDGE('',*,*,#319,.F.);
#253=ORIENTED_EDGE('',*,*,#318,.T.);
#254=CARTESIAN_POINT('',(1.59204083889156E-015,22.9,-26.0));
#255=DIRECTION('',(6.12323399573677E-017,1.22464679914735E-016,-1.0));
#256=DIRECTION('',(-1.23259516440783E-032,1.0,1.22464679914735E-016));
#257=ORIENTED_EDGE('',*,*,#320,.F.);
#258=ORIENTED_EDGE('',*,*,#319,.T.);
#259=CARTESIAN_POINT('',(1.83697019872103E-015,3.67394039744206E-015,-30.0));
#260=DIRECTION('',(-6.12323399573677E-017,-1.22464679914735E-016,1.0));
#261=DIRECTION('',(-1.23259516440783E-032,1.0,1.22464679914735E-016));
#262=ORIENTED_EDGE('',*,*,#321,.F.);
#263=ORIENTED_EDGE('',*,*,#320,.T.);
#264=CARTESIAN_POINT('',(2.0818995585505E-015,18.4,-34.0));
#265=DIRECTION('',(6.12323399573677E-017,1.22464679914735E-016,-1.0));
#266=DIRECTION('',(-1.23259516440783E-032,1.0,1.22464679914735E-016));
#267=ORIENTED_EDGE('',*,*,#322,.F.);
#268=ORIENTED_EDGE('',*,*,#321,.T.);
#269=CARTESIAN_POINT('',(2.12843645076304E-015,4.25687290152609E-015,-34.7600051254769));
#270=DIRECTION('',(-6.12323399573677E-017,-1.22464679914735E-016,1.0));
#271=DIRECTION('',(-1.23259516440783E-032,1.0,1.22464679914735E-016));
#272=ORIENTED_EDGE('',*,*,#323,.F.);
#273=ORIENTED_EDGE('',*,*,#322,.T.);
#274=CARTESIAN_POINT('',(2.56821736938602E-015,5.13643473877204E-015,-41.9421725704769));
#275=DIRECTION('',(-6.12323399573677E-017,-1.22464679914735E-016,1.0));
#276=DIRECTION('',(-1.23259516440783E-032,1.0,1.22464679914735E-016));
#277=ORIENTED_EDGE('',*,*,#324,.F.);
#278=ORIENTED_EDGE('',*,*,#323,.T.);
#279=CARTESIAN_POINT('',(3.45395829949448E-015,6.90791659898896E-015,-56.407419705));
#280=DIRECTION('',(-6.12323399573677E-017,-1.22464679914735E-016,1.0));
#281=DIRECTION('',(-1.23259516440783E-032,1.0,1.22464679914735E-016));
#282=ORIENTED_EDGE('',*,*,#325,.F.);
#283=ORIENTED_EDGE('',*,*,#324,.T.);
#284=CARTESIAN_POINT('',(3.99389482018938E-015,7.98778964037876E-015,-65.22525226));
#285=DIRECTION('',(6.12323399573677E-017,1.22464679914735E-016,-1.0));
#286=DIRECTION('',(-1.23259516440783E-032,1.0,1.22464679914735E-016));
#287=ORIENTED_EDGE('',*,*,#326,.F.);
#288=ORIENTED_EDGE('',*,*,#325,.T.);
#289=CARTESIAN_POINT('',(4.31687996699442E-015,8.63375993398884E-015,-70.5));
#290=DIRECTION('',(-6.12323399573677E-017,-1.22464679914735E-016,1.0));
#291=DIRECTION('',(-1.23259516440783E-032,1.0,1.22464679914735E-016));
#292=ORIENTED_EDGE('',*,*,#326,.T.);
#293=CARTESIAN_POINT('',(4.59242549680257E-015,5.00000000000001,-75.0));
#294=DIRECTION('',(6.12323399573677E-017,1.22464679914735E-016,-1.0));
#295=DIRECTION('',(-1.23259516440783E-032,1.0,1.22464679914735E-016));
#296=ORIENTED_EDGE('',*,*,#327,.F.);
#297=CARTESIAN_POINT('',(-1.53080849893419E-015,9.00000000052154,25.0));
#298=DIRECTION('',(-6.12323399573677E-017,-1.22464679914735E-016,1.0));
#299=DIRECTION('',(1.23259516440783E-032,-1.0,-1.22464679914735E-016));
#300=ORIENTED_EDGE('',*,*,#328,.F.);
#301=ORIENTED_EDGE('',*,*,#327,.T.);
#302=CARTESIAN_POINT('',(-8.26636589424463E-016,-1.65327317884893E-015,13.5));
#303=DIRECTION('',(6.12323399573677E-017,1.22464679914735E-016,-1.0));
#304=DIRECTION('',(-1.23259516440783E-032,1.0,1.22464679914735E-016));
#305=ORIENTED_EDGE('',*,*,#311,.F.);
#306=ORIENTED_EDGE('',*,*,#328,.T.);
#307=CARTESIAN_POINT('',(-6.12323399573677E-017,-1.22464679914735E-016,1.0));
#308=DIRECTION('',(-6.12323399573677E-017,-1.22464679914735E-016,1.0));
#309=DIRECTION('',(-1.23259516440783E-032,1.0,1.22464679914735E-016));
#310=EDGE_CURVE('',#329,#329,#330,.T.);
#311=EDGE_CURVE('',#331,#331,#332,.T.);
#312=EDGE_CURVE('',#333,#333,#334,.T.);
#313=EDGE_CURVE('',#335,#335,#336,.T.);
#314=EDGE_CURVE('',#337,#337,#338,.T.);
#315=EDGE_CURVE('',#339,#339,#340,.T.);
#316=EDGE_CURVE('',#341,#341,#342,.T.);
#317=EDGE_CURVE('',#343,#343,#344,.T.);
#318=EDGE_CURVE('',#345,#345,#346,.T.);
#319=EDGE_CURVE('',#347,#347,#348,.T.);
#320=EDGE_CURVE('',#349,#349,#350,.T.);
#321=EDGE_CURVE('',#351,#351,#352,.T.);
#322=EDGE_CURVE('',#353,#353,#354,.T.);
#323=EDGE_CURVE('',#355,#355,#356,.T.);
#324=EDGE_CURVE('',#357,#357,#358,.T.);
#325=EDGE_CURVE('',#359,#359,#360,.T.);
#326=EDGE_CURVE('',#361,#361,#362,.T.);
#327=EDGE_CURVE('',#363,#363,#364,.T.);
#328=EDGE_CURVE('',#365,#365,#366,.T.);
#329=VERTEX_POINT('',#367);
#330=CIRCLE('',#368,25.0);
#331=VERTEX_POINT('',#369);
#332=CIRCLE('',#370,19.15);
#333=VERTEX_POINT('',#371);
#334=CIRCLE('',#372,25.0);
#335=VERTEX_POINT('',#373);
#336=CIRCLE('',#374,22.39759526);
#337=VERTEX_POINT('',#375);
#338=CIRCLE('',#376,21.5);
#339=VERTEX_POINT('',#377);
#340=CIRCLE('',#378,21.5);
#341=VERTEX_POINT('',#379);
#342=CIRCLE('',#380,22.39759526);
#343=VERTEX_POINT('',#381);
#344=CIRCLE('',#382,25.0);
#345=VERTEX_POINT('',#383);
#346=CIRCLE('',#384,25.0);
#347=VERTEX_POINT('',#385);
#348=CIRCLE('',#386,20.8);
#349=VERTEX_POINT('',#387);
#350=CIRCLE('',#388,20.8);
#351=VERTEX_POINT('',#389);
#352=CIRCLE('',#390,16.0);
#353=VERTEX_POINT('',#391);
#354=CIRCLE('',#392,13.3904731573103);
#355=VERTEX_POINT('',#393);
#356=CIRCLE('',#394,9.4);
#357=VERTEX_POINT('',#395);
#358=CIRCLE('',#396,9.4);
#359=VERTEX_POINT('',#397);
#360=CIRCLE('',#398,10.0);
#361=VERTEX_POINT('',#399);
#362=CIRCLE('',#400,10.0);
#363=VERTEX_POINT('',#401);
#364=CIRCLE('',#402,18.0000000010431);
#365=VERTEX_POINT('',#403);
#366=CIRCLE('',#404,19.15);
#367=CARTESIAN_POINT('',(-3.08148791101958E-031,25.0,3.06161699786838E-015));
#368=AXIS2_PLACEMENT_3D('',#405,#406,#407);
#369=CARTESIAN_POINT('',(-2.360419739841E-031,19.15,2.34519862036718E-015));
#370=AXIS2_PLACEMENT_3D('',#408,#409,#410);
#371=CARTESIAN_POINT('',(8.95369947972684E-016,25.0,-14.62250093));
#372=AXIS2_PLACEMENT_3D('',#411,#412,#413);
#373=CARTESIAN_POINT('',(9.87371481812553E-016,22.39759526,-16.125));
#374=AXIS2_PLACEMENT_3D('',#414,#415,#416);
#375=CARTESIAN_POINT('',(9.87371481812553E-016,21.5,-16.125));
#376=AXIS2_PLACEMENT_3D('',#417,#418,#419);
#377=CARTESIAN_POINT('',(1.21699275665268E-015,21.5,-19.875));
#378=AXIS2_PLACEMENT_3D('',#420,#421,#422);
#379=CARTESIAN_POINT('',(1.21699275665268E-015,22.39759526,-19.875));
#380=AXIS2_PLACEMENT_3D('',#423,#424,#425);
#381=CARTESIAN_POINT('',(1.30899429049255E-015,25.0,-21.37749907));
#382=AXIS2_PLACEMENT_3D('',#426,#427,#428);
#383=CARTESIAN_POINT('',(1.59204083889156E-015,25.0,-26.0));
#384=AXIS2_PLACEMENT_3D('',#429,#430,#431);
#385=CARTESIAN_POINT('',(1.59204083889156E-015,20.8,-26.0));
#386=AXIS2_PLACEMENT_3D('',#432,#433,#434);
#387=CARTESIAN_POINT('',(2.0818995585505E-015,20.8,-34.0));
#388=AXIS2_PLACEMENT_3D('',#435,#436,#437);
#389=CARTESIAN_POINT('',(2.0818995585505E-015,16.0,-34.0));
#390=AXIS2_PLACEMENT_3D('',#438,#439,#440);
#391=CARTESIAN_POINT('',(2.17497334297559E-015,13.3904731573103,-35.5200102509538));
#392=AXIS2_PLACEMENT_3D('',#441,#442,#443);
#393=CARTESIAN_POINT('',(2.96146139579646E-015,9.40000000000001,-48.36433489));
#394=AXIS2_PLACEMENT_3D('',#444,#445,#446);
#395=CARTESIAN_POINT('',(3.9464552031925E-015,9.40000000000001,-64.45050452));
#396=AXIS2_PLACEMENT_3D('',#447,#448,#449);
#397=CARTESIAN_POINT('',(4.04133443718627E-015,10.0,-66.0));
#398=AXIS2_PLACEMENT_3D('',#450,#451,#452);
#399=CARTESIAN_POINT('',(4.59242549680257E-015,10.0,-75.0));
#400=AXIS2_PLACEMENT_3D('',#453,#454,#455);
#401=CARTESIAN_POINT('',(-1.53080849893419E-015,18.0000000010431,25.0));
#402=AXIS2_PLACEMENT_3D('',#456,#457,#458);
#403=CARTESIAN_POINT('',(-1.22464679914736E-016,19.15,2.0));
#404=AXIS2_PLACEMENT_3D('',#459,#460,#461);
#405=CARTESIAN_POINT('',(0.0,0.0,0.0));
#406=DIRECTION('',(6.12323399573677E-017,1.22464679914735E-016,-1.0));
#407=DIRECTION('',(-1.23259516440783E-032,1.0,1.22464679914735E-016));
#408=CARTESIAN_POINT('',(0.0,0.0,0.0));
#409=DIRECTION('',(6.12323399573677E-017,1.22464679914735E-016,-1.0));
#410=DIRECTION('',(-1.23259516440783E-032,1.0,1.22464679914735E-016));
#411=CARTESIAN_POINT('',(8.95369947972685E-016,1.79073989594537E-015,-14.62250093));
#412=DIRECTION('',(6.12323399573677E-017,1.22464679914735E-016,-1.0));
#413=DIRECTION('',(-1.23259516440783E-032,1.0,1.22464679914735E-016));
#414=CARTESIAN_POINT('',(9.87371481812554E-016,1.97474296362511E-015,-16.125));
#415=DIRECTION('',(6.12323399573677E-017,1.22464679914735E-016,-1.0));
#416=DIRECTION('',(-1.23259516440783E-032,1.0,1.22464679914735E-016));
#417=CARTESIAN_POINT('',(9.87371481812554E-016,1.97474296362511E-015,-16.125));
#418=DIRECTION('',(6.12323399573677E-017,1.22464679914735E-016,-1.0));
#419=DIRECTION('',(-1.23259516440783E-032,1.0,1.22464679914735E-016));
#420=CARTESIAN_POINT('',(1.21699275665268E-015,2.43398551330536E-015,-19.875));
#421=DIRECTION('',(6.12323399573677E-017,1.22464679914735E-016,-1.0));
#422=DIRECTION('',(-1.23259516440783E-032,1.0,1.22464679914735E-016));
#423=CARTESIAN_POINT('',(1.21699275665268E-015,2.43398551330536E-015,-19.875));
#424=DIRECTION('',(6.12323399573677E-017,1.22464679914735E-016,-1.0));
#425=DIRECTION('',(-1.23259516440783E-032,1.0,1.22464679914735E-016));
#426=CARTESIAN_POINT('',(1.30899429049255E-015,2.6179885809851E-015,-21.37749907));
#427=DIRECTION('',(6.12323399573677E-017,1.22464679914735E-016,-1.0));
#428=DIRECTION('',(-1.23259516440783E-032,1.0,1.22464679914735E-016));
#429=CARTESIAN_POINT('',(1.59204083889156E-015,3.18408167778312E-015,-26.0));
#430=DIRECTION('',(6.12323399573677E-017,1.22464679914735E-016,-1.0));
#431=DIRECTION('',(-1.23259516440783E-032,1.0,1.22464679914735E-016));
#432=CARTESIAN_POINT('',(1.59204083889156E-015,3.18408167778312E-015,-26.0));
#433=DIRECTION('',(6.12323399573677E-017,1.22464679914735E-016,-1.0));
#434=DIRECTION('',(-1.23259516440783E-032,1.0,1.22464679914735E-016));
#435=CARTESIAN_POINT('',(2.0818995585505E-015,4.163799117101E-015,-34.0));
#436=DIRECTION('',(6.12323399573677E-017,1.22464679914735E-016,-1.0));
#437=DIRECTION('',(-1.23259516440783E-032,1.0,1.22464679914735E-016));
#438=CARTESIAN_POINT('',(2.0818995585505E-015,4.163799117101E-015,-34.0));
#439=DIRECTION('',(6.12323399573677E-017,1.22464679914735E-016,-1.0));
#440=DIRECTION('',(-1.23259516440783E-032,1.0,1.22464679914735E-016));
#441=CARTESIAN_POINT('',(2.17497334297559E-015,4.34994668595117E-015,-35.5200102509538));
#442=DIRECTION('',(6.12323399573677E-017,1.22464679914735E-016,-1.0));
#443=DIRECTION('',(-1.23259516440783E-032,1.0,1.22464679914735E-016));
#444=CARTESIAN_POINT('',(2.96146139579646E-015,5.92292279159291E-015,-48.36433489));
#445=DIRECTION('',(6.12323399573677E-017,1.22464679914735E-016,-1.0));
#446=DIRECTION('',(-1.23259516440783E-032,1.0,1.22464679914735E-016));
#447=CARTESIAN_POINT('',(3.9464552031925E-015,7.892910406385E-015,-64.45050452));
#448=DIRECTION('',(6.12323399573677E-017,1.22464679914735E-016,-1.0));
#449=DIRECTION('',(-1.23259516440783E-032,1.0,1.22464679914735E-016));
#450=CARTESIAN_POINT('',(4.04133443718627E-015,8.08266887437253E-015,-66.0));
#451=DIRECTION('',(6.12323399573677E-017,1.22464679914735E-016,-1.0));
#452=DIRECTION('',(-1.23259516440783E-032,1.0,1.22464679914735E-016));
#453=CARTESIAN_POINT('',(4.59242549680257E-015,9.18485099360515E-015,-75.0));
#454=DIRECTION('',(6.12323399573677E-017,1.22464679914735E-016,-1.0));
#455=DIRECTION('',(-1.23259516440783E-032,1.0,1.22464679914735E-016));
#456=CARTESIAN_POINT('',(-1.53080849893419E-015,-3.06161699786838E-015,25.0));
#457=DIRECTION('',(6.12323399573677E-017,1.22464679914735E-016,-1.0));
#458=DIRECTION('',(-1.23259516440783E-032,1.0,1.22464679914735E-016));
#459=CARTESIAN_POINT('',(-1.22464679914735E-016,-2.44929359829471E-016,2.0));
#460=DIRECTION('',(6.12323399573677E-017,1.22464679914735E-016,-1.0));
#461=DIRECTION('',(-1.23259516440783E-032,1.0,1.22464679914735E-016));
ENDSEC;
END-ISO-10303-21;
