  0
SECTION
  2
HEADER
  9
$ACADVER
  1
AC1024
  9
$ACADMAINTVER
 70
     6
  9
$DWGCODEPAGE
  3
ANSI_1252
  9
$INSBASE
 10
0.0
 20
0.0
 30
0.0
  9
$EXTMIN
 10
-43.14145302
 20
-27.88440304052154
 30
0.0
  9
$EXTMAX
 10
92.24962296
 20
54.0
 30
0.0
  9
$LIMMIN
 10
0.0
 20
0.0
  9
$LIMMAX
 10
297.0
 20
210.0
  9
$ORTHOMODE
 70
     1
  9
$REGENMODE
 70
     1
  9
$FILLMODE
 70
     1
  9
$QTEXTMODE
 70
     0
  9
$MIRRTEXT
 70
     1
  9
$LTSCALE
 40
10.0
  9
$ATTMODE
 70
     1
  9
$TEXTSIZE
 40
3.0
  9
$TRACEWID
 40
1.0
  9
$TEXTSTYLE
  7
YOKO
  9
$CLAYER
  8
240
  9
$CELTYPE
  6
ByLayer
  9
$CECOLOR
 62
   256
  9
$CELTSCALE
 40
1.0
  9
$DISPSILH
 70
     0
  9
$DIMSCALE
 40
1.0
  9
$DIMASZ
 40
2.229999999999999
  9
$DIMEXO
 40
0.5
  9
$DIMDLI
 40
7.0
  9
$DIMRND
 40
0.0
  9
$DIMDLE
 40
0.0
  9
$DIMEXE
 40
1.0
  9
$DIMTP
 40
0.0
  9
$DIMTM
 40
0.01
  9
$DIMTXT
 40
2.799999999999999
  9
$DIMCEN
 40
0.0
  9
$DIMTSZ
 40
0.0
  9
$DIMTOL
 70
     0
  9
$DIMLIM
 70
     0
  9
$DIMTIH
 70
     0
  9
$DIMTOH
 70
     0
  9
$DIMSE1
 70
     0
  9
$DIMSE2
 70
     0
  9
$DIMTAD
 70
     3
  9
$DIMZIN
 70
     9
  9
$DIMBLK
  1
OPEN
  9
$DIMASO
 70
     1
  9
$DIMSHO
 70
     1
  9
$DIMPOST
  1

  9
$DIMAPOST
  1

  9
$DIMALT
 70
     0
  9
$DIMALTD
 70
     2
  9
$DIMALTF
 40
25.4
  9
$DIMLFAC
 40
1.0
  9
$DIMTOFL
 70
     1
  9
$DIMTVP
 40
0.0
  9
$DIMTIX
 70
     1
  9
$DIMSOXD
 70
     0
  9
$DIMSAH
 70
     0
  9
$DIMBLK1
  1

  9
$DIMBLK2
  1

  9
$DIMSTYLE
  2
BIGT
  9
$DIMCLRD
 70
   256
  9
$DIMCLRE
 70
   256
  9
$DIMCLRT
 70
    40
  9
$DIMTFAC
 40
1.0
  9
$DIMGAP
 40
1.0
  9
$DIMJUST
 70
     0
  9
$DIMSD1
 70
     0
  9
$DIMSD2
 70
     0
  9
$DIMTOLJ
 70
     1
  9
$DIMTZIN
 70
     0
  9
$DIMALTZ
 70
     0
  9
$DIMALTTZ
 70
     0
  9
$DIMUPT
 70
     0
  9
$DIMDEC
 70
     6
  9
$DIMTDEC
 70
     6
  9
$DIMALTU
 70
     2
  9
$DIMALTTD
 70
     2
  9
$DIMTXSTY
  7
STANDARD
  9
$DIMAUNIT
 70
     0
  9
$DIMADEC
 70
     0
  9
$DIMALTRND
 40
0.0
  9
$DIMAZIN
 70
     0
  9
$DIMDSEP
 70
    46
  9
$DIMATFIT
 70
     3
  9
$DIMFRAC
 70
     0
  9
$DIMLDRBLK
  1

  9
$DIMLUNIT
 70
     2
  9
$DIMLWD
 70
    -2
  9
$DIMLWE
 70
    -2
  9
$DIMTMOVE
 70
     2
  9
$DIMFXL
 40
1.0
  9
$DIMFXLON
 70
     0
  9
$DIMJOGANG
 40
0.7853981633974483
  9
$DIMTFILL
 70
     0
  9
$DIMTFILLCLR
 70
     0
  9
$DIMARCSYM
 70
     0
  9
$DIMLTYPE
  6

  9
$DIMLTEX1
  6

  9
$DIMLTEX2
  6

  9
$DIMTXTDIRECTION
 70
     0
  9
$LUNITS
 70
     2
  9
$LUPREC
 70
     6
  9
$SKETCHINC
 40
1.0
  9
$FILLETRAD
 40
0.0
  9
$AUNITS
 70
     0
  9
$AUPREC
 70
     6
  9
$MENU
  1
.
  9
$ELEVATION
 40
0.0
  9
$PELEVATION
 40
0.0
  9
$THICKNESS
 40
0.0
  9
$LIMCHECK
 70
     0
  9
$CHAMFERA
 40
0.2
  9
$CHAMFERB
 40
0.2
  9
$CHAMFERC
 40
1.0
  9
$CHAMFERD
 40
0.0
  9
$SKPOLY
 70
     0
  9
$TDCREATE
 40
2457732.481010613
  9
$TDUCREATE
 40
2457732.689343947
  9
$TDUPDATE
 40
2457732.765003924
  9
$TDUUPDATE
 40
2457732.973337257
  9
$TDINDWG
 40
0.008480625
  9
$TDUSRTIMER
 40
2458323.785204317
  9
$USRTIMER
 70
     1
  9
$ANGBASE
 50
0.0
  9
$ANGDIR
 70
     0
  9
$PDMODE
 70
     1
  9
$PDSIZE
 40
0.0
  9
$PLINEWID
 40
0.0
  9
$SPLFRAME
 70
     0
  9
$SPLINETYPE
 70
     6
  9
$SPLINESEGS
 70
     4
  9
$HANDSEED
  5
E06C
  9
$SURFTAB1
 70
     6
  9
$SURFTAB2
 70
     6
  9
$SURFTYPE
 70
     6
  9
$SURFU
 70
     6
  9
$SURFV
 70
     6
  9
$UCSBASE
  2

  9
$UCSNAME
  2

  9
$UCSORG
 10
0.0
 20
0.0
 30
0.0
  9
$UCSXDIR
 10
1.0
 20
0.0
 30
0.0
  9
$UCSYDIR
 10
0.0
 20
1.0
 30
0.0
  9
$UCSORTHOREF
  2

  9
$UCSORTHOVIEW
 70
     0
  9
$UCSORGTOP
 10
0.0
 20
0.0
 30
0.0
  9
$UCSORGBOTTOM
 10
0.0
 20
0.0
 30
0.0
  9
$UCSORGLEFT
 10
0.0
 20
0.0
 30
0.0
  9
$UCSORGRIGHT
 10
0.0
 20
0.0
 30
0.0
  9
$UCSORGFRONT
 10
0.0
 20
0.0
 30
0.0
  9
$UCSORGBACK
 10
0.0
 20
0.0
 30
0.0
  9
$PUCSBASE
  2

  9
$PUCSNAME
  2

  9
$PUCSORG
 10
0.0
 20
0.0
 30
0.0
  9
$PUCSXDIR
 10
1.0
 20
0.0
 30
0.0
  9
$PUCSYDIR
 10
0.0
 20
1.0
 30
0.0
  9
$PUCSORTHOREF
  2

  9
$PUCSORTHOVIEW
 70
     0
  9
$PUCSORGTOP
 10
0.0
 20
0.0
 30
0.0
  9
$PUCSORGBOTTOM
 10
0.0
 20
0.0
 30
0.0
  9
$PUCSORGLEFT
 10
0.0
 20
0.0
 30
0.0
  9
$PUCSORGRIGHT
 10
0.0
 20
0.0
 30
0.0
  9
$PUCSORGFRONT
 10
0.0
 20
0.0
 30
0.0
  9
$PUCSORGBACK
 10
0.0
 20
0.0
 30
0.0
  9
$USERI1
 70
     1
  9
$USERI2
 70
     0
  9
$USERI3
 70
     0
  9
$USERI4
 70
     0
  9
$USERI5
 70
     0
  9
$USERR1
 40
0.0
  9
$USERR2
 40
0.0
  9
$USERR3
 40
0.0
  9
$USERR4
 40
0.0
  9
$USERR5
 40
0.0
  9
$WORLDVIEW
 70
     1
  9
$SHADEDGE
 70
     3
  9
$SHADEDIF
 70
    70
  9
$TILEMODE
 70
     1
  9
$MAXACTVP
 70
    16
  9
$PINSBASE
 10
0.0
 20
0.0
 30
0.0
  9
$PLIMCHECK
 70
     0
  9
$PEXTMIN
 10
1.000000000000000E+20
 20
1.000000000000000E+20
 30
1.000000000000000E+20
  9
$PEXTMAX
 10
-1.000000000000000E+20
 20
-1.000000000000000E+20
 30
-1.000000000000000E+20
  9
$PLIMMIN
 10
0.0
 20
0.0
  9
$PLIMMAX
 10
420.0
 20
297.0
  9
$UNITMODE
 70
     0
  9
$VISRETAIN
 70
     1
  9
$PLINEGEN
 70
     0
  9
$PSLTSCALE
 70
     1
  9
$TREEDEPTH
 70
  3020
  9
$CMLSTYLE
  2
Standard
  9
$CMLJUST
 70
     0
  9
$CMLSCALE
 40
1.0
  9
$PROXYGRAPHICS
 70
     1
  9
$MEASUREMENT
 70
     0
  9
$CELWEIGHT
370
    -1
  9
$ENDCAPS
280
     0
  9
$JOINSTYLE
280
     0
  9
$LWDISPLAY
290
     0
  9
$INSUNITS
 70
     0
  9
$HYPERLINKBASE
  1

  9
$STYLESHEET
  1

  9
$XEDIT
290
     1
  9
$CEPSNTYPE
380
     0
  9
$PSTYLEMODE
290
     1
  9
$FINGERPRINTGUID
  2
{58B2EF7D-ED0A-4787-9B3D-1692DCF904BA}
  9
$VERSIONGUID
  2
{FAEB1C32-E019-11D5-929B-00C0DF256EC4}
  9
$EXTNAMES
290
     1
  9
$PSVPSCALE
 40
0.0
  9
$OLESTARTUP
290
     0
  9
$SORTENTS
280
   127
  9
$INDEXCTL
280
     0
  9
$HIDETEXT
280
     1
  9
$XCLIPFRAME
280
     2
  9
$HALOGAP
280
     0
  9
$OBSCOLOR
 70
   257
  9
$OBSLTYPE
280
     0
  9
$INTERSECTIONDISPLAY
280
     0
  9
$INTERSECTIONCOLOR
 70
   257
  9
$DIMASSOC
280
     2
  9
$PROJECTNAME
  1

  9
$CAMERADISPLAY
290
     0
  9
$LENSLENGTH
 40
50.0
  9
$CAMERAHEIGHT
 40
0.0
  9
$STEPSPERSEC
 40
2.0
  9
$STEPSIZE
 40
6.0
  9
$3DDWFPREC
 40
2.0
  9
$PSOLWIDTH
 40
0.25
  9
$PSOLHEIGHT
 40
4.0
  9
$LOFTANG1
 40
1.570796326794897
  9
$LOFTANG2
 40
1.570796326794897
  9
$LOFTMAG1
 40
0.0
  9
$LOFTMAG2
 40
0.0
  9
$LOFTPARAM
 70
     7
  9
$LOFTNORMALS
280
     1
  9
$LATITUDE
 40
37.795
  9
$LONGITUDE
 40
-122.394
  9
$NORTHDIRECTION
 40
0.0
  9
$TIMEZONE
 70
 -8000
  9
$LIGHTGLYPHDISPLAY
280
     1
  9
$TILEMODELIGHTSYNCH
280
     1
  9
$SOLIDHIST
280
     1
  9
$SHOWHIST
280
     1
  9
$DWFFRAME
280
     2
  9
$DGNFRAME
280
     2
  9
$REALWORLDSCALE
290
     1
  9
$INTERFERECOLOR
 62
   256
  9
$CSHADOW
280
     0
  9
$SHADOWPLANELOCATION
 40
0.0
  0
ENDSEC
  0
SECTION
  2
CLASSES
  0
CLASS
  1
ACDBDICTIONARYWDFLT
  2
AcDbDictionaryWithDefault
  3
ObjectDBX Classes
 90
        0
 91
        8
280
     0
281
     0
  0
CLASS
  1
SCALE
  2
AcDbScale
  3
ObjectDBX Classes
 90
     1153
 91
        8
280
     0
281
     0
  0
CLASS
  1
TABLESTYLE
  2
AcDbTableStyle
  3
ObjectDBX Classes
 90
     4095
 91
        8
280
     0
281
     0
  0
CLASS
  1
RASTERVARIABLES
  2
AcDbRasterVariables
  3
ISM
 90
        0
 91
        8
280
     0
281
     0
  0
CLASS
  1
DICTIONARYVAR
  2
AcDbDictionaryVar
  3
ObjectDBX Classes
 90
        0
 91
        4
280
     0
281
     0
  0
CLASS
  1
CELLSTYLEMAP
  2
AcDbCellStyleMap
  3
ObjectDBX Classes
 90
     1152
 91
        4
280
     0
281
     0
  0
ENDSEC
  0
SECTION
  2
TABLES
  0
TABLE
  2
VPORT
  5
4588
330
0
100
AcDbSymbolTable
 70
     1
  0
VPORT
  5
459F
330
4588
100
AcDbSymbolTableRecord
100
AcDbViewportTableRecord
  2
*ACTIVE
 70
     0
 10
0.0
 20
0.0
 11
1.0
 21
1.0
 12
30.03970558829457
 22
14.69470152566685
 13
0.0
 23
0.0
 14
7.0
 24
7.0
 15
7.0
 25
7.0
 16
0.0
 26
0.0
 36
1.0
 17
0.0
 27
0.0
 37
0.0
 40
146.6010576680236
 41
1.479347826086956
 42
50.0
 43
0.0
 44
0.0
 50
0.0
 51
0.0
 71
     0
 72
  2000
 73
     1
 74
     0
 75
     0
 76
     1
 77
     0
 78
     0
281
     0
 65
     0
110
0.0
120
0.0
130
0.0
111
1.0
121
0.0
131
0.0
112
0.0
122
1.0
132
0.0
 79
     0
146
0.0
 60
     3
 61
     5
292
     1
282
     1
141
0.0
142
0.0
 63
   256
  0
ENDTAB
  0
TABLE
  2
LTYPE
  5
4585
330
0
100
AcDbSymbolTable
 70
    11
  0
LTYPE
  5
4593
330
4585
100
AcDbSymbolTableRecord
100
AcDbLinetypeTableRecord
  2
ByBlock
 70
     0
  3

 72
    65
 73
     0
 40
0.0
  0
LTYPE
  5
4594
330
4585
100
AcDbSymbolTableRecord
100
AcDbLinetypeTableRecord
  2
ByLayer
 70
     0
  3

 72
    65
 73
     0
 40
0.0
  0
LTYPE
  5
4595
330
4585
100
AcDbSymbolTableRecord
100
AcDbLinetypeTableRecord
  2
CONTINUOUS
 70
     0
  3
Solid line
 72
    65
 73
     0
 40
0.0
  0
LTYPE
  5
45A1
330
4585
100
AcDbSymbolTableRecord
100
AcDbLinetypeTableRecord
  2
CENTER2
 70
     0
  3
___ _ ___ _ ___ _ ___ _ ___ _ ___ _ ___ _ ___ _
 72
    65
 73
     4
 40
1.125
 49
0.75
 74
     0
 49
-0.125
 74
     0
 49
0.125
 74
     0
 49
-0.125
 74
     0
  0
LTYPE
  5
45A2
330
4585
100
AcDbSymbolTableRecord
100
AcDbLinetypeTableRecord
  2
HIDDEN2
 70
     0
  3
_ _ _ _ _ _ _ _ _ _ _ _ _ _ _ _ _ _ _ _ _ _ _ _
 72
    65
 73
     2
 40
0.1875
 49
0.125
 74
     0
 49
-0.0625
 74
     0
  0
LTYPE
  5
45A3
330
4585
100
AcDbSymbolTableRecord
100
AcDbLinetypeTableRecord
  2
PHANTOM2
 70
     0
  3
___ _ _ ___ _ _ ___ _ _ ___ _ _ ___ _ _ ___ _ _
 72
    65
 73
     6
 40
1.25
 49
0.625
 74
     0
 49
-0.125
 74
     0
 49
0.125
 74
     0
 49
-0.125
 74
     0
 49
0.125
 74
     0
 49
-0.125
 74
     0
  0
LTYPE
  5
45A4
330
4585
100
AcDbSymbolTableRecord
100
AcDbLinetypeTableRecord
  2
AM_ISO02W050
 70
     0
  3
__ __ __ __ __ __ __ __ __ __ __ __ __ __ __
 72
    65
 73
     2
 40
7.5
 49
6.0
 74
     0
 49
-1.5
 74
     0
  0
LTYPE
  5
45A5
330
4585
100
AcDbSymbolTableRecord
100
AcDbLinetypeTableRecord
  2
AMCONSTR
 70
     0
  3
_______________________
 72
    65
 73
     2
 40
9999.0
 49
9999.0
 74
     0
 49
0.0
 74
     0
  0
LTYPE
  5
45A6
330
4585
100
AcDbSymbolTableRecord
100
AcDbLinetypeTableRecord
  2
ACISOWELD
 70
     0
  3
_ _ _ _ _
 72
    65
 73
     2
 40
3.0
 49
2.0
 74
     0
 49
-1.0
 74
     0
  0
LTYPE
  5
45A7
330
4585
100
AcDbSymbolTableRecord
100
AcDbLinetypeTableRecord
  2
ACISOTGB
 70
     0
  3
__ . . __ . .
 72
    65
 73
     6
 40
9.0
 49
4.0
 74
     0
 49
-1.0
 74
     0
 49
1.0
 74
     0
 49
-1.0
 74
     0
 49
1.0
 74
     0
 49
-1.0
 74
     0
  0
LTYPE
  5
45A8
330
4585
100
AcDbSymbolTableRecord
100
AcDbLinetypeTableRecord
  2
ACISOTGL
 70
     0
  3
_ _ _ _ _
 72
    65
 73
     2
 40
3.0
 49
2.0
 74
     0
 49
-1.0
 74
     0
  0
LTYPE
  5
45A9
330
4585
100
AcDbSymbolTableRecord
100
AcDbLinetypeTableRecord
  2
ACJISTGB
 70
     0
  3
__ . . __ . .
 72
    65
 73
     6
 40
9.0
 49
4.0
 74
     0
 49
-1.0
 74
     0
 49
1.0
 74
     0
 49
-1.0
 74
     0
 49
1.0
 74
     0
 49
-1.0
 74
     0
  0
LTYPE
  5
45AA
330
4585
100
AcDbSymbolTableRecord
100
AcDbLinetypeTableRecord
  2
ACJISTGL
 70
     0
  3
_ _ _ _ _
 72
    65
 73
     2
 40
3.0
 49
2.0
 74
     0
 49
-1.0
 74
     0
  0
ENDTAB
  0
TABLE
  2
LAYER
  5
4582
330
0
100
AcDbSymbolTable
 70
     9
  0
LAYER
  5
4590
330
4582
100
AcDbSymbolTableRecord
100
AcDbLayerTableRecord
  2
0
 70
     0
 62
     7
  6
CONTINUOUS
370
    -3
390
458F
347
0
  0
LAYER
  5
45AC
330
4582
100
AcDbSymbolTableRecord
100
AcDbLayerTableRecord
  2
DEFPOINTS
 70
     0
 62
     7
  6
CONTINUOUS
290
     0
370
    -3
390
458F
347
0
  0
LAYER
  5
45AD
330
4582
100
AcDbSymbolTableRecord
100
AcDbLayerTableRecord
  2
245
 70
     0
 62
     2
  6
CENTER2
370
    -3
390
458F
347
0
  0
LAYER
  5
45AE
330
4582
100
AcDbSymbolTableRecord
100
AcDbLayerTableRecord
  2
240
 70
     0
 62
     4
  6
CONTINUOUS
370
    -3
390
458F
347
0
  0
LAYER
  5
45AF
330
4582
100
AcDbSymbolTableRecord
100
AcDbLayerTableRecord
  2
241
 70
     0
 62
   211
  6
CONTINUOUS
370
    -3
390
458F
347
0
  0
LAYER
  5
45B0
330
4582
100
AcDbSymbolTableRecord
100
AcDbLayerTableRecord
  2
242
 70
     0
 62
     3
  6
CONTINUOUS
370
    -3
390
458F
347
0
  0
LAYER
  5
45B1
330
4582
100
AcDbSymbolTableRecord
100
AcDbLayerTableRecord
  2
243
 70
     0
 62
   211
  6
HIDDEN2
370
    -3
390
458F
347
0
  0
LAYER
  5
45B2
330
4582
100
AcDbSymbolTableRecord
100
AcDbLayerTableRecord
  2
247
 70
     0
 62
    60
  6
CONTINUOUS
370
    -3
390
458F
347
0
  0
LAYER
  5
45B3
330
4582
100
AcDbSymbolTableRecord
100
AcDbLayerTableRecord
  2
250
 70
     0
 62
     3
  6
CONTINUOUS
370
    -3
390
458F
347
0
  0
ENDTAB
  0
TABLE
  2
STYLE
  5
4583
330
0
100
AcDbSymbolTable
 70
     6
  0
STYLE
  5
4591
330
4583
100
AcDbSymbolTableRecord
100
AcDbTextStyleTableRecord
  2
STANDARD
 70
     0
 40
0.0
 41
1.0
 50
0.0
 71
     0
 42
3.0
  3
romans.shx
  4
extfont.shx
  0
STYLE
  5
45B5
330
4583
100
AcDbSymbolTableRecord
100
AcDbTextStyleTableRecord
  2
ACISOTS
 70
     0
 40
1.0
 41
1.0
 50
0.0
 71
     0
 42
3.0
  3
amgdt.shx
  4
extfont.shx
  0
STYLE
  5
45B6
330
4583
100
AcDbSymbolTableRecord
100
AcDbTextStyleTableRecord
  2
ACISOGDT
 70
     0
 40
0.0
 41
1.0
 50
0.0
 71
     0
 42
3.0
  3
amgdt.shx
  4
extfont.shx
  0
STYLE
  5
45B7
330
4583
100
AcDbSymbolTableRecord
100
AcDbTextStyleTableRecord
  2
ACJISTS
 70
     0
 40
1.0
 41
1.0
 50
0.0
 71
     0
 42
3.0
  3
amgdt.shx
  4
extfont.shx
  0
STYLE
  5
45B8
330
4583
100
AcDbSymbolTableRecord
100
AcDbTextStyleTableRecord
  2
ACJISGDT
 70
     0
 40
0.0
 41
1.0
 50
0.0
 71
     0
 42
3.0
  3
amgdt.shx
  4
extfont.shx
  0
STYLE
  5
45B9
330
4583
100
AcDbSymbolTableRecord
100
AcDbTextStyleTableRecord
  2
YOKO
 70
     0
 40
0.0
 41
1.0
 50
0.0
 71
     0
 42
3.0
  3
romans.shx
  4
extfont.shx
  0
ENDTAB
  0
TABLE
  2
VIEW
  5
4586
330
0
100
AcDbSymbolTable
 70
     0
  0
ENDTAB
  0
TABLE
  2
UCS
  5
4587
330
0
100
AcDbSymbolTable
 70
     0
  0
ENDTAB
  0
TABLE
  2
APPID
  5
4589
330
0
100
AcDbSymbolTable
 70
    35
  0
APPID
  5
4592
330
4589
100
AcDbSymbolTableRecord
100
AcDbRegAppTableRecord
  2
ACAD
 70
     0
  0
APPID
  5
45BB
330
4589
100
AcDbSymbolTableRecord
100
AcDbRegAppTableRecord
  2
GLOBAL
 70
     0
  0
APPID
  5
45BC
330
4589
100
AcDbSymbolTableRecord
100
AcDbRegAppTableRecord
  2
DETAIL
 70
     0
  0
APPID
  5
45BD
330
4589
100
AcDbSymbolTableRecord
100
AcDbRegAppTableRecord
  2
GRPNAME
 70
     0
  0
APPID
  5
45BE
330
4589
100
AcDbSymbolTableRecord
100
AcDbRegAppTableRecord
  2
GPARA
 70
     0
  0
APPID
  5
45BF
330
4589
100
AcDbSymbolTableRecord
100
AcDbRegAppTableRecord
  2
MCAD_NO_VIS
 70
     0
  0
APPID
  5
45C0
330
4589
100
AcDbSymbolTableRecord
100
AcDbRegAppTableRecord
  2
ACAD_TEMP_GRAPHIC
 70
     0
  0
APPID
  5
45C1
330
4589
100
AcDbSymbolTableRecord
100
AcDbRegAppTableRecord
  2
ACATTRIBSERVICES
 70
     0
  0
APPID
  5
45C2
330
4589
100
AcDbSymbolTableRecord
100
AcDbRegAppTableRecord
  2
GENIUS_GENSCREG_15
 70
     0
  0
APPID
  5
45C3
330
4589
100
AcDbSymbolTableRecord
100
AcDbRegAppTableRecord
  2
GENIUS_GENODEF_13
 70
     0
  0
APPID
  5
45C4
330
4589
100
AcDbSymbolTableRecord
100
AcDbRegAppTableRecord
  2
GENIUS_GENOBJ-N-SDF_13
 70
     0
  0
APPID
  5
45C5
330
4589
100
AcDbSymbolTableRecord
100
AcDbRegAppTableRecord
  2
GENIUS_GENREC_14
 70
     0
  0
APPID
  5
45C6
330
4589
100
AcDbSymbolTableRecord
100
AcDbRegAppTableRecord
  2
GENIUS_GENOBJ-N-REC_13
 70
     0
  0
APPID
  5
45C7
330
4589
100
AcDbSymbolTableRecord
100
AcDbRegAppTableRecord
  2
GENIUS_GENDIMSH_14
 70
     0
  0
APPID
  5
45C8
330
4589
100
AcDbSymbolTableRecord
100
AcDbRegAppTableRecord
  2
GENIUS_GENOBJ-N-DIM_13
 70
     0
  0
APPID
  5
45C9
330
4589
100
AcDbSymbolTableRecord
100
AcDbRegAppTableRecord
  2
GENIUS_GENDIM_13
 70
     0
  0
APPID
  5
45CA
330
4589
100
AcDbSymbolTableRecord
100
AcDbRegAppTableRecord
  2
GENIUS_GENDTOL_13
 70
     0
  0
APPID
  5
45CB
330
4589
100
AcDbSymbolTableRecord
100
AcDbRegAppTableRecord
  2
GENIUS_GENOLIS_13
 70
     0
  0
APPID
  5
45CC
330
4589
100
AcDbSymbolTableRecord
100
AcDbRegAppTableRecord
  2
GENIUS_GENOENT_13
 70
     0
  0
APPID
  5
45CD
330
4589
100
AcDbSymbolTableRecord
100
AcDbRegAppTableRecord
  2
GENIUS_GENOBJ-F-FEM_13
 70
     0
  0
APPID
  5
45CE
330
4589
100
AcDbSymbolTableRecord
100
AcDbRegAppTableRecord
  2
GENIUS_GENOREF_13
 70
     0
  0
APPID
  5
45CF
330
4589
100
AcDbSymbolTableRecord
100
AcDbRegAppTableRecord
  2
GENIUS_GEFFEM_13
 70
     0
  0
APPID
  5
45D0
330
4589
100
AcDbSymbolTableRecord
100
AcDbRegAppTableRecord
  2
GENIUS_GEFFEMP_13
 70
     0
  0
APPID
  5
45D1
330
4589
100
AcDbSymbolTableRecord
100
AcDbRegAppTableRecord
  2
AD_DRAW
 70
     0
  0
APPID
  5
45D2
330
4589
100
AcDbSymbolTableRecord
100
AcDbRegAppTableRecord
  2
DESIGNERASSEMBLIES
 70
     0
  0
APPID
  5
45D3
330
4589
100
AcDbSymbolTableRecord
100
AcDbRegAppTableRecord
  2
ACADM_DIM_EDIT
 70
     0
  0
APPID
  5
45D4
330
4589
100
AcDbSymbolTableRecord
100
AcDbRegAppTableRecord
  2
AMDT_DM_ADJ
 70
     0
  0
APPID
  5
45D5
330
4589
100
AcDbSymbolTableRecord
100
AcDbRegAppTableRecord
  2
ITEMNAME
 70
     0
  0
APPID
  5
45D6
330
4589
100
AcDbSymbolTableRecord
100
AcDbRegAppTableRecord
  2
GENIUS_GENOBJ-N-FIL_13
 70
     0
  0
APPID
  5
45D7
330
4589
100
AcDbSymbolTableRecord
100
AcDbRegAppTableRecord
  2
GENIUS_GENFIL_13
 70
     0
  0
APPID
  5
45D8
330
4589
100
AcDbSymbolTableRecord
100
AcDbRegAppTableRecord
  2
GENIUS_GENOBJ-N-CHA_13
 70
     0
  0
APPID
  5
45D9
330
4589
100
AcDbSymbolTableRecord
100
AcDbRegAppTableRecord
  2
ACAD_NAV_VCDISPLAY
 70
     0
  0
APPID
  5
45DA
330
4589
100
AcDbSymbolTableRecord
100
AcDbRegAppTableRecord
  2
ACAD_EXEMPT_FROM_CAD_STANDARDS
 70
     0
  0
APPID
  5
45DB
330
4589
100
AcDbSymbolTableRecord
100
AcDbRegAppTableRecord
  2
ACAECLAYERSTANDARD
 70
     0
  0
APPID
  5
45DC
330
4589
100
AcDbSymbolTableRecord
100
AcDbRegAppTableRecord
  2
ACAD_MLEADERVER
 70
     0
  0
ENDTAB
  0
TABLE
  2
DIMSTYLE
  5
458A
330
0
100
AcDbSymbolTable
 70
    23
100
AcDbDimStyleTable
  0
DIMSTYLE
105
E0
330
458A
100
AcDbSymbolTableRecord
100
AcDbDimStyleTableRecord
  2
BIGT
 70
     0
 41
2.229999999999999
 42
0.5
 43
7.0
 44
1.0
 48
0.01
 73
     0
 74
     0
 77
     3
 78
     9
140
2.799999999999999
141
0.0
147
1.0
172
     1
174
     1
176
   256
177
   256
178
    40
340
45B9
341
E03A
342
E03A
  0
DIMSTYLE
105
45DD
330
458A
100
AcDbSymbolTableRecord
100
AcDbDimStyleTableRecord
  2
AM_ISO
 70
     0
  4
"
 41
2.5
 42
1.0
 43
10.0
 44
1.0
 47
0.1
 48
0.1
 73
     0
 74
     0
 77
     1
 78
     8
140
3.5
141
0.0
143
0.0393701
146
0.71
147
1.5
172
     1
176
   256
177
   256
178
     2
340
45B9
  0
DIMSTYLE
105
45DE
330
458A
100
AcDbSymbolTableRecord
100
AcDbDimStyleTableRecord
  2
AM_ISO$3
 70
     0
  4
"
 41
2.5
 42
1.0
 43
10.0
 44
1.0
 47
0.1
 48
0.1
 73
     0
 77
     1
 78
     8
140
3.5
141
0.0
143
0.0393701
146
0.71
147
1.5
176
   256
177
   256
178
     2
340
45B9
  0
DIMSTYLE
105
45DF
330
458A
100
AcDbSymbolTableRecord
100
AcDbDimStyleTableRecord
  2
AM_ISO$4
 70
     0
  4
"
 41
2.5
 42
1.0
 43
10.0
 44
1.0
 47
0.1
 48
0.1
 73
     0
 77
     1
 78
     8
140
3.5
141
0.0
143
0.0393701
146
0.71
147
1.5
176
   256
177
   256
178
     2
340
45B9
  0
DIMSTYLE
105
45E0
330
458A
100
AcDbSymbolTableRecord
100
AcDbDimStyleTableRecord
  2
AM_ISO$6
 70
     0
  4
"
 41
2.5
 42
1.0
 43
10.0
 44
1.0
 47
0.1
 48
0.1
 73
     0
 74
     0
 78
     8
140
3.5
141
0.0
143
0.0393701
146
0.71
147
1.5
172
     1
176
   256
177
   256
178
     2
340
45B9
  0
DIMSTYLE
105
45E1
330
458A
100
AcDbSymbolTableRecord
100
AcDbDimStyleTableRecord
  2
AM_ISO$7
 70
     0
  4
"
 41
2.5
 42
1.0
 43
10.0
 44
1.0
 47
0.1
 48
0.1
 73
     0
 74
     0
 77
     1
 78
     8
140
5.0
141
0.0
143
0.0393701
146
0.71
147
1.5
172
     1
176
   256
177
   256
178
     2
340
45B9
  0
DIMSTYLE
105
45E2
330
458A
100
AcDbSymbolTableRecord
100
AcDbDimStyleTableRecord
  2
AM_ISO$SF
 70
     0
  4
"
 41
2.5
 42
1.0
 43
10.0
 44
1.0
 47
0.1
 48
0.1
 73
     0
 74
     0
 75
     1
 76
     1
 77
     1
 78
     8
140
3.5
141
0.0
143
0.0393701
146
0.71
147
1.5
172
     1
176
   256
177
   256
178
     2
340
45B9
  0
DIMSTYLE
105
45E3
330
458A
100
AcDbSymbolTableRecord
100
AcDbDimStyleTableRecord
  2
AM_ISO$SH
 70
     0
  4
"
 41
2.5
 42
1.0
 43
10.0
 44
1.0
 47
0.1
 48
0.1
 73
     0
 74
     0
 75
     1
 76
     1
 77
     1
 78
     8
140
3.5
141
0.0
143
0.0393701
144
2.0
146
0.71
147
1.5
172
     1
173
     1
176
   256
177
   256
178
     2
340
45B9
341
E03C
343
E03C
  0
DIMSTYLE
105
45E4
330
458A
100
AcDbSymbolTableRecord
100
AcDbDimStyleTableRecord
  2
BIGT$2
 70
     0
 41
2.229999999999999
 42
0.5
 43
7.0
 44
1.0
 48
0.01
 73
     0
 74
     0
 77
     3
 78
     9
140
2.799999999999999
141
0.0
147
1.0
172
     1
176
   256
177
   256
178
    40
340
45B9
341
E03A
342
E03A
  0
DIMSTYLE
105
45E5
330
458A
100
AcDbSymbolTableRecord
100
AcDbDimStyleTableRecord
  2
BIGT$3
 70
     0
 41
2.229999999999999
 42
0.5
 43
2.5
 44
1.0
 48
0.01
 73
     0
 74
     0
 77
     3
 78
     9
140
2.799999999999999
141
0.0
147
1.0
172
     1
176
   256
177
   256
178
    40
340
45B9
341
E03A
342
E03A
  0
DIMSTYLE
105
45E6
330
458A
100
AcDbSymbolTableRecord
100
AcDbDimStyleTableRecord
  2
BIGT$7
 70
     0
 40
0.0
 41
2.229999999999999
 42
0.5
 43
7.0
 44
1.0
 48
0.01
 73
     0
 74
     0
 77
     3
 78
     9
140
2.799999999999999
141
0.0
147
1.0
176
   256
177
   256
178
    40
340
45B9
341
E03A
342
E03A
  0
DIMSTYLE
105
45E7
330
458A
100
AcDbSymbolTableRecord
100
AcDbDimStyleTableRecord
  2
BIGT$6
 70
     0
 41
2.229999999999999
 42
0.5
 43
2.5
 44
1.0
 48
0.01
 73
     0
 74
     0
 77
     3
 78
     9
140
2.799999999999999
141
0.0
147
1.0
172
     1
176
   256
177
   256
178
    40
340
45B9
341
E03A
342
E03A
  0
DIMSTYLE
105
45E8
330
458A
100
AcDbSymbolTableRecord
100
AcDbDimStyleTableRecord
  2
BIGT$0
 70
     0
 41
2.229999999999999
 42
0.5
 43
7.0
 44
1.0
 48
0.01
 73
     0
 74
     0
 77
     3
 78
     9
140
2.799999999999999
141
0.0
147
1.0
172
     1
174
     1
176
   256
177
   256
178
    40
340
45B9
341
E03A
342
E03A
  0
DIMSTYLE
105
45E9
330
458A
100
AcDbSymbolTableRecord
100
AcDbDimStyleTableRecord
  2
BIGT$4
 70
     0
 41
2.229999999999999
 42
0.5
 43
2.5
 44
1.0
 48
0.01
 73
     0
 74
     0
 77
     3
 78
     9
140
2.799999999999999
141
0.0
147
1.0
172
     1
176
   256
177
   256
178
    40
340
45B9
341
E03A
342
E03A
  0
DIMSTYLE
105
45EA
330
458A
100
AcDbSymbolTableRecord
100
AcDbDimStyleTableRecord
  2
BIGT$SH
 70
     0
 41
2.229999999999999
 42
0.5
 43
7.0
 44
1.0
 73
     0
 74
     0
 77
     3
 78
     9
140
2.799999999999999
141
0.0
147
1.0
172
     1
176
   256
177
   256
178
    40
340
45B9
341
E03A
342
E03A
  0
DIMSTYLE
105
45EB
330
458A
100
AcDbSymbolTableRecord
100
AcDbDimStyleTableRecord
  2
BIGT$SF
 70
     0
 41
2.229999999999999
 42
0.5
 43
7.0
 44
1.0
 73
     0
 74
     0
 77
     3
 78
     9
140
2.799999999999999
141
0.0
147
1.0
172
     1
176
   256
177
   256
178
    40
340
45B9
341
E03A
342
E03A
  0
DIMSTYLE
105
E030
330
458A
100
AcDbSymbolTableRecord
100
AcDbDimStyleTableRecord
  2
TECHNICAL_OSAKA
 70
     0
  4
"
 41
2.5
 42
1.0
 43
10.0
 44
1.0
 47
0.1
 48
0.1
 73
     0
 74
     0
 77
     3
 78
     8
140
2.799999999999999
141
0.0
143
0.0393701
146
0.71
147
1.5
172
     1
176
   256
177
   256
178
    40
340
45B9
341
E03E
342
E03E
  0
DIMSTYLE
105
E031
330
458A
100
AcDbSymbolTableRecord
100
AcDbDimStyleTableRecord
  2
TECHNICAL_OSAKA$3
 70
     0
  4
"
 41
2.5
 42
1.0
 43
10.0
 44
1.0
 47
0.1
 48
0.1
 73
     0
 77
     3
 78
     8
140
2.799999999999999
141
0.0
143
0.0393701
146
0.71
147
1.5
176
   256
177
   256
178
    40
340
45B9
341
E03E
342
E03E
  0
DIMSTYLE
105
E032
330
458A
100
AcDbSymbolTableRecord
100
AcDbDimStyleTableRecord
  2
TECHNICAL_OSAKA$4
 70
     0
  4
"
 41
2.5
 42
1.0
 43
10.0
 44
1.0
 47
0.1
 48
0.1
 73
     0
 77
     3
 78
     8
140
2.799999999999999
141
0.0
143
0.0393701
146
0.71
147
1.5
176
   256
177
   256
178
    40
340
45B9
341
E03E
342
E03E
  0
DIMSTYLE
105
E033
330
458A
100
AcDbSymbolTableRecord
100
AcDbDimStyleTableRecord
  2
TECHNICAL_OSAKA$6
 70
     0
  4
"
 41
2.5
 42
1.0
 43
10.0
 44
1.0
 47
0.1
 48
0.1
 73
     0
 74
     0
 78
     8
140
2.799999999999999
141
0.0
143
0.0393701
146
0.71
147
1.5
172
     1
176
   256
177
   256
178
    40
340
45B9
341
E03E
342
E03E
  0
DIMSTYLE
105
E034
330
458A
100
AcDbSymbolTableRecord
100
AcDbDimStyleTableRecord
  2
TECHNICAL_OSAKA$7
 70
     0
  4
"
 41
2.5
 42
1.0
 43
10.0
 44
1.0
 47
0.1
 48
0.1
 73
     0
 74
     0
 77
     3
 78
     8
140
2.799999999999999
141
0.0
143
0.0393701
146
0.71
147
1.5
172
     1
176
   256
177
   256
178
    40
340
45B9
341
E03E
342
E03E
  0
DIMSTYLE
105
E035
330
458A
100
AcDbSymbolTableRecord
100
AcDbDimStyleTableRecord
  2
TECHNICAL_OSAKA$SF
 70
     0
  4
"
 41
2.5
 42
1.0
 43
10.0
 44
1.0
 47
0.1
 48
0.1
 73
     0
 74
     0
 75
     1
 76
     1
 77
     3
 78
     8
140
3.5
141
0.0
143
0.0393701
146
0.71
147
1.5
172
     1
176
   256
177
   256
178
    40
340
45B9
341
E03E
342
E03E
343
E03E
344
E03E
  0
DIMSTYLE
105
E036
330
458A
100
AcDbSymbolTableRecord
100
AcDbDimStyleTableRecord
  2
TECHNICAL_OSAKA$SH
 70
     0
  4
"
 41
2.5
 42
1.0
 43
10.0
 44
1.0
 47
0.1
 48
0.1
 73
     0
 74
     0
 75
     1
 76
     1
 77
     3
 78
     8
140
3.5
141
0.0
143
0.0393701
144
2.0
146
0.71
147
1.5
172
     1
173
     1
176
   256
177
   256
178
    40
340
45B9
341
E03E
342
E03E
343
E03C
344
E03E
  0
ENDTAB
  0
TABLE
  2
BLOCK_RECORD
  5
4581
330
0
100
AcDbSymbolTable
 70
     3
  0
BLOCK_RECORD
  5
459C
330
4581
100
AcDbSymbolTableRecord
100
AcDbBlockTableRecord
  2
*Model_Space
340
459D
 70
     0
280
     1
281
     0
  0
BLOCK_RECORD
  5
459A
330
4581
100
AcDbSymbolTableRecord
100
AcDbBlockTableRecord
  2
*Paper_Space
340
459B
 70
     0
280
     1
281
     0
  0
BLOCK_RECORD
  5
E03A
330
4581
100
AcDbSymbolTableRecord
100
AcDbBlockTableRecord
  2
_OPEN
340
0
 70
     0
280
     1
281
     0
  0
BLOCK_RECORD
  5
E03C
330
4581
100
AcDbSymbolTableRecord
100
AcDbBlockTableRecord
  2
GENAXEH
340
0
 70
     0
280
     1
281
     0
  0
BLOCK_RECORD
  5
E03E
330
4581
100
AcDbSymbolTableRecord
100
AcDbBlockTableRecord
  2
_OPEN30
340
0
 70
     0
280
     1
281
     0
  0
ENDTAB
  0
ENDSEC
  0
SECTION
  2
BLOCKS
  0
BLOCK
  5
E037
330
459C
100
AcDbEntity
  8
0
100
AcDbBlockBegin
  2
*Model_Space
 70
     0
 10
0.0
 20
0.0
 30
0.0
  3
*Model_Space
  1

  0
ENDBLK
  5
1C
330
459C
100
AcDbEntity
  8
0
100
AcDbBlockEnd
  0
BLOCK
  5
E038
330
459A
100
AcDbEntity
 67
     1
  8
0
100
AcDbBlockBegin
  2
*Paper_Space
 70
     0
 10
0.0
 20
0.0
 30
0.0
  3
*Paper_Space
  1

  0
ENDBLK
  5
19
330
459A
100
AcDbEntity
 67
     1
  8
0
100
AcDbBlockEnd
  0
BLOCK
  5
E039
330
E03A
100
AcDbEntity
  8
0
100
AcDbBlockBegin
  2
_OPEN
 70
     0
 10
0.0
 20
0.0
 30
0.0
  3
_OPEN
  1

  0
LINE
  5
447E
330
E03A
100
AcDbEntity
  8
0
  6
ByBlock
 62
     0
100
AcDbLine
 10
-1.0
 20
0.1666666666666666
 30
0.0
 11
0.0
 21
0.0
 31
0.0
  0
LINE
  5
447F
330
E03A
100
AcDbEntity
  8
0
  6
ByBlock
 62
     0
100
AcDbLine
 10
-1.0
 20
-0.1666666666666666
 30
0.0
 11
0.0
 21
0.0
 31
0.0
  0
LINE
  5
4480
330
E03A
100
AcDbEntity
  8
0
  6
ByBlock
 62
     0
100
AcDbLine
 10
0.0
 20
0.0
 30
0.0
 11
-1.0
 21
0.0
 31
0.0
  0
ENDBLK
  5
4481
330
E03A
100
AcDbEntity
  8
0
100
AcDbBlockEnd
  0
BLOCK
  5
E03B
330
E03C
100
AcDbEntity
  8
0
100
AcDbBlockBegin
  2
GENAXEH
 70
     0
 10
0.0
 20
0.0
 30
0.0
  3
GENAXEH
  1

  0
LINE
  5
44B9
330
E03C
100
AcDbEntity
  8
0
100
AcDbLine
 10
-1.0
 20
0.0
 30
0.0
 11
1.0
 21
0.0
 31
0.0
  0
ENDBLK
  5
44BA
330
E03C
100
AcDbEntity
  8
0
100
AcDbBlockEnd
  0
BLOCK
  5
E03D
330
E03E
100
AcDbEntity
  8
0
100
AcDbBlockBegin
  2
_OPEN30
 70
     0
 10
0.0
 20
0.0
 30
0.0
  3
_OPEN30
  1

  0
LINE
  5
44F5
330
E03E
100
AcDbEntity
  8
0
  6
ByBlock
 62
     0
100
AcDbLine
 10
-1.0
 20
0.26794919
 30
0.0
 11
0.0
 21
0.0
 31
0.0
  0
LINE
  5
44F6
330
E03E
100
AcDbEntity
  8
0
  6
ByBlock
 62
     0
100
AcDbLine
 10
0.0
 20
0.0
 30
0.0
 11
-1.0
 21
-0.26794919
 31
0.0
  0
LINE
  5
44F7
330
E03E
100
AcDbEntity
  8
0
  6
ByBlock
 62
     0
100
AcDbLine
 10
0.0
 20
0.0
 30
0.0
 11
-1.0
 21
0.0
 31
0.0
  0
ENDBLK
  5
44F8
330
E03E
100
AcDbEntity
  8
0
100
AcDbBlockEnd
  0
ENDSEC
  0
SECTION
  2
ENTITIES
  0
LINE
  5
424D
330
459C
100
AcDbEntity
  8
240
  6
Continuous
100
AcDbLine
 10
14.62250093
 20
25.0
 30
0.0
 11
0.0
 21
25.0
 31
0.0
  0
ARC
  5
424E
330
459C
100
AcDbEntity
  8
241
  6
Continuous
100
AcDbCircle
 10
12.6987211
 20
13.62261409999996
 30
0.0
 40
6.00000000000027
100
AcDbArc
 50
92.8782119500004
 51
161.7660565600002
  0
LINE
  5
424F
330
459C
100
AcDbEntity
  8
241
  6
Continuous
100
AcDbLine
 10
7.0
 20
15.5
 30
0.0
 11
16.125
 21
15.5
 31
0.0
  0
LINE
  5
4250
330
459C
100
AcDbEntity
  8
243
  6
HIDDEN2
100
AcDbLine
 10
7.0
 20
21.0
 30
0.0
 11
26.0
 21
21.0
 31
0.0
  0
LINE
  5
4251
330
459C
100
AcDbEntity
  8
243
  6
HIDDEN2
100
AcDbLine
 10
7.0
 20
-21.0
 30
0.0
 11
26.0
 21
-21.0
 31
0.0
  0
LINE
  5
4252
330
459C
100
AcDbEntity
  8
240
  6
Continuous
100
AcDbLine
 10
14.62250093
 20
-25.0
 30
0.0
 11
0.0
 21
-25.0
 31
0.0
  0
LINE
  5
4253
330
459C
100
AcDbEntity
  8
240
  6
Continuous
100
AcDbLine
 10
0.0
 20
-19.24999999990928
 30
0.0
 11
-25.0
 21
-18.00000000104308
 31
0.0
  0
LINE
  5
4254
330
459C
100
AcDbEntity
  8
240
  6
Continuous
100
AcDbLine
 10
-25.0
 20
18.00000000104308
 30
0.0
 11
-25.0
 21
-18.00000000104308
 31
0.0
  0
LINE
  5
4255
330
459C
100
AcDbEntity
  8
241
  6
Continuous
100
AcDbLine
 10
0.0
 20
19.24999999990928
 30
0.0
 11
0.0
 21
-19.24999999990928
 31
0.0
  0
LINE
  5
4256
330
459C
100
AcDbEntity
  8
240
  6
Continuous
100
AcDbLine
 10
0.0
 20
-19.24999999990928
 30
0.0
 11
0.0
 21
-25.0
 31
0.0
  0
LINE
  5
4257
330
459C
100
AcDbEntity
  8
243
  6
HIDDEN2
100
AcDbLine
 10
7.0
 20
-21.0
 30
0.0
 11
7.0
 21
-25.0
 31
0.0
  0
LINE
  5
4258
330
459C
100
AcDbEntity
  8
243
  6
HIDDEN2
100
AcDbLine
 10
-13.26397459999998
 20
16.0
 30
0.0
 11
-14.99602540000001
 21
13.0
 31
0.0
  0
LINE
  5
4259
330
459C
100
AcDbEntity
  8
240
  6
Continuous
100
AcDbLine
 10
0.0
 20
19.24999999990928
 30
0.0
 11
-25.0
 21
18.00000000104308
 31
0.0
  0
LINE
  5
425A
330
459C
100
AcDbEntity
  8
243
  6
HIDDEN2
100
AcDbLine
 10
-20.5
 20
13.0
 30
0.0
 11
-20.5
 21
18.22500000000001
 31
0.0
  0
LINE
  5
425B
330
459C
100
AcDbEntity
  8
243
  6
HIDDEN2
100
AcDbLine
 10
-14.99602540000001
 20
13.0
 30
0.0
 11
-25.0
 21
13.0
 31
0.0
  0
LINE
  5
425C
330
459C
100
AcDbEntity
  8
243
  6
HIDDEN2
100
AcDbLine
 10
7.0
 20
21.0
 30
0.0
 11
7.0
 21
25.0
 31
0.0
  0
LINE
  5
425D
330
459C
100
AcDbEntity
  8
240
  6
Continuous
100
AcDbLine
 10
0.0
 20
25.0
 30
0.0
 11
0.0
 21
19.24999999990928
 31
0.0
  0
ARC
  5
425E
330
459C
100
AcDbEntity
  8
243
  6
HIDDEN2
100
AcDbCircle
 10
-5.060987930000008
 20
10.0
 30
0.0
 40
5.999999999156417
100
AcDbArc
 50
33.36701297000058
 51
90.0
  0
LINE
  5
425F
330
459C
100
AcDbEntity
  8
243
  6
HIDDEN2
100
AcDbLine
 10
-5.060987930000008
 20
16.0
 30
0.0
 11
-13.26397459999998
 21
16.0
 31
0.0
  0
LINE
  5
4260
330
459C
100
AcDbEntity
  8
243
  6
HIDDEN2
100
AcDbLine
 10
-10.5
 20
16.0
 30
0.0
 11
-10.5
 21
18.72500000000001
 31
0.0
1001
GRPNAME
1000
PASTMD02
  0
LINE
  5
4261
330
459C
100
AcDbEntity
  8
245
  6
CENTER2
100
AcDbLine
 10
-7.5
 20
15.25996314399435
 30
0.0
 11
-7.5
 21
19.60632340704535
 31
0.0
1001
GRPNAME
1000
PASTMD02
  0
LINE
  5
4262
330
459C
100
AcDbEntity
  8
243
  6
HIDDEN2
100
AcDbLine
 10
-4.5
 20
16.0
 30
0.0
 11
-4.5
 21
19.02499999999998
 31
0.0
1001
GRPNAME
1000
PASTMD02
  0
LINE
  5
4263
330
459C
100
AcDbEntity
  8
241
  6
Continuous
100
AcDbLine
 10
14.62250093
 20
-25.0
 30
0.0
 11
14.62250093
 21
15.5
 31
0.0
  0
LINE
  5
4265
330
459C
100
AcDbEntity
  8
241
  6
Continuous
100
AcDbLine
 10
21.37749907
 20
15.5
 30
0.0
 11
21.37749907
 21
-25.0
 31
0.0
  0
LINE
  5
4266
330
459C
100
AcDbEntity
  8
241
  6
Continuous
100
AcDbLine
 10
19.875
 20
22.0
 30
0.0
 11
19.875
 21
-21.5
 31
0.0
  0
LINE
  5
4267
330
459C
100
AcDbEntity
  8
241
  6
Continuous
100
AcDbLine
 10
16.125
 20
22.0
 30
0.0
 11
16.125
 21
-21.5
 31
0.0
  0
LINE
  5
4268
330
459C
100
AcDbEntity
  8
241
  6
Continuous
100
AcDbLine
 10
26.0
 20
-20.79999999999995
 30
0.0
 11
26.0
 21
20.79999999999995
 31
0.0
  0
LINE
  5
4269
330
459C
100
AcDbEntity
  8
240
  6
Continuous
100
AcDbLine
 10
21.37749907
 20
-25.0
 30
0.0
 11
19.875
 21
-22.39759526
 31
0.0
  0
LINE
  5
426A
330
459C
100
AcDbEntity
  8
240
  6
Continuous
100
AcDbLine
 10
14.62250093
 20
-25.0
 30
0.0
 11
16.125
 21
-22.39759526
 31
0.0
  0
LINE
  5
426B
330
459C
100
AcDbEntity
  8
240
  6
Continuous
100
AcDbLine
 10
19.875
 20
-21.5
 30
0.0
 11
19.875
 21
-22.39759526
 31
0.0
  0
LINE
  5
426C
330
459C
100
AcDbEntity
  8
240
  6
Continuous
100
AcDbLine
 10
16.125
 20
-22.39759526
 30
0.0
 11
16.125
 21
-21.5
 31
0.0
  0
LINE
  5
426D
330
459C
100
AcDbEntity
  8
240
  6
Continuous
100
AcDbLine
 10
16.125
 20
-21.5
 30
0.0
 11
19.875
 21
-21.5
 31
0.0
  0
LINE
  5
426E
330
459C
100
AcDbEntity
  8
240
  6
Continuous
100
AcDbLine
 10
26.0
 20
-20.79999999999995
 30
0.0
 11
26.0
 21
-25.0
 31
0.0
  0
LINE
  5
426F
330
459C
100
AcDbEntity
  8
240
  6
Continuous
100
AcDbLine
 10
26.0
 20
-25.0
 30
0.0
 11
21.37749907
 21
-25.0
 31
0.0
  0
LINE
  5
4271
330
459C
100
AcDbEntity
  8
241
  6
Continuous
100
AcDbLine
 10
14.62250093
 20
19.61504523999997
 30
0.0
 11
14.62250093
 21
25.0
 31
0.0
  0
LINE
  5
4272
330
459C
100
AcDbEntity
  8
241
  6
Continuous
100
AcDbLine
 10
21.37749907
 20
19.61504523999997
 30
0.0
 11
21.37749907
 21
25.0
 31
0.0
  0
LINE
  5
4273
330
459C
100
AcDbEntity
  8
240
  6
Continuous
100
AcDbLine
 10
14.62250093
 20
25.0
 30
0.0
 11
16.125
 21
22.39759526
 31
0.0
  0
LINE
  5
4274
330
459C
100
AcDbEntity
  8
240
  6
Continuous
100
AcDbLine
 10
21.37749907
 20
25.0
 30
0.0
 11
19.875
 21
22.39759526
 31
0.0
  0
LINE
  5
4275
330
459C
100
AcDbEntity
  8
240
  6
Continuous
100
AcDbLine
 10
26.0
 20
25.0
 30
0.0
 11
26.0
 21
20.79999999999995
 31
0.0
  0
LINE
  5
4276
330
459C
100
AcDbEntity
  8
241
  6
Continuous
100
AcDbLine
 10
19.875
 20
17.01264049999997
 30
0.0
 11
21.37749907
 21
19.61504523999997
 31
0.0
  0
LINE
  5
4277
330
459C
100
AcDbEntity
  8
241
  6
Continuous
100
AcDbLine
 10
19.875
 20
15.5
 30
0.0
 11
26.0
 21
15.5
 31
0.0
  0
LINE
  5
4278
330
459C
100
AcDbEntity
  8
241
  6
Continuous
100
AcDbLine
 10
16.125
 20
17.01264049999997
 30
0.0
 11
14.62250093
 21
19.61504523999997
 31
0.0
  0
LINE
  5
4279
330
459C
100
AcDbEntity
  8
241
  6
Continuous
100
AcDbLine
 10
12.3974422
 20
19.61504523999997
 30
0.0
 11
14.62250093
 21
19.61504523999997
 31
0.0
  0
LINE
  5
427A
330
459C
100
AcDbEntity
  8
240
  6
Continuous
100
AcDbLine
 10
16.125
 20
21.5
 30
0.0
 11
19.875
 21
21.5
 31
0.0
  0
LINE
  5
427B
330
459C
100
AcDbEntity
  8
240
  6
Continuous
100
AcDbLine
 10
16.125
 20
22.39759526
 30
0.0
 11
16.125
 21
21.5
 31
0.0
  0
LINE
  5
427C
330
459C
100
AcDbEntity
  8
240
  6
Continuous
100
AcDbLine
 10
19.875
 20
21.5
 30
0.0
 11
19.875
 21
22.39759526
 31
0.0
  0
LINE
  5
427D
330
459C
100
AcDbEntity
  8
241
  6
Continuous
100
AcDbLine
 10
21.37749907
 20
19.61504523999997
 30
0.0
 11
26.0
 21
19.61504523999997
 31
0.0
  0
LINE
  5
427E
330
459C
100
AcDbEntity
  8
240
  6
Continuous
100
AcDbLine
 10
26.0
 20
25.0
 30
0.0
 11
21.37749907
 21
25.0
 31
0.0
  0
LINE
  5
427F
330
459C
100
AcDbEntity
  8
245
  6
CENTER2
100
AcDbLine
 10
-28.0
 20
0.0
 30
0.0
 11
74.66146648657707
 21
0.0
 31
0.0
  0
LINE
  5
4280
330
459C
100
AcDbEntity
  8
243
  6
HIDDEN2
100
AcDbLine
 10
-13.26397459999998
 20
-16.0
 30
0.0
 11
-14.99602540000001
 21
-13.0
 31
0.0
  0
LINE
  5
4281
330
459C
100
AcDbEntity
  8
243
  6
HIDDEN2
100
AcDbLine
 10
-17.5
 20
-13.0
 30
0.0
 11
-17.5
 21
-18.37500000070292
 31
0.0
  0
LINE
  5
4282
330
459C
100
AcDbEntity
  8
243
  6
HIDDEN2
100
AcDbLine
 10
-14.99602540000001
 20
-13.0
 30
0.0
 11
-25.0
 21
-13.0
 31
0.0
  0
ARC
  5
4283
330
459C
100
AcDbEntity
  8
243
  6
HIDDEN2
100
AcDbCircle
 10
-5.060987930000008
 20
-10.0
 30
0.0
 40
5.999999999156417
100
AcDbArc
 50
270.0
 51
326.6329870299994
  0
LINE
  5
4284
330
459C
100
AcDbEntity
  8
243
  6
HIDDEN2
100
AcDbLine
 10
-5.060987930000008
 20
-16.0
 30
0.0
 11
-13.26397459999998
 21
-16.0
 31
0.0
  0
LINE
  5
4285
330
459C
100
AcDbEntity
  8
243
  6
HIDDEN2
100
AcDbLine
 10
-10.5
 20
-16.0
 30
0.0
 11
-10.5
 21
-18.72500000000001
 31
0.0
1001
GRPNAME
1000
PASTMD02
  0
LINE
  5
4286
330
459C
100
AcDbEntity
  8
245
  6
CENTER2
100
AcDbLine
 10
-7.5
 20
-15.25996314399435
 30
0.0
 11
-7.5
 21
-19.60632340704535
 31
0.0
1001
GRPNAME
1000
PASTMD02
  0
LINE
  5
4287
330
459C
100
AcDbEntity
  8
243
  6
HIDDEN2
100
AcDbLine
 10
-4.5
 20
-16.0
 30
0.0
 11
-4.5
 21
-19.02499999999998
 31
0.0
1001
GRPNAME
1000
PASTMD02
  0
LINE
  5
4288
330
459C
100
AcDbEntity
  8
250
  6
Continuous
100
AcDbLine
 10
-14.9368727749131
 20
-20.32040331775931
 30
0.0
 11
-13.5
 21
-18.57500000052153
 31
0.0
  0
LINE
  5
4289
330
459C
100
AcDbEntity
  8
250
  6
Continuous
100
AcDbLine
 10
-14.29312722473255
 20
-20.69206998436692
 30
0.0
 11
-13.5
 21
-18.57500000052153
 31
0.0
  0
LINE
  5
428A
330
459C
100
AcDbEntity
  8
250
  6
Continuous
100
AcDbLine
 10
-13.5
 20
-18.57500000052153
 30
0.0
 11
-14.61499999982283
 21
-20.50623665106309
 31
0.0
  0
LWPOLYLINE
  5
428B
330
459C
100
AcDbEntity
  8
250
  6
Continuous
100
AcDbPolyline
 90
        2
 70
     0
 43
0.0
 10
-14.61499999982283
 20
-20.50623665106309
 10
-18.87478634999999
 20
-27.88440304052154
1001
ACAD
1000
DSTYLE
1002
{
1070
     6
1000
OPEN
1070
   343
1005
0
1002
}
  0
TEXT
  5
428F
330
459C
100
AcDbEntity
  8
250
  6
Continuous
100
AcDbText
 10
-40.87478635333332
 20
-26.88440304052154
 30
0.0
 40
2.799999999999998
  1
HSK-A50
  7
YOKO
100
AcDbText
1001
ITEMNAME
1000
LNSP3
  0
LINE
  5
4290
330
459C
100
AcDbEntity
  8
250
  6
Continuous
100
AcDbLine
 10
-18.87478634999999
 20
-27.88440304052154
 30
0.0
 11
-43.14145302
 21
-27.88440304052154
 31
0.0
1001
ITEMNAME
1000
LNSP2
  0
LINE
  5
4291
330
459C
100
AcDbEntity
  8
247
  6
Continuous
100
AcDbLine
 10
6.499999999999943
 20
-14.75
 30
0.0
 11
6.5
 21
-10.11538461566999
 31
0.0
  0
LINE
  5
4292
330
459C
100
AcDbEntity
  8
247
  6
Continuous
100
AcDbLine
 10
4.0
 20
-13.95489349998792
 30
0.0
 11
6.099999999916008
 21
-14.55705881005735
 31
0.0
  0
LINE
  5
4293
330
459C
100
AcDbEntity
  8
247
  6
Continuous
100
AcDbLine
 10
4.996153846113998
 20
-13.32515140351904
 30
0.0
 11
4.996153846113998
 21
-14.24053601886703
 31
0.0
  0
ARC
  5
4294
330
459C
100
AcDbEntity
  8
247
  6
Continuous
100
AcDbCircle
 10
4.384719067294097
 20
-13.08726340194676
 30
0.0
 40
0.3876715809326743
100
AcDbArc
 50
72.99788967529177
 51
172.9241662185136
  0
ARC
  5
4295
330
459C
100
AcDbEntity
  8
247
  6
Continuous
100
AcDbCircle
 10
4.305223131028014
 20
-13.38247755680413
 30
0.0
 40
0.6933047965358768
100
AcDbArc
 50
4.742936852202212
 51
73.8492262732663
1001
GENIUS_GENOBJ-N-FIL_13
1002
{
1000
OWNER
1000
GEN
1002
}
1001
GENIUS_GENODEF_13
1002
{
1000
HIER
1070
     0
1002
}
1002
{
1000
MANEDIT
1070
     0
1002
}
1002
{
1000
NOSEL
1070
     0
1002
}
1002
{
1000
BEHIND
1070
     0
1002
}
1002
{
1000
OTHER
1070
     0
1002
}
1002
{
1000
REACTOR
1002
}
  0
LINE
  5
4296
330
459C
100
AcDbEntity
  8
247
  6
Continuous
100
AcDbLine
 10
6.099999999916008
 20
-13.64167419470937
 30
0.0
 11
6.099999999916008
 21
-14.55705881005735
 31
0.0
  0
LINE
  5
4297
330
459C
100
AcDbEntity
  8
247
  6
Continuous
100
AcDbLine
 10
4.0
 20
-13.95489349998797
 30
0.0
 11
4.0
 21
-13.03950888463993
 31
0.0
  0
ARC
  5
4298
330
459C
100
AcDbEntity
  8
247
  6
Continuous
100
AcDbCircle
 10
5.387416962767871
 20
-13.37830647626686
 30
0.0
 40
0.394857301075386
100
AcDbArc
 50
65.99094165252889
 51
172.2634434590691
  0
ARC
  5
4299
330
459C
100
AcDbEntity
  8
247
  6
Continuous
100
AcDbCircle
 10
5.391200327332567
 20
-13.71244661042692
 30
0.0
 40
0.7123241612361686
100
AcDbArc
 50
5.701985164256464
 51
77.27733843682238
1001
GENIUS_GENOBJ-N-FIL_13
1002
{
1000
OWNER
1000
GEN
1002
}
1001
GENIUS_GENODEF_13
1002
{
1000
HIER
1070
     0
1002
}
1002
{
1000
MANEDIT
1070
     0
1002
}
1002
{
1000
NOSEL
1070
     0
1002
}
1002
{
1000
BEHIND
1070
     0
1002
}
1002
{
1000
OTHER
1070
     0
1002
}
1002
{
1000
REACTOR
1002
}
  0
LINE
  5
429A
330
459C
100
AcDbEntity
  8
247
  6
Continuous
100
AcDbLine
 10
6.099999999916008
 20
-12.6839818870634
 30
0.0
 11
4.0
 21
-12.08181657699396
 31
0.0
  0
LINE
  5
429B
330
459C
100
AcDbEntity
  8
247
  6
Continuous
100
AcDbLine
 10
4.0
 20
-10.58566273090798
 30
0.0
 11
4.0
 21
-10.98167836430355
 31
0.0
  0
LINE
  5
429C
330
459C
100
AcDbEntity
  8
247
  6
Continuous
100
AcDbLine
 10
6.099999999916008
 20
-11.60873965394398
 30
0.0
 11
6.099999999916008
 21
-11.17797042319193
 31
0.0
  0
ARC
  5
429D
330
459C
100
AcDbEntity
  8
247
  6
Continuous
100
AcDbCircle
 10
5.458299595083358
 20
-10.38181657706991
 30
0.0
 40
1.576855057639547
100
AcDbArc
 50
202.3594881415256
 51
254.9932485428461
  0
ARC
  5
429E
330
459C
100
AcDbEntity
  8
247
  6
Continuous
100
AcDbCircle
 10
4.565818858538134
 20
-10.84751136613317
 30
0.0
 40
0.6234706797009447
100
AcDbArc
 50
94.99458931907532
 51
155.1663289573039
1001
GENIUS_GENOBJ-N-FIL_13
1002
{
1000
OWNER
1000
GEN
1002
}
1001
GENIUS_GENODEF_13
1002
{
1000
HIER
1070
     0
1002
}
1002
{
1000
MANEDIT
1070
     0
1002
}
1002
{
1000
NOSEL
1070
     0
1002
}
1002
{
1000
BEHIND
1070
     0
1002
}
1002
{
1000
OTHER
1070
     0
1002
}
1002
{
1000
REACTOR
1002
}
  0
ARC
  5
429F
330
459C
100
AcDbEntity
  8
247
  6
Continuous
100
AcDbCircle
 10
5.162102121969438
 20
-11.44418395103275
 30
0.0
 40
0.9749472149106982
100
AcDbArc
 50
15.8460965557808
 51
82.32513700416906
  0
ARC
  5
42A0
330
459C
100
AcDbEntity
  8
247
  6
Continuous
100
AcDbCircle
 10
5.371470401971064
 20
-11.03521163877224
 30
0.0
 40
0.9271945638692008
100
AcDbArc
 50
249.7136016704969
 51
321.7887456564069
1001
GENIUS_GENOBJ-N-FIL_13
1002
{
1000
OWNER
1000
GEN
1002
}
1001
GENIUS_GENODEF_13
1002
{
1000
HIER
1070
     0
1002
}
1002
{
1000
MANEDIT
1070
     0
1002
}
1002
{
1000
NOSEL
1070
     0
1002
}
1002
{
1000
BEHIND
1070
     0
1002
}
1002
{
1000
OTHER
1070
     0
1002
}
1002
{
1000
REACTOR
1002
}
  0
LINE
  5
42A1
330
459C
100
AcDbEntity
  8
247
  6
Continuous
100
AcDbLine
 10
5.292307692255974
 20
-10.96258580781591
 30
0.0
 11
5.292307692255974
 21
-10.47797042321997
 31
0.0
  0
ARC
  5
42A2
330
459C
100
AcDbEntity
  8
247
  6
Continuous
100
AcDbCircle
 10
5.25
 20
-14.75
 30
0.0
 40
1.25
100
AcDbArc
 50
180.0
 51
0.0
  0
LINE
  5
42A3
330
459C
100
AcDbEntity
  8
247
  6
Continuous
100
AcDbLine
 10
4.0
 20
-14.75
 30
0.0
 11
4.0
 21
-14.30384615391398
 31
0.0
  0
ARC
  5
42A4
330
459C
100
AcDbEntity
  8
247
  6
Continuous
100
AcDbCircle
 10
5.25
 20
-10.11538461566999
 30
0.0
 40
1.25
100
AcDbArc
 50
0.0
 51
180.0
  0
LINE
  5
42B3
330
459C
100
AcDbEntity
  8
240
  6
Continuous
100
AcDbLine
 10
73.00000000000006
 20
-19.50000000000002
 30
0.0
 11
73.00000000000006
 21
19.50000000000003
 31
0.0
1001
GRPNAME
1000
PASTMD0R
  0
LINE
  5
42B4
330
459C
100
AcDbEntity
  8
243
  6
HIDDEN2
100
AcDbLine
 10
73.00000000000006
 20
11.0
 30
0.0
 11
47.0
 21
11.0
 31
0.0
1001
GRPNAME
1000
PASTMD0R
  0
LINE
  5
42B6
330
459C
100
AcDbEntity
  8
240
  6
Continuous
100
AcDbLine
 10
73.00000000000006
 20
-19.50000000000002
 30
0.0
 11
41.99999999999998
 21
-19.50000000000011
 31
0.0
1001
GRPNAME
1000
PASTMD0R
  0
LINE
  5
42B7
330
459C
100
AcDbEntity
  8
240
  6
Continuous
100
AcDbLine
 10
73.00000000000006
 20
19.50000000000002
 30
0.0
 11
41.99999999999998
 21
19.50000000000012
 31
0.0
1001
GRPNAME
1000
PASTMD0R
  0
LINE
  5
42B8
330
459C
100
AcDbEntity
  8
240
  6
Continuous
100
AcDbLine
 10
26.0
 20
20.79999999999995
 30
0.0
 11
41.99999999999986
 21
20.79999999999998
 31
0.0
  0
LINE
  5
42B9
330
459C
100
AcDbEntity
  8
240
  6
Continuous
100
AcDbLine
 10
41.99999999999986
 20
20.79999999999998
 30
0.0
 11
41.99999999999998
 21
19.50000000000012
 31
0.0
  0
LINE
  5
42C1
330
459C
100
AcDbEntity
  8
243
  6
HIDDEN2
100
AcDbLine
 10
73.00000000000006
 20
-10.99999999999999
 30
0.0
 11
47.0
 21
-10.99999999999999
 31
0.0
1001
GRPNAME
1000
PASTMD0R
  0
LINE
  5
42C2
330
459C
100
AcDbEntity
  8
240
  6
Continuous
100
AcDbLine
 10
41.99999999999986
 20
-20.79999999999998
 30
0.0
 11
41.99999999999998
 21
-19.50000000000011
 31
0.0
  0
LINE
  5
42C3
330
459C
100
AcDbEntity
  8
240
  6
Continuous
100
AcDbLine
 10
26.0
 20
-20.79999999999995
 30
0.0
 11
41.99999999999986
 21
-20.79999999999998
 31
0.0
  0
LINE
  5
42C4
330
459C
100
AcDbEntity
  8
241
  6
Continuous
100
AcDbLine
 10
41.99999999999998
 20
-19.50000000000011
 30
0.0
 11
41.99999999999998
 21
19.50000000000012
 31
0.0
  0
TEXT
  5
42EC
330
459C
100
AcDbEntity
  8
241
  6
Continuous
100
AcDbText
 10
-25.0
 20
49.0
 30
0.0
 40
5.0
  1
HSK-A50-CKB4-73
  7
YOKO
100
AcDbText
  0
LINE
  5
42ED
330
459C
100
AcDbEntity
  8
250
  6
Continuous
100
AcDbLine
 10
-0.0000000000000036
 20
25.5
 30
0.0
 11
-0.0000000000000029
 21
36.0
 31
0.0
  0
LINE
  5
42EE
330
459C
100
AcDbEntity
  8
250
  6
Continuous
100
AcDbLine
 10
73.0
 20
20.0
 30
0.0
 11
73.0
 21
36.0
 31
0.0
  0
LINE
  5
42EF
330
459C
100
AcDbEntity
  8
250
  6
Continuous
100
AcDbLine
 10
2.229999999999996
 20
35.0
 30
0.0
 11
70.76999999999998
 21
35.0
 31
0.0
  0
LINE
  5
42F0
330
459C
100
AcDbEntity
  8
250
  6
Continuous
100
AcDbLine
 10
2.229999999999995
 20
34.62833333333333
 30
0.0
 11
-0.000000000000003
 21
35.0
 31
0.0
  0
LINE
  5
42F1
330
459C
100
AcDbEntity
  8
250
  6
Continuous
100
AcDbLine
 10
2.229999999999995
 20
35.37166666666667
 30
0.0
 11
-0.000000000000003
 21
35.0
 31
0.0
  0
LINE
  5
42F2
330
459C
100
AcDbEntity
  8
250
  6
Continuous
100
AcDbLine
 10
-0.000000000000003
 20
35.0
 30
0.0
 11
2.229999999999995
 21
35.0
 31
0.0
  0
LINE
  5
42F3
330
459C
100
AcDbEntity
  8
250
  6
Continuous
100
AcDbLine
 10
70.77
 20
35.37166666666667
 30
0.0
 11
73.0
 21
35.0
 31
0.0
  0
LINE
  5
42F4
330
459C
100
AcDbEntity
  8
250
  6
Continuous
100
AcDbLine
 10
70.77
 20
34.62833333333333
 30
0.0
 11
73.0
 21
35.0
 31
0.0
  0
LINE
  5
42F5
330
459C
100
AcDbEntity
  8
250
  6
Continuous
100
AcDbLine
 10
73.0
 20
35.0
 30
0.0
 11
70.77
 21
35.0
 31
0.0
  0
TEXT
  5
42F6
330
459C
100
AcDbEntity
  8
250
  6
Continuous
100
AcDbText
 10
33.83333333333333
 20
36.0
 30
0.0
 40
2.799999999999998
  1
73
100
AcDbText
1001
ACAD
1000
MTEXTBEGIN
1070
    73
1070
     1
1070
    44
1040
1.0
1070
    74
1070
     0
1000
MTEXTEND
  0
LINE
  5
42F7
330
459C
100
AcDbEntity
  8
250
  6
Continuous
100
AcDbLine
 10
73.5
 20
-19.5
 30
0.0
 11
84.14292951
 21
-19.5
 31
0.0
  0
LINE
  5
42F8
330
459C
100
AcDbEntity
  8
250
  6
Continuous
100
AcDbLine
 10
73.5
 20
19.5
 30
0.0
 11
84.14292951
 21
19.5
 31
0.0
  0
LINE
  5
42F9
330
459C
100
AcDbEntity
  8
250
  6
Continuous
100
AcDbLine
 10
83.14292951
 20
-17.27
 30
0.0
 11
83.14292951
 21
17.27
 31
0.0
  0
LINE
  5
42FA
330
459C
100
AcDbEntity
  8
250
  6
Continuous
100
AcDbLine
 10
83.51459617666669
 20
-17.27
 30
0.0
 11
83.14292951
 21
-19.5
 31
0.0
  0
LINE
  5
42FB
330
459C
100
AcDbEntity
  8
250
  6
Continuous
100
AcDbLine
 10
82.77126284333332
 20
-17.27
 30
0.0
 11
83.14292951
 21
-19.5
 31
0.0
  0
LINE
  5
42FC
330
459C
100
AcDbEntity
  8
250
  6
Continuous
100
AcDbLine
 10
83.14292951
 20
-19.5
 30
0.0
 11
83.14292951
 21
-17.27
 31
0.0
  0
LINE
  5
42FD
330
459C
100
AcDbEntity
  8
250
  6
Continuous
100
AcDbLine
 10
82.77126284333332
 20
17.27
 30
0.0
 11
83.14292951
 21
19.5
 31
0.0
  0
LINE
  5
42FE
330
459C
100
AcDbEntity
  8
250
  6
Continuous
100
AcDbLine
 10
83.51459617666669
 20
17.27
 30
0.0
 11
83.14292951
 21
19.5
 31
0.0
  0
LINE
  5
42FF
330
459C
100
AcDbEntity
  8
250
  6
Continuous
100
AcDbLine
 10
83.14292951
 20
19.5
 30
0.0
 11
83.14292951
 21
17.27
 31
0.0
  0
TEXT
  5
4300
330
459C
100
AcDbEntity
  8
250
  6
Continuous
100
AcDbText
 10
82.14292950999999
 20
-3.866666666666652
 30
0.0
 40
2.799999999999999
  1
∅
 50
90.0
100
AcDbText
1001
ACAD
1000
MTEXTBEGIN
1070
    73
1070
     1
1070
    44
1040
1.0
1070
    74
1070
     0
1000
MTEXTEND
  0
TEXT
  5
4301
330
459C
100
AcDbEntity
  8
250
  6
Continuous
100
AcDbText
 10
82.14292950999999
 20
-1.333333333333319
 30
0.0
 40
2.799999999999998
  1
39
 50
90.0
100
AcDbText
1001
ACAD
1000
MTEXTBEGIN
1070
    73
1070
     1
1070
    44
1040
1.0
1070
    74
1070
     0
1000
MTEXTEND
  0
LINE
  5
4302
330
459C
100
AcDbEntity
  8
250
  6
Continuous
100
AcDbLine
 10
70.74099742453578
 20
21.24540331754845
 30
0.0
 11
69.30412465
 21
19.50000000000003
 31
0.0
  0
LINE
  5
4303
330
459C
100
AcDbEntity
  8
250
  6
Continuous
100
AcDbLine
 10
70.0972518742749
 20
21.61706998401689
 30
0.0
 11
69.30412465
 21
19.50000000000003
 31
0.0
  0
LINE
  5
4304
330
459C
100
AcDbEntity
  8
250
  6
Continuous
100
AcDbLine
 10
69.30412465
 20
19.50000000000003
 30
0.0
 11
70.41912464940533
 21
21.43123665078267
 31
0.0
  0
LWPOLYLINE
  5
4305
330
459C
100
AcDbEntity
  8
250
  6
Continuous
100
AcDbPolyline
 90
        2
 70
     0
 43
0.0
 10
70.41912464940533
 20
21.43123665078267
 10
79.04962296
 20
36.37969823000004
1001
ACAD
1000
DSTYLE
1002
{
1070
     6
1000
OPEN
1070
   343
1005
594
1002
}
  0
LINE
  5
4306
330
459C
100
AcDbEntity
  8
250
  6
Continuous
100
AcDbLine
 10
79.04962296
 20
36.37969823000004
 30
0.0
 11
92.24962296
 21
36.37969823000004
 31
0.0
1001
ITEMNAME
1000
LNSP2
  0
TEXT
  5
4307
330
459C
100
AcDbEntity
  8
250
  6
Continuous
100
AcDbText
 10
81.44962296
 20
37.37969823000004
 30
0.0
 40
2.799999999999998
  1
CK4
  7
YOKO
100
AcDbText
1001
ITEMNAME
1000
LNSP3
1001
ACAD
1000
MTEXTBEGIN
1070
    73
1070
     1
1070
    44
1040
1.0
1070
    74
1070
     0
1000
MTEXTEND
  0
CIRCLE
  5
4308
330
459C
100
AcDbEntity
  8
242
  6
Continuous
100
AcDbCircle
 10
63.0
 20
0.0
 30
0.0
 40
3.5
  0
CIRCLE
  5
4309
330
459C
100
AcDbEntity
  8
241
  6
Continuous
100
AcDbCircle
 10
63.0
 20
0.0
 30
0.0
 40
4.0
  0
LWPOLYLINE
  5
430A
330
459C
100
AcDbEntity
  8
241
  6
Continuous
100
AcDbPolyline
 90
        6
 70
     1
 43
0.0
 10
61.0
 20
-1.15470054
 10
63.0
 20
-2.30940108
 10
65.0
 20
-1.15470054
 10
65.0
 20
1.15470054
 10
63.0
 20
2.30940108
 10
61.0
 20
1.15470054
  0
LINE
  5
430B
330
459C
100
AcDbEntity
  8
245
  6
CENTER2
100
AcDbLine
 10
63.0
 20
5.0
 30
0.0
 11
63.0
 21
-5.0
 31
0.0
  0
VIEWPORT
  5
22
330
459A
100
AcDbEntity
 67
     1
  8
0
100
AcDbViewport
 10
261.5176991150442
 20
148.5
 30
0.0
 40
523.0353982300885
 41
297.0
 68
     1
 69
    -1
 12
261.5176991150442
 22
148.5
 13
0.0
 23
0.0
 14
1.0
 24
1.0
 15
10.0
 25
10.0
 16
0.0
 26
0.0
 36
1.0
 17
0.0
 27
0.0
 37
0.0
 42
50.0
 43
0.0
 44
0.0
 45
297.0
 50
0.0
 51
0.0
 72
   100
 90
   557216
  1

281
     0
 71
     0
 74
     0
110
0.0
120
0.0
130
0.0
111
1.0
121
0.0
131
0.0
112
0.0
122
1.0
132
0.0
 79
     0
146
0.0
170
     0
 61
     5
292
     1
282
     1
141
0.0
142
0.0
 63
   256
1001
GENIUS_GENODEF_13
1002
{
1000
HIER
1070
     0
1002
}
1002
{
1000
MANEDIT
1070
     0
1002
}
1002
{
1000
NOSEL
1070
     0
1002
}
1002
{
1000
BEHIND
1070
     0
1002
}
1002
{
1000
OTHER
1070
     0
1002
}
1002
{
1000
REACTOR
1002
}
1001
GENIUS_GENOBJ-N-SDF_13
1002
{
1000
OWNER
1000
GEN
1002
}
1001
GENIUS_GENSCREG_15
1000
PF
1040
1.0
1000
DF
1040
1.0
1000
MIN
1011
0.0
1021
0.0
1031
0.0
1000
MAX
1011
523.0353982300885
1021
297.0
1031
0.0
1000
FLAGS
1070
     4
  0
ENDSEC
  0
SECTION
  2
OBJECTS
  0
DICTIONARY
  5
458C
330
0
100
AcDbDictionary
281
     1
  3
ACAD_GROUP
350
458D
  3
ACAD_IMAGE_VARS
350
E064
  3
ACAD_LAYOUT
350
4599
  3
ACAD_MLEADERSTYLE
350
E06B
  3
ACAD_MLINESTYLE
350
4596
  3
ACAD_PLOTSETTINGS
350
4598
  3
ACAD_PLOTSTYLENAME
350
458E
  3
ACAD_SCALELIST
350
E03F
  3
ACAD_TABLESTYLE
350
E061
  3
ACDB_RECOMPOSE_DATA
350
E069
  3
AcDbVariableDictionary
350
E065
  3
APPDATA
350
E063
  0
DICTIONARY
  5
458D
102
{ACAD_REACTORS
330
458C
102
}
330
458C
100
AcDbDictionary
281
     1
  0
RASTERVARIABLES
  5
E064
102
{ACAD_REACTORS
330
458C
102
}
330
458C
100
AcDbRasterVariables
 90
        0
 70
     1
 71
     1
 72
     0
  0
DICTIONARY
  5
4599
102
{ACAD_REACTORS
330
458C
102
}
330
458C
100
AcDbDictionary
281
     1
  3
Model
350
459D
  3
Sheet1
350
459B
  0
DICTIONARY
  5
E06B
102
{ACAD_REACTORS
330
458C
102
}
330
458C
100
AcDbDictionary
281
     1
  0
DICTIONARY
  5
4596
102
{ACAD_REACTORS
330
458C
102
}
330
458C
100
AcDbDictionary
281
     1
  3
Standard
350
4597
  0
DICTIONARY
  5
4598
102
{ACAD_REACTORS
330
458C
102
}
330
458C
100
AcDbDictionary
281
     1
  0
ACDBDICTIONARYWDFLT
  5
458E
102
{ACAD_REACTORS
330
458C
102
}
330
458C
100
AcDbDictionary
281
     1
  3
Normal
350
458F
100
AcDbDictionaryWithDefault
340
458F
  0
DICTIONARY
  5
E03F
102
{ACAD_REACTORS
330
458C
102
}
330
458C
100
AcDbDictionary
281
     1
  3
A0
350
E040
  3
A1
350
E041
  3
A2
350
E042
  3
A3
350
E043
  3
A4
350
E044
  3
A5
350
E045
  3
A6
350
E046
  3
A7
350
E047
  3
A8
350
E048
  3
A9
350
E049
  3
B0
350
E04A
  3
B1
350
E04B
  3
B2
350
E04C
  3
B3
350
E04D
  3
B4
350
E04E
  3
B5
350
E04F
  3
B6
350
E050
  3
B7
350
E051
  3
B8
350
E052
  3
B9
350
E053
  3
C0
350
E054
  3
C1
350
E055
  3
C2
350
E056
  3
C3
350
E057
  3
C4
350
E058
  3
C5
350
E059
  3
C6
350
E05A
  3
C7
350
E05B
  3
C8
350
E05C
  3
C9
350
E05D
  3
D0
350
E05E
  3
D1
350
E05F
  3
D2
350
E060
  0
DICTIONARY
  5
E061
102
{ACAD_REACTORS
330
458C
102
}
330
458C
100
AcDbDictionary
281
     1
  3
Standard
350
E062
  0
XRECORD
  5
E069
102
{ACAD_REACTORS
330
458C
102
}
330
458C
100
AcDbXrecord
280
     1
 90
        1
330
E062
  0
DICTIONARY
  5
E065
102
{ACAD_REACTORS
330
458C
102
}
330
458C
100
AcDbDictionary
281
     1
  3
CANNOSCALE
350
E066
  3
CTABLESTYLE
350
E06A
  0
DICTIONARY
  5
E063
102
{ACAD_REACTORS
330
458C
102
}
330
458C
100
AcDbDictionary
281
     1
  0
LAYOUT
  5
459D
102
{ACAD_REACTORS
330
4599
102
}
330
4599
100
AcDbPlotSettings
  1

  2
none_device
  4

  6

 40
0.0
 41
0.0
 42
0.0
 43
0.0
 44
0.0
 45
0.0
 46
0.0
 47
0.0
 48
0.0
 49
0.0
140
0.0
141
0.0
142
1.0
143
1.0
 70
  1712
 72
     0
 73
     0
 74
     0
  7

 75
     0
 76
     0
 77
     2
 78
   300
147
1.0
148
0.0
149
0.0
100
AcDbLayout
  1
Model
 70
     1
 71
     0
 10
0.0
 20
0.0
 11
12.0
 21
9.0
 12
0.0
 22
0.0
 32
0.0
 14
-43.14145302
 24
-27.88440304052154
 34
0.0
 15
92.24962296
 25
54.0
 35
0.0
146
0.0
 13
0.0
 23
0.0
 33
0.0
 16
1.0
 26
0.0
 36
0.0
 17
0.0
 27
1.0
 37
0.0
 76
     0
330
459C
331
459F
  0
LAYOUT
  5
459B
102
{ACAD_REACTORS
330
4599
102
}
330
4599
100
AcDbPlotSettings
  1

  2
none_device
  4

  6

 40
0.0
 41
0.0
 42
0.0
 43
0.0
 44
0.0
 45
0.0
 46
0.0
 47
0.0
 48
0.0
 49
0.0
140
0.0
141
0.0
142
1.0
143
1.0
 70
   688
 72
     0
 73
     0
 74
     5
  7

 75
    16
 76
     0
 77
     2
 78
   300
147
1.0
148
0.0
149
0.0
100
AcDbLayout
  1
Sheet1
 70
     1
 71
     1
 10
0.0
 20
0.0
 11
420.0
 21
297.0
 12
0.0
 22
0.0
 32
0.0
 14
1.000000000000000E+20
 24
1.000000000000000E+20
 34
1.000000000000000E+20
 15
-1.000000000000000E+20
 25
-1.000000000000000E+20
 35
-1.000000000000000E+20
146
0.0
 13
0.0
 23
0.0
 33
0.0
 16
1.0
 26
0.0
 36
0.0
 17
0.0
 27
1.0
 37
0.0
 76
     0
330
459A
331
22
  0
MLINESTYLE
  5
4597
102
{ACAD_REACTORS
330
4596
102
}
330
4596
100
AcDbMlineStyle
  2
Standard
 70
     0
  3

 62
   256
 51
90.0
 52
90.0
 71
     2
 49
0.5
 62
   256
  6
BYLAYER
 49
-0.5
 62
   256
  6
BYLAYER
  0
ACDBPLACEHOLDER
  5
458F
102
{ACAD_REACTORS
330
458E
102
}
330
458E
  0
SCALE
  5
E040
102
{ACAD_REACTORS
330
E03F
102
}
330
E03F
100
AcDbScale
 70
     0
300
1:1
140
1.0
141
1.0
290
     1
  0
SCALE
  5
E041
102
{ACAD_REACTORS
330
E03F
102
}
330
E03F
100
AcDbScale
 70
     0
300
1:2
140
1.0
141
2.0
290
     0
  0
SCALE
  5
E042
102
{ACAD_REACTORS
330
E03F
102
}
330
E03F
100
AcDbScale
 70
     0
300
1:4
140
1.0
141
4.0
290
     0
  0
SCALE
  5
E043
102
{ACAD_REACTORS
330
E03F
102
}
330
E03F
100
AcDbScale
 70
     0
300
1:5
140
1.0
141
5.0
290
     0
  0
SCALE
  5
E044
102
{ACAD_REACTORS
330
E03F
102
}
330
E03F
100
AcDbScale
 70
     0
300
1:8
140
1.0
141
8.0
290
     0
  0
SCALE
  5
E045
102
{ACAD_REACTORS
330
E03F
102
}
330
E03F
100
AcDbScale
 70
     0
300
1:10
140
1.0
141
10.0
290
     0
  0
SCALE
  5
E046
102
{ACAD_REACTORS
330
E03F
102
}
330
E03F
100
AcDbScale
 70
     0
300
1:16
140
1.0
141
16.0
290
     0
  0
SCALE
  5
E047
102
{ACAD_REACTORS
330
E03F
102
}
330
E03F
100
AcDbScale
 70
     0
300
1:20
140
1.0
141
20.0
290
     0
  0
SCALE
  5
E048
102
{ACAD_REACTORS
330
E03F
102
}
330
E03F
100
AcDbScale
 70
     0
300
1:30
140
1.0
141
30.0
290
     0
  0
SCALE
  5
E049
102
{ACAD_REACTORS
330
E03F
102
}
330
E03F
100
AcDbScale
 70
     0
300
1:40
140
1.0
141
40.0
290
     0
  0
SCALE
  5
E04A
102
{ACAD_REACTORS
330
E03F
102
}
330
E03F
100
AcDbScale
 70
     0
300
1:50
140
1.0
141
50.0
290
     0
  0
SCALE
  5
E04B
102
{ACAD_REACTORS
330
E03F
102
}
330
E03F
100
AcDbScale
 70
     0
300
1:100
140
1.0
141
100.0
290
     0
  0
SCALE
  5
E04C
102
{ACAD_REACTORS
330
E03F
102
}
330
E03F
100
AcDbScale
 70
     0
300
2:1
140
2.0
141
1.0
290
     0
  0
SCALE
  5
E04D
102
{ACAD_REACTORS
330
E03F
102
}
330
E03F
100
AcDbScale
 70
     0
300
4:1
140
4.0
141
1.0
290
     0
  0
SCALE
  5
E04E
102
{ACAD_REACTORS
330
E03F
102
}
330
E03F
100
AcDbScale
 70
     0
300
8:1
140
8.0
141
1.0
290
     0
  0
SCALE
  5
E04F
102
{ACAD_REACTORS
330
E03F
102
}
330
E03F
100
AcDbScale
 70
     0
300
10:1
140
10.0
141
1.0
290
     0
  0
SCALE
  5
E050
102
{ACAD_REACTORS
330
E03F
102
}
330
E03F
100
AcDbScale
 70
     0
300
100:1
140
100.0
141
1.0
290
     0
  0
SCALE
  5
E051
102
{ACAD_REACTORS
330
E03F
102
}
330
E03F
100
AcDbScale
 70
     0
300
1/128" = 1'-0"
140
0.0078125
141
12.0
290
     0
  0
SCALE
  5
E052
102
{ACAD_REACTORS
330
E03F
102
}
330
E03F
100
AcDbScale
 70
     0
300
1/64" = 1'-0"
140
0.015625
141
12.0
290
     0
  0
SCALE
  5
E053
102
{ACAD_REACTORS
330
E03F
102
}
330
E03F
100
AcDbScale
 70
     0
300
1/32" = 1'-0"
140
0.03125
141
12.0
290
     0
  0
SCALE
  5
E054
102
{ACAD_REACTORS
330
E03F
102
}
330
E03F
100
AcDbScale
 70
     0
300
1/16" = 1'-0"
140
0.0625
141
12.0
290
     0
  0
SCALE
  5
E055
102
{ACAD_REACTORS
330
E03F
102
}
330
E03F
100
AcDbScale
 70
     0
300
3/32" = 1'-0"
140
0.09375
141
12.0
290
     0
  0
SCALE
  5
E056
102
{ACAD_REACTORS
330
E03F
102
}
330
E03F
100
AcDbScale
 70
     0
300
1/8" = 1'-0"
140
0.125
141
12.0
290
     0
  0
SCALE
  5
E057
102
{ACAD_REACTORS
330
E03F
102
}
330
E03F
100
AcDbScale
 70
     0
300
3/16" = 1'-0"
140
0.1875
141
12.0
290
     0
  0
SCALE
  5
E058
102
{ACAD_REACTORS
330
E03F
102
}
330
E03F
100
AcDbScale
 70
     0
300
1/4" = 1'-0"
140
0.25
141
12.0
290
     0
  0
SCALE
  5
E059
102
{ACAD_REACTORS
330
E03F
102
}
330
E03F
100
AcDbScale
 70
     0
300
3/8" = 1'-0"
140
0.375
141
12.0
290
     0
  0
SCALE
  5
E05A
102
{ACAD_REACTORS
330
E03F
102
}
330
E03F
100
AcDbScale
 70
     0
300
1/2" = 1'-0"
140
0.5
141
12.0
290
     0
  0
SCALE
  5
E05B
102
{ACAD_REACTORS
330
E03F
102
}
330
E03F
100
AcDbScale
 70
     0
300
3/4" = 1'-0"
140
0.75
141
12.0
290
     0
  0
SCALE
  5
E05C
102
{ACAD_REACTORS
330
E03F
102
}
330
E03F
100
AcDbScale
 70
     0
300
1" = 1'-0"
140
1.0
141
12.0
290
     0
  0
SCALE
  5
E05D
102
{ACAD_REACTORS
330
E03F
102
}
330
E03F
100
AcDbScale
 70
     0
300
1-1/2" = 1'-0"
140
1.5
141
12.0
290
     0
  0
SCALE
  5
E05E
102
{ACAD_REACTORS
330
E03F
102
}
330
E03F
100
AcDbScale
 70
     0
300
3" = 1'-0"
140
3.0
141
12.0
290
     0
  0
SCALE
  5
E05F
102
{ACAD_REACTORS
330
E03F
102
}
330
E03F
100
AcDbScale
 70
     0
300
6" = 1'-0"
140
6.0
141
12.0
290
     0
  0
SCALE
  5
E060
102
{ACAD_REACTORS
330
E03F
102
}
330
E03F
100
AcDbScale
 70
     0
300
1'-0" = 1'-0"
140
12.0
141
12.0
290
     0
  0
TABLESTYLE
  5
E062
102
{ACAD_REACTORS
330
E061
102
}
102
{ACAD_XDICTIONARY
360
E067
102
}
330
E061
100
AcDbTableStyle
  3
Standard
 70
     0
 71
     0
 40
0.06
 41
0.06
280
     0
281
     0
  7
STANDARD
140
0.18
170
     2
 62
     0
 63
   257
283
     0
 90
        4
 91
        0
  1

274
    -2
284
     1
 64
     0
275
    -2
285
     1
 65
     0
276
    -2
286
     1
 66
     0
277
    -2
287
     1
 67
     0
278
    -2
288
     1
 68
     0
279
    -2
289
     1
 69
     0
  7
STANDARD
140
0.25
170
     5
 62
     0
 63
   257
283
     0
 90
        4
 91
        0
  1

274
    -2
284
     1
 64
     0
275
    -2
285
     1
 65
     0
276
    -2
286
     1
 66
     0
277
    -2
287
     1
 67
     0
278
    -2
288
     1
 68
     0
279
    -2
289
     1
 69
     0
  7
STANDARD
140
0.18
170
     5
 62
     0
 63
   257
283
     0
 90
        4
 91
        0
  1

274
    -2
284
     1
 64
     0
275
    -2
285
     1
 65
     0
276
    -2
286
     1
 66
     0
277
    -2
287
     1
 67
     0
278
    -2
288
     1
 68
     0
279
    -2
289
     1
 69
     0
  0
DICTIONARYVAR
  5
E066
102
{ACAD_REACTORS
330
E065
102
}
330
E065
100
DictionaryVariables
280
     0
  1
1:1
  0
DICTIONARYVAR
  5
E06A
102
{ACAD_REACTORS
330
E065
102
}
330
E065
100
DictionaryVariables
280
     0
  1
Standard
  0
DICTIONARY
  5
E067
330
E062
100
AcDbDictionary
280
     1
281
     1
  3
ACAD_ROUNDTRIP_2008_TABLESTYLE_CELLSTYLEMAP
360
E068
  0
CELLSTYLEMAP
  5
E068
102
{ACAD_REACTORS
330
E067
102
}
330
E067
100
AcDbCellStyleMap
 90
        3
300
CELLSTYLE
  1
TABLEFORMAT_BEGIN
 90
        5
170
     1
 91
        0
 92
        0
 62
   257
 93
        1
300
CONTENTFORMAT
  1
CONTENTFORMAT_BEGIN
 90
        0
 91
        0
 92
        4
 93
        0
300

 40
0.0
140
1.0
 94
        5
 62
     0
340
4591
144
0.25
309
CONTENTFORMAT_END
171
     1
301
MARGIN
  1
CELLMARGIN_BEGIN
 40
0.06
 40
0.06
 40
0.06
 40
0.06
 40
0.06
 40
0.06
309
CELLMARGIN_END
 94
        6
 95
        1
302
GRIDFORMAT
  1
GRIDFORMAT_BEGIN
 90
        0
 91
        1
 62
     0
 92
       -2
340
4593
 93
        0
 40
0.045
309
GRIDFORMAT_END
 95
        2
302
GRIDFORMAT
  1
GRIDFORMAT_BEGIN
 90
        0
 91
        1
 62
     0
 92
       -2
340
4593
 93
        0
 40
0.045
309
GRIDFORMAT_END
 95
        4
302
GRIDFORMAT
  1
GRIDFORMAT_BEGIN
 90
        0
 91
        1
 62
     0
 92
       -2
340
4593
 93
        0
 40
0.045
309
GRIDFORMAT_END
 95
        8
302
GRIDFORMAT
  1
GRIDFORMAT_BEGIN
 90
        0
 91
        1
 62
     0
 92
       -2
340
4593
 93
        0
 40
0.045
309
GRIDFORMAT_END
 95
       16
302
GRIDFORMAT
  1
GRIDFORMAT_BEGIN
 90
        0
 91
        1
 62
     0
 92
       -2
340
4593
 93
        0
 40
0.045
309
GRIDFORMAT_END
 95
       32
302
GRIDFORMAT
  1
GRIDFORMAT_BEGIN
 90
        0
 91
        1
 62
     0
 92
       -2
340
4593
 93
        0
 40
0.045
309
GRIDFORMAT_END
309
TABLEFORMAT_END
  1
CELLSTYLE_BEGIN
 90
        1
 91
        1
300
_TITLE
309
CELLSTYLE_END
300
CELLSTYLE
  1
TABLEFORMAT_BEGIN
 90
        5
170
     1
 91
        0
 92
        0
 62
   257
 93
        1
300
CONTENTFORMAT
  1
CONTENTFORMAT_BEGIN
 90
        0
 91
        0
 92
        4
 93
        0
300

 40
0.0
140
1.0
 94
        5
 62
     0
340
4591
144
0.18
309
CONTENTFORMAT_END
171
     1
301
MARGIN
  1
CELLMARGIN_BEGIN
 40
0.06
 40
0.06
 40
0.06
 40
0.06
 40
0.06
 40
0.06
309
CELLMARGIN_END
 94
        6
 95
        1
302
GRIDFORMAT
  1
GRIDFORMAT_BEGIN
 90
        0
 91
        1
 62
     0
 92
       -2
340
4593
 93
        0
 40
0.045
309
GRIDFORMAT_END
 95
        2
302
GRIDFORMAT
  1
GRIDFORMAT_BEGIN
 90
        0
 91
        1
 62
     0
 92
       -2
340
4593
 93
        0
 40
0.045
309
GRIDFORMAT_END
 95
        4
302
GRIDFORMAT
  1
GRIDFORMAT_BEGIN
 90
        0
 91
        1
 62
     0
 92
       -2
340
4593
 93
        0
 40
0.045
309
GRIDFORMAT_END
 95
        8
302
GRIDFORMAT
  1
GRIDFORMAT_BEGIN
 90
        0
 91
        1
 62
     0
 92
       -2
340
4593
 93
        0
 40
0.045
309
GRIDFORMAT_END
 95
       16
302
GRIDFORMAT
  1
GRIDFORMAT_BEGIN
 90
        0
 91
        1
 62
     0
 92
       -2
340
4593
 93
        0
 40
0.045
309
GRIDFORMAT_END
 95
       32
302
GRIDFORMAT
  1
GRIDFORMAT_BEGIN
 90
        0
 91
        1
 62
     0
 92
       -2
340
4593
 93
        0
 40
0.045
309
GRIDFORMAT_END
309
TABLEFORMAT_END
  1
CELLSTYLE_BEGIN
 90
        2
 91
        1
300
_HEADER
309
CELLSTYLE_END
300
CELLSTYLE
  1
TABLEFORMAT_BEGIN
 90
        5
170
     1
 91
        0
 92
        0
 62
   257
 93
        1
300
CONTENTFORMAT
  1
CONTENTFORMAT_BEGIN
 90
        0
 91
        0
 92
        4
 93
        0
300

 40
0.0
140
1.0
 94
        2
 62
     0
340
4591
144
0.18
309
CONTENTFORMAT_END
171
     1
301
MARGIN
  1
CELLMARGIN_BEGIN
 40
0.06
 40
0.06
 40
0.06
 40
0.06
 40
0.06
 40
0.06
309
CELLMARGIN_END
 94
        6
 95
        1
302
GRIDFORMAT
  1
GRIDFORMAT_BEGIN
 90
        0
 91
        1
 62
     0
 92
       -2
340
4593
 93
        0
 40
0.045
309
GRIDFORMAT_END
 95
        2
302
GRIDFORMAT
  1
GRIDFORMAT_BEGIN
 90
        0
 91
        1
 62
     0
 92
       -2
340
4593
 93
        0
 40
0.045
309
GRIDFORMAT_END
 95
        4
302
GRIDFORMAT
  1
GRIDFORMAT_BEGIN
 90
        0
 91
        1
 62
     0
 92
       -2
340
4593
 93
        0
 40
0.045
309
GRIDFORMAT_END
 95
        8
302
GRIDFORMAT
  1
GRIDFORMAT_BEGIN
 90
        0
 91
        1
 62
     0
 92
       -2
340
4593
 93
        0
 40
0.045
309
GRIDFORMAT_END
 95
       16
302
GRIDFORMAT
  1
GRIDFORMAT_BEGIN
 90
        0
 91
        1
 62
     0
 92
       -2
340
4593
 93
        0
 40
0.045
309
GRIDFORMAT_END
 95
       32
302
GRIDFORMAT
  1
GRIDFORMAT_BEGIN
 90
        0
 91
        1
 62
     0
 92
       -2
340
4593
 93
        0
 40
0.045
309
GRIDFORMAT_END
309
TABLEFORMAT_END
  1
CELLSTYLE_BEGIN
 90
        3
 91
        2
300
_DATA
309
CELLSTYLE_END
  0
ENDSEC
  0
EOF
