  0
SECTION
  2
HEADER
  9
$ACADVER
  1
AC1009
  9
$INSBASE
 10
0.0
 20
0.0
 30
0.0
  9
$EXTMIN
 10
-39.969469422589214
 20
-22.767277299371251
 30
-0.0000000000074783
  9
$EXTMAX
 10
98.60810649327675
 20
54.005558330052963
 30
0.0000000000044428
  9
$LIMMIN
 10
0.0
 20
0.0
  9
$LIMMAX
 10
420.0
 20
297.0
  9
$ORTHOMODE
 70
     1
  9
$REGENMODE
 70
     1
  9
$FILLMODE
 70
     1
  9
$QTEXTMODE
 70
     0
  9
$MIRRTEXT
 70
     1
  9
$DRAGMODE
 70
     2
  9
$LTSCALE
 40
10.0
  9
$OSMODE
 70
    47
  9
$ATTMODE
 70
     1
  9
$TEXTSIZE
 40
3.0
  9
$TRACEWID
 40
1.0
  9
$TEXTSTYLE
  7
YOKO
  9
$CLAYER
  8
240
  9
$CELTYPE
  6
BYLAYER
  9
$CECOLOR
 62
   256
  9
$DIMSCALE
 40
1.0
  9
$DIMASZ
 40
2.0
  9
$DIMEXO
 40
2.0
  9
$DIMDLI
 40
2.5
  9
$DIMRND
 40
0.0
  9
$DIMDLE
 40
0.0
  9
$DIMEXE
 40
2.0
  9
$DIMTP
 40
0.0
  9
$DIMTM
 40
0.0
  9
$DIMTXT
 40
4.0
  9
$DIMCEN
 40
0.0
  9
$DIMTSZ
 40
0.0
  9
$DIMTOL
 70
     0
  9
$DIMLIM
 70
     0
  9
$DIMTIH
 70
     0
  9
$DIMTOH
 70
     0
  9
$DIMSE1
 70
     0
  9
$DIMSE2
 70
     0
  9
$DIMTAD
 70
     3
  9
$DIMZIN
 70
     8
  9
$DIMBLK
  1

  9
$DIMASO
 70
     1
  9
$DIMSHO
 70
     1
  9
$DIMPOST
  1

  9
$DIMAPOST
  1

  9
$DIMALT
 70
     0
  9
$DIMALTD
 70
     2
  9
$DIMALTF
 40
25.399999999999999
  9
$DIMLFAC
 40
1.0
  9
$DIMTOFL
 70
     1
  9
$DIMTVP
 40
0.0
  9
$DIMTIX
 70
     1
  9
$DIMSOXD
 70
     0
  9
$DIMSAH
 70
     1
  9
$DIMBLK1
  1
OPEN
  9
$DIMBLK2
  1
OPEN
  9
$DIMSTYLE
  2
BIGT
  9
$DIMCLRD
 70
   256
  9
$DIMCLRE
 70
   256
  9
$DIMCLRT
 70
    40
  9
$DIMTFAC
 40
1.0
  9
$DIMGAP
 40
1.0
  9
$LUNITS
 70
     2
  9
$LUPREC
 70
     3
  9
$SKETCHINC
 40
1.0
  9
$FILLETRAD
 40
0.0
  9
$AUNITS
 70
     0
  9
$AUPREC
 70
     3
  9
$MENU
  1
.
  9
$ELEVATION
 40
0.0
  9
$PELEVATION
 40
0.0
  9
$THICKNESS
 40
0.0
  9
$LIMCHECK
 70
     0
  9
$BLIPMODE
 70
     0
  9
$CHAMFERA
 40
10.0
  9
$CHAMFERB
 40
10.0
  9
$SKPOLY
 70
     0
  9
$TDCREATE
 40
2455037.6884629978
  9
$TDUPDATE
 40
2457673.6616281481
  9
$TDINDWG
 40
0.2488808796
  9
$TDUSRTIMER
 40
0.2488799653
  9
$USRTIMER
 70
     1
  9
$ANGBASE
 50
0.0
  9
$ANGDIR
 70
     0
  9
$PDMODE
 70
     1
  9
$PDSIZE
 40
-5.0
  9
$PLINEWID
 40
0.0
  9
$COORDS
 70
     1
  9
$SPLFRAME
 70
     0
  9
$SPLINETYPE
 70
     6
  9
$SPLINESEGS
 70
     8
  9
$ATTDIA
 70
     1
  9
$ATTREQ
 70
     1
  9
$HANDLING
 70
     1
  9
$HANDSEED
  5
1DC9
  9
$SURFTAB1
 70
     6
  9
$SURFTAB2
 70
     6
  9
$SURFTYPE
 70
     6
  9
$SURFU
 70
     6
  9
$SURFV
 70
     6
  9
$UCSNAME
  2

  9
$UCSORG
 10
0.0
 20
0.0
 30
0.0
  9
$UCSXDIR
 10
1.0
 20
0.0
 30
0.0
  9
$UCSYDIR
 10
0.0
 20
1.0
 30
0.0
  9
$PUCSNAME
  2

  9
$PUCSORG
 10
0.0
 20
0.0
 30
0.0
  9
$PUCSXDIR
 10
1.0
 20
0.0
 30
0.0
  9
$PUCSYDIR
 10
0.0
 20
1.0
 30
0.0
  9
$USERI1
 70
     1
  9
$USERI2
 70
     0
  9
$USERI3
 70
     0
  9
$USERI4
 70
     0
  9
$USERI5
 70
     0
  9
$USERR1
 40
0.0
  9
$USERR2
 40
0.0
  9
$USERR3
 40
0.0
  9
$USERR4
 40
0.0
  9
$USERR5
 40
0.0
  9
$WORLDVIEW
 70
     1
  9
$SHADEDGE
 70
     3
  9
$SHADEDIF
 70
    70
  9
$TILEMODE
 70
     1
  9
$MAXACTVP
 70
    16
  9
$PLIMCHECK
 70
     0
  9
$PEXTMIN
 10
1.0000000000000000E+020
 20
1.0000000000000000E+020
 30
1.0000000000000000E+020
  9
$PEXTMAX
 10
-1.0000000000000000E+020
 20
-1.0000000000000000E+020
 30
-1.0000000000000000E+020
  9
$PLIMMIN
 10
0.0
 20
0.0
  9
$PLIMMAX
 10
420.0
 20
297.0
  9
$UNITMODE
 70
     0
  9
$VISRETAIN
 70
     0
  9
$PLINEGEN
 70
     0
  9
$PSLTSCALE
 70
     1
  0
ENDSEC
  0
SECTION
  2
TABLES
  0
TABLE
  2
VPORT
 70
     1
  0
VPORT
  2
*ACTIVE
 70
     0
 10
0.0
 20
0.0
 11
1.0
 21
1.0
 12
29.319318535343768
 22
15.619140515340851
 13
0.0
 23
0.0
 14
7.0
 24
7.0
 15
7.0
 25
7.0
 16
0.0
 26
0.0
 36
1.0
 17
0.0
 27
0.0
 37
0.0
 40
92.64145017367683
 41
1.5020920502092041
 42
50.0
 43
0.0
 44
0.0
 50
0.0
 51
0.0
 71
     0
 72
  2000
 73
     1
 74
     0
 75
     0
 76
     0
 77
     0
 78
     0
  0
ENDTAB
  0
TABLE
  2
LTYPE
 70
    16
  0
LTYPE
  2
CONTINUOUS
 70
     0
  3
Solid line
 72
    65
 73
     0
 40
0.0
  0
LTYPE
  2
CENTER2
 70
     0
  3
___ _ ___ _ ___ _ ___ _ ___ _ ___ _ ___ _ ___ _
 72
    65
 73
     4
 40
1.125
 49
0.75
 49
-0.125
 49
0.125
 49
-0.125
  0
LTYPE
  2
HIDDEN2
 70
     0
  3
_ _ _ _ _ _ _ _ _ _ _ _ _ _ _ _ _ _ _ _ _ _ _ _
 72
    65
 73
     2
 40
0.1875
 49
0.125
 49
-0.0625
  0
LTYPE
  2
PHANTOM2
 70
     0
  3
___ _ _ ___ _ _ ___ _ _ ___ _ _ ___ _ _ ___ _ _
 72
    65
 73
     6
 40
1.25
 49
0.625
 49
-0.125
 49
0.125
 49
-0.125
 49
0.125
 49
-0.125
  0
LTYPE
  2
AMCONSTR
 70
     0
  3
_______________________
 72
    65
 73
     2
 40
9999.0
 49
9999.0
 49
0.0
  0
LTYPE
  2
AM_ISO02W050
 70
     0
  3
__ __ __ __ __ __ __ __ __ __ __ __ __ __ __
 72
    65
 73
     2
 40
7.5
 49
6.0
 49
-1.5
  0
LTYPE
  2
ACJISTGB
 70
     0
  3
__ . . __ . .
 72
    65
 73
     6
 40
9.0
 49
4.0
 49
-1.0
 49
1.0
 49
-1.0
 49
1.0
 49
-1.0
  0
LTYPE
  2
ACJISTGL
 70
     0
  3
_ _ _ _ _
 72
    65
 73
     2
 40
3.0
 49
2.0
 49
-1.0
  0
LTYPE
  2
ACISOWELD
 70
     0
  3
_ _ _ _ _
 72
    65
 73
     2
 40
2.0
 49
2.0
 49
-1.0
  0
LTYPE
  2
ACISOTGB
 70
     0
  3
__ . . __ . .
 72
    65
 73
     6
 40
9.0
 49
4.0
 49
-1.0
 49
1.0
 49
-1.0
 49
1.0
 49
-1.0
  0
LTYPE
  2
ACISOTGL
 70
     0
  3
_ _ _ _ _
 72
    65
 73
     2
 40
3.0
 49
2.0
 49
-1.0
  0
ENDTAB
  0
TABLE
  2
LAYER
 70
     9
  0
LAYER
  2
0
 70
     0
 62
     7
  6
CONTINUOUS
  0
LAYER
  2
240
 70
     0
 62
     4
  6
CONTINUOUS
  0
LAYER
  2
241
 70
     0
 62
   211
  6
CONTINUOUS
  0
LAYER
  2
245
 70
     0
 62
     2
  6
CENTER2
  0
LAYER
  2
250
 70
     0
 62
     3
  6
CONTINUOUS
  0
LAYER
  2
DEFPOINTS
 70
     0
 62
     7
  6
CONTINUOUS
  0
LAYER
  2
AM_7
 70
     0
 62
     2
  6
CENTER2
  0
LAYER
  2
243
 70
     0
 62
   211
  6
HIDDEN2
  0
LAYER
  2
247
 70
     0
 62
    60
  6
CONTINUOUS
  0
ENDTAB
  0
TABLE
  2
STYLE
 70
     7
  0
STYLE
  2
STANDARD
 70
     0
 40
0.0
 41
1.0
 50
0.0
 71
     0
 42
3.0
  3
romans.shx
  4
BIGFONT.SHX
  0
STYLE
  2
YOKO
 70
     0
 40
0.0
 41
1.0
 50
0.0
 71
     0
 42
3.0
  3
romans.shx
  4
extfont.shx
  0
STYLE
  2
ACJISTS
 70
     0
 40
1.0
 41
1.0
 50
0.0
 71
     0
 42
3.0
  3
amgdt.shx
  4
extfont.shx
  0
STYLE
  2
ACJISGDT
 70
     0
 40
0.0
 41
1.0
 50
0.0
 71
     0
 42
3.0
  3
amgdt.shx
  4
extfont.shx
  0
STYLE
  2
ACISOTS
 70
     0
 40
1.0
 41
1.0
 50
0.0
 71
     0
 42
3.0
  3
amgdt.shx
  4
extfont.shx
  0
STYLE
  2
ACISOGDT
 70
     0
 40
0.0
 41
1.0
 50
0.0
 71
     0
 42
3.0
  3
amgdt.shx
  4
extfont.shx
  0
ENDTAB
  0
TABLE
  2
VIEW
 70
     1
  0
VIEW
  2
OLE1
 70
     0
 40
95.779970680000005
 10
30.431423550000002
 20
15.565548209999999
 41
137.14227650000001
 11
0.0
 21
0.0
 31
1.0
 12
0.0
 22
0.0
 32
0.0
 42
50.0
 43
0.0
 44
0.0
 50
0.0
 71
     0
  0
ENDTAB
  0
TABLE
  2
UCS
 70
     0
  0
ENDTAB
  0
TABLE
  2
APPID
 70
    42
  0
APPID
  2
ACAD
 70
     0
  0
APPID
  2
GLOBAL
 70
     0
  0
APPID
  2
DETAIL
 70
     0
  0
APPID
  2
GRPNAME
 70
     0
  0
APPID
  2
GPARA
 70
     0
  0
APPID
  2
DCO15
 70
     0
  0
APPID
  2
ITEMNAME
 70
     0
  0
APPID
  2
GRADE_0
 70
     0
  0
APPID
  2
GENIUS_GENODEF_13
 70
     0
  0
APPID
  2
GENIUS_GENOREF_13
 70
     0
  0
APPID
  2
GENIUS_GENOBJ-N-FIL_13
 70
     0
  0
APPID
  2
GENIUS_GENFIL_13
 70
     0
  0
APPID
  2
GENIUS_GENOBJ-N-CHA_13
 70
     0
  0
APPID
  2
ACAD_PSEXT
 70
     0
  0
APPID
  2
CONTENTBLOCKICON
 70
     0
  0
APPID
  2
HATCH_TYPE
 70
     0
  0
APPID
  2
HATCH_DISPLAY
 70
     0
  0
APPID
  2
HATCH_DISTANCE
 70
     0
  0
APPID
  2
MCAD_NO_VIS
 70
     0
  0
APPID
  2
ACAD_TEMP_GRAPHIC
 70
     0
  0
APPID
  2
ACATTRIBSERVICES
 70
     0
  0
APPID
  2
GENIUS_GENSCREG_15
 70
     0
  0
APPID
  2
GENIUS_GENOBJ-N-SDF_13
 70
     0
  0
APPID
  2
GENIUS_GENREC_14
 70
     0
  0
APPID
  2
GENIUS_GENOBJ-N-REC_13
 70
     0
  0
APPID
  2
GENIUS_GENDIMSH_14
 70
     0
  0
APPID
  2
GENIUS_GENOBJ-N-DIM_13
 70
     0
  0
APPID
  2
GENIUS_GENDIM_13
 70
     0
  0
APPID
  2
GENIUS_GENDTOL_13
 70
     0
  0
APPID
  2
GENIUS_GENOLIS_13
 70
     0
  0
APPID
  2
GENIUS_GENOENT_13
 70
     0
  0
APPID
  2
GENIUS_GENOBJ-F-FEM_13
 70
     0
  0
APPID
  2
GENIUS_GEFFEM_13
 70
     0
  0
APPID
  2
GENIUS_GEFFEMP_13
 70
     0
  0
APPID
  2
AD_DRAW
 70
     0
  0
APPID
  2
DESIGNERASSEMBLIES
 70
     0
  0
APPID
  2
ACADM_DIM_EDIT
 70
     0
  0
APPID
  2
AMDT_DM_ADJ
 70
     0
  0
APPID
  2
ACAD_NAV_VCDISPLAY
 70
     0
  0
APPID
  2
ACAECLAYERSTANDARD
 70
     0
  0
APPID
  2
ACAD_EXEMPT_FROM_CAD_STANDARDS
 70
     0
  0
APPID
  2
ACAD_MLEADERVER
 70
     0
  0
ENDTAB
  0
TABLE
  2
DIMSTYLE
 70
    29
  0
DIMSTYLE
  2
BIGT
 70
     0
  3

  4

  5
OPEN
  6

  7

 40
1.0
 41
2.2299999999999991
 42
0.5
 43
7.0
 44
1.0
 45
0.0
 46
0.0
 47
0.0
 48
0.01
140
2.7999999999999989
141
0.0
142
0.0
143
25.399999999999999
144
1.0
145
0.0
146
1.0
147
1.0
 71
     0
 72
     0
 73
     0
 74
     0
 75
     0
 76
     0
 77
     3
 78
     9
170
     0
171
     2
172
     1
173
     0
174
     1
175
     0
176
   256
177
   256
178
    40
  0
DIMSTYLE
  2
BIGT$0
 70
     0
  3

  4

  5
OPEN
  6

  7

 40
1.0
 41
2.2299999999999991
 42
0.5
 43
7.0
 44
1.0
 45
0.0
 46
0.0
 47
0.0
 48
0.01
140
2.7999999999999989
141
0.0
142
0.0
143
25.399999999999999
144
1.0
145
0.0
146
1.0
147
1.0
 71
     0
 72
     0
 73
     0
 74
     0
 75
     0
 76
     0
 77
     3
 78
     9
170
     0
171
     2
172
     1
173
     0
174
     1
175
     0
176
   256
177
   256
178
    40
  0
DIMSTYLE
  2
BIGT$2
 70
     0
  3

  4

  5
OPEN
  6

  7

 40
1.0
 41
2.2299999999999991
 42
0.5
 43
7.0
 44
1.0
 45
0.0
 46
0.0
 47
0.0
 48
0.01
140
2.7999999999999989
141
0.0
142
0.0
143
25.399999999999999
144
1.0
145
0.0
146
1.0
147
1.0
 71
     0
 72
     0
 73
     0
 74
     0
 75
     0
 76
     0
 77
     3
 78
     9
170
     0
171
     2
172
     1
173
     0
174
     0
175
     0
176
   256
177
   256
178
    40
  0
DIMSTYLE
  2
BIGT$3
 70
     0
  3

  4

  5
OPEN
  6

  7

 40
1.0
 41
2.2299999999999991
 42
0.5
 43
2.5
 44
1.0
 45
0.0
 46
0.0
 47
0.0
 48
0.01
140
2.7999999999999989
141
0.0
142
0.0
143
25.399999999999999
144
1.0
145
0.0
146
1.0
147
1.0
 71
     0
 72
     0
 73
     0
 74
     0
 75
     0
 76
     0
 77
     3
 78
     9
170
     0
171
     2
172
     1
173
     0
174
     0
175
     0
176
   256
177
   256
178
    40
  0
DIMSTYLE
  2
BIGT$4
 70
     0
  3

  4

  5
OPEN
  6

  7

 40
1.0
 41
2.2299999999999991
 42
0.5
 43
2.5
 44
1.0
 45
0.0
 46
0.0
 47
0.0
 48
0.01
140
2.7999999999999989
141
0.0
142
0.0
143
25.399999999999999
144
1.0
145
0.0
146
1.0
147
1.0
 71
     0
 72
     0
 73
     0
 74
     0
 75
     0
 76
     0
 77
     3
 78
     9
170
     0
171
     2
172
     1
173
     0
174
     0
175
     0
176
   256
177
   256
178
    40
  0
DIMSTYLE
  2
BIGT$6
 70
     0
  3

  4

  5
OPEN
  6

  7

 40
1.0
 41
2.2299999999999991
 42
0.5
 43
2.5
 44
1.0
 45
0.0
 46
0.0
 47
0.0
 48
0.01
140
2.7999999999999989
141
0.0
142
0.0
143
25.399999999999999
144
1.0
145
0.0
146
1.0
147
1.0
 71
     0
 72
     0
 73
     0
 74
     0
 75
     0
 76
     0
 77
     3
 78
     9
170
     0
171
     2
172
     1
173
     0
174
     0
175
     0
176
   256
177
   256
178
    40
  0
DIMSTYLE
  2
BIGT$7
 70
     0
  3

  4

  5
OPEN
  6

  7

 40
0.0
 41
2.2299999999999991
 42
0.5
 43
7.0
 44
1.0
 45
0.0
 46
0.0
 47
0.0
 48
0.01
140
2.7999999999999989
141
0.0
142
0.0
143
25.399999999999999
144
1.0
145
0.0
146
1.0
147
1.0
 71
     0
 72
     0
 73
     0
 74
     0
 75
     0
 76
     0
 77
     3
 78
     9
170
     0
171
     2
172
     0
173
     0
174
     0
175
     0
176
   256
177
   256
178
    40
  0
DIMSTYLE
  2
BIGT$SF
 70
     0
  3

  4

  5
OPEN
  6

  7

 40
1.0
 41
2.2299999999999991
 42
0.5
 43
7.0
 44
1.0
 45
0.0
 46
0.0
 47
0.0
 48
0.0
140
2.7999999999999989
141
0.0
142
0.0
143
25.399999999999999
144
1.0
145
0.0
146
1.0
147
1.0
 71
     0
 72
     0
 73
     0
 74
     0
 75
     0
 76
     0
 77
     3
 78
     9
170
     0
171
     2
172
     1
173
     0
174
     0
175
     0
176
   256
177
   256
178
    40
  0
DIMSTYLE
  2
BIGT$SH
 70
     0
  3

  4

  5
OPEN
  6

  7

 40
1.0
 41
2.2299999999999991
 42
0.5
 43
7.0
 44
1.0
 45
0.0
 46
0.0
 47
0.0
 48
0.0
140
2.7999999999999989
141
0.0
142
0.0
143
25.399999999999999
144
1.0
145
0.0
146
1.0
147
1.0
 71
     0
 72
     0
 73
     0
 74
     0
 75
     0
 76
     0
 77
     3
 78
     9
170
     0
171
     2
172
     1
173
     0
174
     0
175
     0
176
   256
177
   256
178
    40
  0
DIMSTYLE
  2
AM_ISO
 70
     0
  3

  4
"
  5

  6

  7

 40
1.0
 41
2.5
 42
1.0
 43
10.0
 44
1.0
 45
0.0
 46
0.0
 47
0.1
 48
0.1
140
3.5
141
0.0
142
0.0
143
0.0393701
144
1.0
145
0.0
146
0.71
147
1.5
 71
     0
 72
     0
 73
     0
 74
     0
 75
     0
 76
     0
 77
     1
 78
     8
170
     0
171
     2
172
     1
173
     0
174
     0
175
     0
176
   256
177
   256
178
     2
  0
DIMSTYLE
  2
AM_ISO$3
 70
     0
  3

  4
"
  5

  6

  7

 40
1.0
 41
2.5
 42
1.0
 43
10.0
 44
1.0
 45
0.0
 46
0.0
 47
0.1
 48
0.1
140
3.5
141
0.0
142
0.0
143
0.0393701
144
1.0
145
0.0
146
0.71
147
1.5
 71
     0
 72
     0
 73
     0
 74
     1
 75
     0
 76
     0
 77
     1
 78
     8
170
     0
171
     2
172
     0
173
     0
174
     0
175
     0
176
   256
177
   256
178
     2
  0
DIMSTYLE
  2
AM_ISO$4
 70
     0
  3

  4
"
  5

  6

  7

 40
1.0
 41
2.5
 42
1.0
 43
10.0
 44
1.0
 45
0.0
 46
0.0
 47
0.1
 48
0.1
140
3.5
141
0.0
142
0.0
143
0.0393701
144
1.0
145
0.0
146
0.71
147
1.5
 71
     0
 72
     0
 73
     0
 74
     1
 75
     0
 76
     0
 77
     1
 78
     8
170
     0
171
     2
172
     0
173
     0
174
     0
175
     0
176
   256
177
   256
178
     2
  0
DIMSTYLE
  2
AM_ISO$6
 70
     0
  3

  4
"
  5

  6

  7

 40
1.0
 41
2.5
 42
1.0
 43
10.0
 44
1.0
 45
0.0
 46
0.0
 47
0.1
 48
0.1
140
3.5
141
0.0
142
0.0
143
0.0393701
144
1.0
145
0.0
146
0.71
147
1.5
 71
     0
 72
     0
 73
     0
 74
     0
 75
     0
 76
     0
 77
     0
 78
     8
170
     0
171
     2
172
     1
173
     0
174
     0
175
     0
176
   256
177
   256
178
     2
  0
DIMSTYLE
  2
AM_ISO$7
 70
     0
  3

  4
"
  5

  6

  7

 40
1.0
 41
2.5
 42
1.0
 43
10.0
 44
1.0
 45
0.0
 46
0.0
 47
0.1
 48
0.1
140
5.0
141
0.0
142
0.0
143
0.0393701
144
1.0
145
0.0
146
0.71
147
1.5
 71
     0
 72
     0
 73
     0
 74
     0
 75
     0
 76
     0
 77
     1
 78
     8
170
     0
171
     2
172
     1
173
     0
174
     0
175
     0
176
   256
177
   256
178
     2
  0
DIMSTYLE
  2
AM_ISO$SF
 70
     0
  3

  4
"
  5

  6

  7

 40
1.0
 41
2.5
 42
1.0
 43
10.0
 44
1.0
 45
0.0
 46
0.0
 47
0.1
 48
0.1
140
3.5
141
0.0
142
0.0
143
0.0393701
144
1.0
145
0.0
146
0.71
147
1.5
 71
     0
 72
     0
 73
     0
 74
     0
 75
     1
 76
     1
 77
     1
 78
     8
170
     0
171
     2
172
     1
173
     0
174
     0
175
     0
176
   256
177
   256
178
     2
  0
DIMSTYLE
  2
AM_ISO$SH
 70
     0
  3

  4
"
  5

  6
GENAXEH
  7

 40
1.0
 41
2.5
 42
1.0
 43
10.0
 44
1.0
 45
0.0
 46
0.0
 47
0.1
 48
0.1
140
3.5
141
0.0
142
0.0
143
0.0393701
144
2.0
145
0.0
146
0.71
147
1.5
 71
     0
 72
     0
 73
     0
 74
     0
 75
     1
 76
     1
 77
     1
 78
     8
170
     0
171
     2
172
     1
173
     1
174
     0
175
     0
176
   256
177
   256
178
     2
  0
DIMSTYLE
  2
TECHNICAL_OSAKA
 70
     0
  3

  4
"
  5
OPEN30
  6

  7

 40
1.0
 41
2.5
 42
1.0
 43
10.0
 44
1.0
 45
0.0
 46
0.0
 47
0.1
 48
0.1
140
2.7999999999999989
141
0.0
142
0.0
143
0.0393701
144
1.0
145
0.0
146
0.71
147
1.5
 71
     0
 72
     0
 73
     0
 74
     0
 75
     0
 76
     0
 77
     3
 78
     8
170
     0
171
     2
172
     1
173
     0
174
     0
175
     0
176
   256
177
   256
178
    40
  0
DIMSTYLE
  2
TECHNICAL_OSAKA$3
 70
     0
  3

  4
"
  5
OPEN30
  6

  7

 40
1.0
 41
2.5
 42
1.0
 43
10.0
 44
1.0
 45
0.0
 46
0.0
 47
0.1
 48
0.1
140
2.7999999999999989
141
0.0
142
0.0
143
0.0393701
144
1.0
145
0.0
146
0.71
147
1.5
 71
     0
 72
     0
 73
     0
 74
     1
 75
     0
 76
     0
 77
     3
 78
     8
170
     0
171
     2
172
     0
173
     0
174
     0
175
     0
176
   256
177
   256
178
    40
  0
DIMSTYLE
  2
TECHNICAL_OSAKA$4
 70
     0
  3

  4
"
  5
OPEN30
  6

  7

 40
1.0
 41
2.5
 42
1.0
 43
10.0
 44
1.0
 45
0.0
 46
0.0
 47
0.1
 48
0.1
140
2.7999999999999989
141
0.0
142
0.0
143
0.0393701
144
1.0
145
0.0
146
0.71
147
1.5
 71
     0
 72
     0
 73
     0
 74
     1
 75
     0
 76
     0
 77
     3
 78
     8
170
     0
171
     2
172
     0
173
     0
174
     0
175
     0
176
   256
177
   256
178
    40
  0
DIMSTYLE
  2
TECHNICAL_OSAKA$6
 70
     0
  3

  4
"
  5
OPEN30
  6

  7

 40
1.0
 41
2.5
 42
1.0
 43
10.0
 44
1.0
 45
0.0
 46
0.0
 47
0.1
 48
0.1
140
2.7999999999999989
141
0.0
142
0.0
143
0.0393701
144
1.0
145
0.0
146
0.71
147
1.5
 71
     0
 72
     0
 73
     0
 74
     0
 75
     0
 76
     0
 77
     0
 78
     8
170
     0
171
     2
172
     1
173
     0
174
     0
175
     0
176
   256
177
   256
178
    40
  0
DIMSTYLE
  2
TECHNICAL_OSAKA$7
 70
     0
  3

  4
"
  5
OPEN30
  6

  7

 40
1.0
 41
2.5
 42
1.0
 43
10.0
 44
1.0
 45
0.0
 46
0.0
 47
0.1
 48
0.1
140
2.7999999999999989
141
0.0
142
0.0
143
0.0393701
144
1.0
145
0.0
146
0.71
147
1.5
 71
     0
 72
     0
 73
     0
 74
     0
 75
     0
 76
     0
 77
     3
 78
     8
170
     0
171
     2
172
     1
173
     0
174
     0
175
     0
176
   256
177
   256
178
    40
  0
DIMSTYLE
  2
TECHNICAL_OSAKA$SF
 70
     0
  3

  4
"
  5
OPEN30
  6
OPEN30
  7
OPEN30
 40
1.0
 41
2.5
 42
1.0
 43
10.0
 44
1.0
 45
0.0
 46
0.0
 47
0.1
 48
0.1
140
3.5
141
0.0
142
0.0
143
0.0393701
144
1.0
145
0.0
146
0.71
147
1.5
 71
     0
 72
     0
 73
     0
 74
     0
 75
     1
 76
     1
 77
     3
 78
     8
170
     0
171
     2
172
     1
173
     0
174
     0
175
     0
176
   256
177
   256
178
    40
  0
DIMSTYLE
  2
TECHNICAL_OSAKA$SH
 70
     0
  3

  4
"
  5
OPEN30
  6
GENAXEH
  7
OPEN30
 40
1.0
 41
2.5
 42
1.0
 43
10.0
 44
1.0
 45
0.0
 46
0.0
 47
0.1
 48
0.1
140
3.5
141
0.0
142
0.0
143
0.0393701
144
2.0
145
0.0
146
0.71
147
1.5
 71
     0
 72
     0
 73
     0
 74
     0
 75
     1
 76
     1
 77
     3
 78
     8
170
     0
171
     2
172
     1
173
     1
174
     0
175
     0
176
   256
177
   256
178
    40
  0
ENDTAB
  0
ENDSEC
  0
SECTION
  2
BLOCKS
  0
BLOCK
  8
0
  2
$MODEL_SPACE
 70
     0
 10
0.0
 20
0.0
 30
0.0
  3
$MODEL_SPACE
  1

  0
ENDBLK
  5
1C
  8
0
  0
BLOCK
 67
     1
  8
0
  2
$PAPER_SPACE
 70
     0
 10
0.0
 20
0.0
 30
0.0
  3
$PAPER_SPACE
  1

  0
ENDBLK
  5
19
 67
     1
  8
0
  0
BLOCK
  8
0
  2
_OPEN
 70
     0
 10
0.0
 20
0.0
 30
0.0
  3
_OPEN
  1

  0
LINE
  5
1CBC
  8
0
  6
BYBLOCK
 62
     0
 10
-1.0
 20
0.1666666666666666
 30
0.0
 11
0.0
 21
0.0
 31
0.0
  0
LINE
  5
1CBD
  8
0
  6
BYBLOCK
 62
     0
 10
-1.0
 20
-0.1666666666666666
 30
0.0
 11
0.0
 21
0.0
 31
0.0
  0
LINE
  5
1CBE
  8
0
  6
BYBLOCK
 62
     0
 10
0.0
 20
0.0
 30
0.0
 11
-1.0
 21
0.0
 31
0.0
  0
ENDBLK
  5
1CBF
  8
0
  0
BLOCK
  8
0
  2
矢印なし
 70
     0
 10
0.0
 20
0.0
 30
0.0
  3
矢印なし
  1

  0
ENDBLK
  5
6E5
  8
0
  0
BLOCK
  8
0
  2
GENAXEH
 70
     0
 10
0.0
 20
0.0
 30
0.0
  3
GENAXEH
  1

  0
LINE
  5
1CF7
  8
0
 10
-1.0
 20
0.0
 30
0.0
 11
1.0
 21
0.0
 31
0.0
  0
ENDBLK
  5
1CF8
  8
0
  0
BLOCK
  8
0
  2
_OPEN30
 70
     0
 10
0.0
 20
0.0
 30
0.0
  3
_OPEN30
  1

  0
LINE
  5
1D33
  8
0
  6
BYBLOCK
 62
     0
 10
-1.0
 20
0.26794919
 30
0.0
 11
0.0
 21
0.0
 31
0.0
  0
LINE
  5
1D34
  8
0
  6
BYBLOCK
 62
     0
 10
0.0
 20
0.0
 30
0.0
 11
-1.0
 21
-0.26794919
 31
0.0
  0
LINE
  5
1D35
  8
0
  6
BYBLOCK
 62
     0
 10
0.0
 20
0.0
 30
0.0
 11
-1.0
 21
0.0
 31
0.0
  0
ENDBLK
  5
1D36
  8
0
  0
BLOCK
  8
0
  2
*U7
 70
     1
 10
0.0
 20
0.0
 30
0.0
  3
*U7
  1

  0
TEXT
  5
1D83
  8
250
 10
85.408091846666665
 20
29.036551299999999
 30
0.0
 40
2.7999999999999989
  1
MGT6
  7
YOKO
  0
ENDBLK
  5
1D85
  8
0
  0
ENDSEC
  0
SECTION
  2
ENTITIES
  0
INSERT
  5
6E6
  8
245
  2
矢印なし
 10
175.62382697000001
 20
90.551235719999994
 30
0.0
  0
TEXT
  5
7CF
  8
241
  6
CONTINUOUS
 10
-20.0
 20
49.0
 30
0.0
 40
5.0
  1
HSK-A40-MGT6-80
  7
YOKO
 11
-20.0
 21
49.0
 31
0.0
 73
     1
  0
INSERT
  5
13D7
  8
240
  2
*U7
 10
0.0
 20
0.0
 30
0.0
  0
LINE
  5
13D9
  8
250
  6
CONTINUOUS
 10
83.141425179999999
 20
28.036551299999999
 30
0.0
 11
98.60809184
 21
28.036551299999999
 31
0.0
1001
ITEMNAME
1000
LNSP2
  0
LINE
  5
1912
  8
245
  6
CENTER2
 10
81.0
 20
0.0
 30
0.0
 11
-21.0
 21
0.0
 31
0.0
  0
LINE
  5
191D
  8
241
  6
CONTINUOUS
 10
35.692820320000003
 20
-18.0
 30
0.0
 11
35.692820320000003
 21
18.0
 31
0.0
  0
LINE
  5
191E
  8
241
  6
CONTINUOUS
 10
35.0
 20
-16.800000000000001
 30
0.0
 11
35.0
 21
16.800000000000001
 31
0.0
  0
LINE
  5
1925
  8
240
  6
CONTINUOUS
 10
20.0
 20
-16.800000000000001
 30
0.0
 11
34.884529950000001
 21
-16.800000000000001
 31
0.0
1001
GRPNAME
1000
PASTMD01
  0
LINE
  5
1932
  8
240
  6
CONTINUOUS
 10
35.057735030000003
 20
-16.899999999999999
 30
0.0
 11
35.692820330000004
 21
-18.0
 31
0.0
  0
ARC
  5
1933
  8
240
  6
CONTINUOUS
 10
34.884529950000001
 20
-17.0
 30
0.0
 40
0.2
 50
30.0
 51
90.0
1001
GRPNAME
1000
PASTMD01
1001
GENIUS_GENOREF_13
1005
0
  0
LINE
  5
195E
  8
240
  6
CONTINUOUS
 10
20.0
 20
16.800000000000001
 30
0.0
 11
34.884529950000001
 21
16.800000000000001
 31
0.0
1001
GRPNAME
1000
PASTMD01
  0
LINE
  5
1966
  8
240
  6
CONTINUOUS
 10
35.057735030000003
 20
16.899999999999999
 30
0.0
 11
35.692820330000004
 21
18.0
 31
0.0
  0
ARC
  5
1967
  8
240
  6
CONTINUOUS
 10
34.884529950000001
 20
17.0
 30
0.0
 40
0.2
 50
270.0
 51
330.0
1001
GRPNAME
1000
PASTMD01
1001
GENIUS_GENODEF_13
1002
{
1000
HIER
1070
     0
1002
}
1002
{
1000
MANEDIT
1070
     0
1002
}
1002
{
1000
NOSEL
1070
     0
1002
}
1002
{
1000
BEHIND
1070
     0
1002
}
1002
{
1000
OTHER
1070
     0
1002
}
1002
{
1000
REACTOR
1002
}
1001
GENIUS_GENOBJ-N-FIL_13
1002
{
1000
OWNER
1000
GEN
1002
}
  0
LINE
  5
1968
  8
241
  6
CONTINUOUS
 10
64.0
 20
18.0
 30
0.0
 11
64.0
 21
-18.0
 31
0.0
  0
LINE
  5
196A
  8
241
  6
CONTINUOUS
 10
72.0
 20
-17.912959300000001
 30
0.0
 11
72.0
 21
17.912959300000001
 31
0.0
  0
LINE
  5
196B
  8
241
  6
CONTINUOUS
 10
55.700000000000003
 20
-18.0
 30
0.0
 11
55.700000000000003
 21
18.0
 31
0.0
  0
LINE
  5
196C
  8
241
  6
CONTINUOUS
 10
57.299999999999997
 20
-18.0
 30
0.0
 11
57.299999999999997
 21
18.0
 31
0.0
  0
LINE
  5
196D
  8
241
  6
CONTINUOUS
 10
54.29999999999999
 20
-18.0
 30
0.0
 11
54.29999999999999
 21
18.0
 31
0.0
  0
LINE
  5
196E
  8
241
  6
CONTINUOUS
 10
52.700000000000003
 20
-18.0
 30
0.0
 11
52.700000000000003
 21
18.0
 31
0.0
  0
LINE
  5
196F
  8
240
  6
CONTINUOUS
 10
35.692820330000004
 20
-18.0
 30
0.0
 11
71.999999990111391
 21
-18.0
 31
0.0
  0
LINE
  5
1977
  8
240
  6
CONTINUOUS
 10
71.999999990111391
 20
-18.0
 30
0.0
 11
80.0
 21
-15.856406464558351
 31
0.0
  0
LINE
  5
197F
  8
240
  6
CONTINUOUS
 10
80.0
 20
15.856406464558351
 30
0.0
 11
80.0
 21
-15.856406464558351
 31
0.0
  0
LINE
  5
1981
  8
240
  6
CONTINUOUS
 10
35.692820330000004
 20
18.0
 30
0.0
 11
71.999999990111405
 21
18.0
 31
0.0
  0
LINE
  5
1989
  8
240
  6
CONTINUOUS
 10
71.999999990111405
 20
18.0
 30
0.0
 11
80.0
 21
15.856406464558351
 31
0.0
  0
LINE
  5
198D
  8
250
  6
CONTINUOUS
 10
0.0
 20
20.5
 30
0.0
 11
0.0
 21
36.0
 31
0.0
  0
LINE
  5
198E
  8
250
  6
CONTINUOUS
 10
80.0
 20
16.374044554655711
 30
0.0
 11
80.0
 21
36.0
 31
0.0
  0
LINE
  5
198F
  8
250
  6
CONTINUOUS
 10
2.2299999999999991
 20
35.0
 30
0.0
 11
77.769999999999996
 21
35.0
 31
0.0
  0
LINE
  5
1993
  8
250
  6
CONTINUOUS
 10
71.999999990111391
 20
-18.0
 30
0.0
 11
92.0
 21
-18.0
 31
0.0
  0
LINE
  5
1994
  8
250
  6
CONTINUOUS
 10
71.999999990111405
 20
18.0
 30
0.0
 11
92.0
 21
18.0
 31
0.0
  0
LINE
  5
1995
  8
250
  6
CONTINUOUS
 10
91.0
 20
-15.77
 30
0.0
 11
91.0
 21
15.77
 31
0.0
  0
TEXT
  5
1999
  8
250
  6
CONTINUOUS
 10
37.407344893333338
 20
36.0
 30
0.0
 40
2.7999999999999989
  1
80
1001
ACAD
1000
MTEXTBEGIN
1070
    73
1070
     1
1070
    44
1040
1.0
1070
    74
1070
     0
1000
MTEXTEND
1000
MTEXTBEGIN
1070
    73
1070
     1
1070
    44
1040
1.0
1070
    74
1070
     0
1000
MTEXTEND
1000
MTEXTBEGIN
1070
    73
1070
     1
1070
    44
1040
1.0
1070
    74
1070
     0
1000
MTEXTEND
1000
MTEXTBEGIN
1070
    73
1070
     1
1070
    44
1040
1.0
1070
    74
1070
     0
1000
MTEXTEND
1000
MTEXTBEGIN
1070
    73
1070
     1
1070
    44
1040
1.0
1070
    74
1070
     0
1000
MTEXTEND
  0
LINE
  5
199A
  8
250
  6
CONTINUOUS
 10
77.769999999999996
 20
35.37166666666667
 30
0.0
 11
80.0
 21
35.0
 31
0.0
  0
LINE
  5
199B
  8
250
  6
CONTINUOUS
 10
77.769999999999996
 20
34.62833333333333
 30
0.0
 11
80.0
 21
35.0
 31
0.0
  0
LINE
  5
199C
  8
250
  6
CONTINUOUS
 10
80.0
 20
35.0
 30
0.0
 11
77.769999999999996
 21
35.0
 31
0.0
  0
LINE
  5
199D
  8
250
  6
CONTINUOUS
 10
2.2299999999999991
 20
34.62833333333333
 30
0.0
 11
0.0
 21
35.0
 31
0.0
  0
LINE
  5
199E
  8
250
  6
CONTINUOUS
 10
2.2299999999999991
 20
35.37166666666667
 30
0.0
 11
0.0
 21
35.0
 31
0.0
  0
LINE
  5
199F
  8
250
  6
CONTINUOUS
 10
0.0
 20
35.0
 30
0.0
 11
2.2299999999999991
 21
35.0
 31
0.0
  0
POLYLINE
  5
19A1
  8
250
  6
CONTINUOUS
 66
     1
 10
0.0
 20
0.0
 30
0.0
1001
ACAD
1000
DSTYLE
1002
{
1070
     6
1000
OPEN
1070
    41
1040
2.0
1070
    42
1040
2.0
1070
    44
1040
2.0
1070
    79
1070
     2
1070
   140
1040
4.0
1070
   179
1070
     3
1070
   343
1005
594
1070
   371
1070
    -1
1070
   372
1070
    -1
1002
}
  0
VERTEX
  5
1DC2
  8
250
  6
CONTINUOUS
 10
77.630481590205832
 20
18.491317007450039
 30
0.0
  0
VERTEX
  5
1DC3
  8
250
  6
CONTINUOUS
 10
83.141425179999999
 20
28.036551299999999
 30
0.0
  0
SEQEND
  5
1DC4
  8
250
  6
CONTINUOUS
  0
LINE
  5
19A2
  8
250
  6
CONTINUOUS
 10
77.919156724780834
 20
18.32465034074907
 30
0.0
 11
76.630481590000002
 21
16.759266199999999
 31
0.0
  0
LINE
  5
19A3
  8
250
  6
CONTINUOUS
 10
77.341806455630817
 20
18.657983674151009
 30
0.0
 11
76.630481590000002
 21
16.759266199999999
 31
0.0
  0
LINE
  5
19A4
  8
250
  6
CONTINUOUS
 10
76.630481590000002
 20
16.759266199999999
 30
0.0
 11
77.630481590205832
 21
18.491317007450039
 31
0.0
  0
TEXT
  5
19A5
  8
250
  6
CONTINUOUS
 10
89.999999999999986
 20
-3.9333333333333331
 30
0.0
 40
2.7999999999999989
  1
\U+220536
 50
90.0
1001
ACAD
1000
MTEXTBEGIN
1070
    73
1070
     1
1070
    44
1040
1.0
1070
    74
1070
     0
1000
MTEXTEND
1000
MTEXTBEGIN
1070
    73
1070
     1
1070
    44
1040
1.0
1070
    74
1070
     0
1000
MTEXTEND
1000
MTEXTBEGIN
1070
    73
1070
     1
1070
    44
1040
1.0
1070
    74
1070
     0
1000
MTEXTEND
1000
MTEXTBEGIN
1070
    73
1070
     1
1070
    44
1040
1.0
1070
    74
1070
     0
1000
MTEXTEND
1000
MTEXTBEGIN
1070
    73
1070
     1
1070
    44
1040
1.0
1070
    74
1070
     0
1000
MTEXTEND
1000
MTEXTBEGIN
1070
    73
1070
     1
1070
    44
1040
1.0
1070
    74
1070
     0
1000
MTEXTEND
  0
LINE
  5
19A6
  8
250
  6
CONTINUOUS
 10
90.62833333333333
 20
15.77
 30
0.0
 11
91.0
 21
18.0
 31
0.0
  0
LINE
  5
19A7
  8
250
  6
CONTINUOUS
 10
91.37166666666667
 20
15.77
 30
0.0
 11
91.0
 21
18.0
 31
0.0
  0
LINE
  5
19A8
  8
250
  6
CONTINUOUS
 10
91.0
 20
18.0
 30
0.0
 11
91.0
 21
15.77
 31
0.0
  0
LINE
  5
19A9
  8
250
  6
CONTINUOUS
 10
91.37166666666667
 20
-15.77
 30
0.0
 11
91.0
 21
-18.0
 31
0.0
  0
LINE
  5
19AA
  8
250
  6
CONTINUOUS
 10
90.62833333333333
 20
-15.77
 30
0.0
 11
91.0
 21
-18.0
 31
0.0
  0
LINE
  5
19AB
  8
250
  6
CONTINUOUS
 10
91.0
 20
-18.0
 30
0.0
 11
91.0
 21
-15.77
 31
0.0
  0
LINE
  5
1A52
  8
241
  6
CONTINUOUS
 10
15.0
 20
12.0
 30
0.0
 11
8.0
 21
12.0
 31
0.0
  0
LINE
  5
1A53
  8
243
  6
HIDDEN2
 10
20.0
 20
-17.0
 30
0.0
 11
8.0
 21
-17.0
 31
0.0
  0
LINE
  5
1A54
  8
240
  6
CONTINUOUS
 10
0.0
 20
-20.0
 30
0.0
 11
13.979274059999961
 21
-20.0
 31
0.0
  0
LINE
  5
1A55
  8
243
  6
HIDDEN2
 10
20.0
 20
17.0
 30
0.0
 11
8.0
 21
17.0
 31
0.0
  0
LINE
  5
1A56
  8
240
  6
CONTINUOUS
 10
0.0
 20
20.0
 30
0.0
 11
13.979274059999961
 21
20.0
 31
0.0
  0
ARC
  5
1A57
  8
241
  6
CONTINUOUS
 10
12.47213594999999
 20
11.5
 30
0.0
 40
4.5
 50
90.0
 51
173.62062979000191
  0
LINE
  5
1A58
  8
240
  6
CONTINUOUS
 10
0.0
 20
-15.19999999999999
 30
0.0
 11
-20.0
 21
-14.19999999999999
 31
0.0
  0
LINE
  5
1A59
  8
240
  6
CONTINUOUS
 10
-20.0
 20
14.19999999999999
 30
0.0
 11
-20.0
 21
-14.19999999999999
 31
0.0
  0
LINE
  5
1A5A
  8
241
  6
CONTINUOUS
 10
0.0
 20
15.19999999999999
 30
0.0
 11
0.0000000000000284
 21
-15.20000000000004
 31
0.0
  0
LINE
  5
1A5B
  8
240
  6
CONTINUOUS
 10
0.0
 20
-15.19999999999999
 30
0.0
 11
0.0
 21
-20.0
 31
0.0
  0
LINE
  5
1A5C
  8
243
  6
HIDDEN2
 10
8.0
 20
-20.0
 30
0.0
 11
8.0
 21
-17.0
 31
0.0
  0
LINE
  5
1A5D
  8
240
  6
CONTINUOUS
 10
0.0
 20
15.19999999999999
 30
0.0
 11
-20.0
 21
14.19999999999999
 31
0.0
  0
LINE
  5
1A5E
  8
243
  6
HIDDEN2
 10
-11.99735026999997
 20
10.5
 30
0.0
 11
-20.0
 21
10.5
 31
0.0
  0
LINE
  5
1A5F
  8
243
  6
HIDDEN2
 10
-16.5
 20
14.375
 30
0.0
 11
-16.5
 21
10.5
 31
0.0
  0
ARC
  5
1A60
  8
243
  6
HIDDEN2
 10
-3.9329756600000079
 20
7.75
 30
0.0
 40
4.9999999992728812
 50
39.050122530001509
 51
89.999999989998059
  0
LINE
  5
1A61
  8
243
  6
HIDDEN2
 10
-8.3000000000000114
 20
12.75
 30
0.0
 11
-8.3000000000000114
 21
14.784999999999959
 31
0.0
1001
GRPNAME
1000
PASTMD1U
  0
LINE
  5
1A62
  8
245
  6
CENTER2
 10
-6.0
 20
11.97724321596047
 30
0.0
 11
-6.0
 21
15.420296994285881
 31
0.0
1001
GRPNAME
1000
PASTMD1U
  0
LINE
  5
1A63
  8
243
  6
HIDDEN2
 10
-3.6999999999999882
 20
12.75
 30
0.0
 11
-3.6999999999999882
 21
15.014999999999979
 31
0.0
1001
GRPNAME
1000
PASTMD1U
  0
LINE
  5
1A64
  8
243
  6
HIDDEN2
 10
-3.9329756600000079
 20
12.75
 30
0.0
 11
-10.69831216
 21
12.75
 31
0.0
  0
LINE
  5
1A65
  8
243
  6
HIDDEN2
 10
-11.99735026999997
 20
10.5
 30
0.0
 11
-10.69831216
 21
12.75
 31
0.0
  0
LINE
  5
1A66
  8
240
  6
CONTINUOUS
 10
0.0
 20
15.19999999999999
 30
0.0
 11
0.0
 21
20.0
 31
0.0
  0
LINE
  5
1A67
  8
243
  6
HIDDEN2
 10
8.0
 20
17.0
 30
0.0
 11
8.0
 21
20.0
 31
0.0
  0
LINE
  5
1A68
  8
241
  6
CONTINUOUS
 10
20.0
 20
-16.800000000000011
 30
0.0
 11
20.0
 21
16.800000000000011
 31
0.0
  0
LINE
  5
1A69
  8
241
  6
CONTINUOUS
 10
17.0
 20
-17.39999999999997
 30
0.0
 11
17.0
 21
17.39999999999997
 31
0.0
  0
LINE
  5
1A6A
  8
241
  6
CONTINUOUS
 10
15.0
 20
-17.39999999999997
 30
0.0
 11
15.0
 21
17.39999999999997
 31
0.0
  0
LINE
  5
1A6B
  8
241
  6
CONTINUOUS
 10
18.02072594000003
 20
12.0
 30
0.0
 11
18.02072594000003
 21
-20.0
 31
0.0
  0
LINE
  5
1A6C
  8
241
  6
CONTINUOUS
 10
13.979274059999961
 20
12.0
 30
0.0
 11
13.979274059999961
 21
-20.0
 31
0.0
  0
LINE
  5
1A6D
  8
240
  6
CONTINUOUS
 10
15.0
 20
-17.39999999999997
 30
0.0
 11
15.0
 21
-18.232050810000018
 31
0.0
  0
LINE
  5
1A6E
  8
240
  6
CONTINUOUS
 10
17.0
 20
-18.232050810000018
 30
0.0
 11
17.0
 21
-17.39999999999997
 31
0.0
  0
LINE
  5
1A6F
  8
240
  6
CONTINUOUS
 10
20.0
 20
-16.800000000000011
 30
0.0
 11
20.0
 21
-20.0
 31
0.0
  0
LINE
  5
1A70
  8
240
  6
CONTINUOUS
 10
15.0
 20
-18.232050810000018
 30
0.0
 11
13.979274059999961
 21
-20.0
 31
0.0
  0
LINE
  5
1A71
  8
240
  6
CONTINUOUS
 10
17.0
 20
-18.232050810000018
 30
0.0
 11
18.02072594000003
 21
-20.0
 31
0.0
  0
LINE
  5
1A72
  8
240
  6
CONTINUOUS
 10
18.02072594000003
 20
-20.0
 30
0.0
 11
20.0
 21
-20.0
 31
0.0
  0
LINE
  5
1A73
  8
240
  6
CONTINUOUS
 10
15.0
 20
-17.39999999999997
 30
0.0
 11
17.0
 21
-17.39999999999997
 31
0.0
  0
LINE
  5
1A74
  8
241
  6
CONTINUOUS
 10
18.02072594000003
 20
16.0
 30
0.0
 11
17.0
 21
13.0
 31
0.0
  0
LINE
  5
1A75
  8
241
  6
CONTINUOUS
 10
15.0
 20
13.0
 30
0.0
 11
13.979274059999961
 21
16.0
 31
0.0
  0
LINE
  5
1A76
  8
241
  6
CONTINUOUS
 10
20.0
 20
12.0
 30
0.0
 11
17.0
 21
12.0
 31
0.0
  0
LINE
  5
1A77
  8
240
  6
CONTINUOUS
 10
15.0
 20
17.39999999999997
 30
0.0
 11
17.0
 21
17.39999999999997
 31
0.0
  0
LINE
  5
1A78
  8
240
  6
CONTINUOUS
 10
15.0
 20
18.232050810000018
 30
0.0
 11
13.979274059999961
 21
20.0
 31
0.0
  0
LINE
  5
1A79
  8
241
  6
CONTINUOUS
 10
13.979274059999961
 20
20.0
 30
0.0
 11
13.979274059999961
 21
16.0
 31
0.0
  0
LINE
  5
1A7A
  8
241
  6
CONTINUOUS
 10
13.979274059999961
 20
16.0
 30
0.0
 11
12.47213594999999
 21
16.0
 31
0.0
  0
LINE
  5
1A7B
  8
240
  6
CONTINUOUS
 10
15.0
 20
17.39999999999997
 30
0.0
 11
15.0
 21
18.232050810000018
 31
0.0
  0
LINE
  5
1A7C
  8
240
  6
CONTINUOUS
 10
17.0
 20
18.232050810000018
 30
0.0
 11
18.02072594000003
 21
20.0
 31
0.0
  0
LINE
  5
1A7D
  8
240
  6
CONTINUOUS
 10
20.0
 20
16.800000000000011
 30
0.0
 11
20.0
 21
20.0
 31
0.0
  0
LINE
  5
1A7E
  8
241
  6
CONTINUOUS
 10
18.02072594000003
 20
20.0
 30
0.0
 11
18.02072594000003
 21
16.0
 31
0.0
  0
LINE
  5
1A7F
  8
240
  6
CONTINUOUS
 10
17.0
 20
18.232050810000018
 30
0.0
 11
17.0
 21
17.39999999999997
 31
0.0
  0
LINE
  5
1A80
  8
241
  6
CONTINUOUS
 10
20.0
 20
16.0
 30
0.0
 11
18.02072594000003
 21
16.0
 31
0.0
  0
LINE
  5
1A81
  8
240
  6
CONTINUOUS
 10
18.02072594000003
 20
20.0
 30
0.0
 11
20.0
 21
20.0
 31
0.0
  0
LINE
  5
1A82
  8
250
  6
CONTINUOUS
 10
-12.43687277352973
 20
-16.39540331785798
 30
0.0
 11
-10.999999998592781
 21
-14.6500000006398
 31
0.0
  0
LINE
  5
1A83
  8
250
  6
CONTINUOUS
 10
-11.793127223354301
 20
-16.76706998447435
 30
0.0
 11
-10.999999998592781
 21
-14.6500000006398
 31
0.0
  0
LINE
  5
1A84
  8
250
  6
CONTINUOUS
 10
-10.999999998592781
 20
-14.6500000006398
 30
0.0
 11
-12.114999998442039
 21
-16.58123665116619
 31
0.0
  0
POLYLINE
  5
1A85
  8
250
  6
CONTINUOUS
 66
     1
 10
0.0
 20
0.0
 30
0.0
1001
ACAD
1000
DSTYLE
1002
{
1070
     6
1000
OPEN
1070
   343
1005
0
1002
}
  0
VERTEX
  5
1A86
  8
250
  6
CONTINUOUS
 10
-12.114999998442039
 20
-16.58123665116619
 30
0.0
  0
VERTEX
  5
1A87
  8
250
  6
CONTINUOUS
 10
-15.677078328592749
 20
-22.750937300639858
 30
0.0
  0
SEQEND
  5
1A88
  8
250
  6
CONTINUOUS
  0
LINE
  5
1A89
  8
250
  6
CONTINUOUS
 10
-15.677078328592749
 20
-22.750937300639858
 30
0.0
 11
-39.943744998592763
 21
-22.750937300639858
 31
0.0
1001
ITEMNAME
1000
LNSP2
  0
TEXT
  5
1A8A
  8
250
  6
CONTINUOUS
 10
-37.677078331926111
 20
-21.750937300639858
 30
0.0
 40
2.799999999999998
  1
HSK-A40
  7
YOKO
1001
ITEMNAME
1000
LNSP3
  0
LINE
  5
1A8B
  8
247
  6
CONTINUOUS
 10
6.4999999999999432
 20
-10.75
 30
0.0
 11
6.5
 21
-6.1153846156699929
 31
0.0
  0
LINE
  5
1A8C
  8
247
  6
CONTINUOUS
 10
4.0
 20
-9.9548934999879748
 30
0.0
 11
6.0999999999160082
 21
-10.557058810057351
 31
0.0
  0
LINE
  5
1A8D
  8
247
  6
CONTINUOUS
 10
4.996153846113998
 20
-9.3251514035190421
 30
0.0
 11
4.996153846113998
 21
-10.240536018867029
 31
0.0
  0
ARC
  5
1A8E
  8
247
  6
CONTINUOUS
 10
4.384719067294097
 20
-9.0872634019468101
 30
0.0
 40
0.3876715809326743
 50
72.997889675292214
 51
172.92416621851359
  0
ARC
  5
1A8F
  8
247
  6
CONTINUOUS
 10
4.305223131028014
 20
-9.3824775568041314
 30
0.0
 40
0.6933047965358768
 50
4.7429368521989632
 51
73.849226273266751
1001
GENIUS_GENOBJ-N-FIL_13
1002
{
1000
OWNER
1000
GEN
1002
}
1001
GENIUS_GENODEF_13
1002
{
1000
HIER
1070
     0
1002
}
1002
{
1000
MANEDIT
1070
     0
1002
}
1002
{
1000
NOSEL
1070
     0
1002
}
1002
{
1000
BEHIND
1070
     0
1002
}
1002
{
1000
OTHER
1070
     0
1002
}
1002
{
1000
REACTOR
1002
}
  0
LINE
  5
1A90
  8
247
  6
CONTINUOUS
 10
6.0999999999160082
 20
-9.6416741947093634
 30
0.0
 11
6.0999999999160082
 21
-10.557058810057351
 31
0.0
  0
LINE
  5
1A91
  8
247
  6
CONTINUOUS
 10
4.0
 20
-9.9548934999879748
 30
0.0
 11
4.0
 21
-9.0395088846399272
 31
0.0
  0
ARC
  5
1A92
  8
247
  6
CONTINUOUS
 10
5.3874169627678707
 20
-9.3783064762668555
 30
0.0
 40
0.394857301075386
 50
65.990941652528889
 51
172.26344345906909
  0
ARC
  5
1A93
  8
247
  6
CONTINUOUS
 10
5.3912003273325668
 20
-9.7124466104269231
 30
0.0
 40
0.7123241612361686
 50
5.7019851642564632
 51
77.277338436822006
1001
GENIUS_GENOBJ-N-FIL_13
1002
{
1000
OWNER
1000
GEN
1002
}
1001
GENIUS_GENODEF_13
1002
{
1000
HIER
1070
     0
1002
}
1002
{
1000
MANEDIT
1070
     0
1002
}
1002
{
1000
NOSEL
1070
     0
1002
}
1002
{
1000
BEHIND
1070
     0
1002
}
1002
{
1000
OTHER
1070
     0
1002
}
1002
{
1000
REACTOR
1002
}
  0
LINE
  5
1A94
  8
247
  6
CONTINUOUS
 10
6.0999999999160082
 20
-8.6839818870633945
 30
0.0
 11
4.0
 21
-8.0818165769939583
 31
0.0
  0
LINE
  5
1A95
  8
247
  6
CONTINUOUS
 10
4.0
 20
-6.585662730907984
 30
0.0
 11
4.0
 21
-6.981678364303546
 31
0.0
  0
LINE
  5
1A96
  8
247
  6
CONTINUOUS
 10
6.0999999999160082
 20
-7.6087396539439851
 30
0.0
 11
6.0999999999160082
 21
-7.177970423191935
 31
0.0
  0
ARC
  5
1A97
  8
247
  6
CONTINUOUS
 10
5.4582995950833579
 20
-6.3818165770699684
 30
0.0
 40
1.576855057639547
 50
202.35948814152911
 51
254.99324854284649
  0
ARC
  5
1A98
  8
247
  6
CONTINUOUS
 10
4.5658188585381341
 20
-6.8475113661332321
 30
0.0
 40
0.6234706797009447
 50
94.994589319075317
 51
155.1663289573039
1001
GENIUS_GENOBJ-N-FIL_13
1002
{
1000
OWNER
1000
GEN
1002
}
1001
GENIUS_GENODEF_13
1002
{
1000
HIER
1070
     0
1002
}
1002
{
1000
MANEDIT
1070
     0
1002
}
1002
{
1000
NOSEL
1070
     0
1002
}
1002
{
1000
BEHIND
1070
     0
1002
}
1002
{
1000
OTHER
1070
     0
1002
}
1002
{
1000
REACTOR
1002
}
  0
ARC
  5
1A99
  8
247
  6
CONTINUOUS
 10
5.1621021219694381
 20
-7.4441839510327554
 30
0.0
 40
0.9749472149106983
 50
15.8460965557808
 51
82.325137004169278
  0
ARC
  5
1A9A
  8
247
  6
CONTINUOUS
 10
5.371470401971064
 20
-7.0352116387722381
 30
0.0
 40
0.9271945638692009
 50
249.7136016704969
 51
321.78874565641053
1001
GENIUS_GENOBJ-N-FIL_13
1002
{
1000
OWNER
1000
GEN
1002
}
1001
GENIUS_GENODEF_13
1002
{
1000
HIER
1070
     0
1002
}
1002
{
1000
MANEDIT
1070
     0
1002
}
1002
{
1000
NOSEL
1070
     0
1002
}
1002
{
1000
BEHIND
1070
     0
1002
}
1002
{
1000
OTHER
1070
     0
1002
}
1002
{
1000
REACTOR
1002
}
  0
LINE
  5
1A9B
  8
247
  6
CONTINUOUS
 10
5.2923076922559744
 20
-6.9625858078159668
 30
0.0
 11
5.2923076922559744
 21
-6.4779704232199711
 31
0.0
  0
ARC
  5
1A9C
  8
247
  6
CONTINUOUS
 10
5.25
 20
-10.75
 30
0.0
 40
1.25
 50
180.0
 51
0.0
  0
LINE
  5
1A9D
  8
247
  6
CONTINUOUS
 10
4.0
 20
-10.75
 30
0.0
 11
4.0
 21
-10.30384615391398
 31
0.0
  0
ARC
  5
1A9E
  8
247
  6
CONTINUOUS
 10
5.25
 20
-6.1153846156699929
 30
0.0
 40
1.25
 50
0.0
 51
180.0
  0
LINE
  5
1A9F
  8
243
  6
HIDDEN2
 10
-11.99735026999997
 20
-10.5
 30
0.0
 11
-20.0
 21
-10.5
 31
0.0
  0
LINE
  5
1AA0
  8
243
  6
HIDDEN2
 10
-14.0
 20
-14.5
 30
0.0
 11
-14.0
 21
-10.5
 31
0.0
  0
ARC
  5
1AA1
  8
243
  6
HIDDEN2
 10
-3.9329756600000079
 20
-7.75
 30
0.0
 40
4.9999999992728812
 50
270.00000000999847
 51
320.94987746999851
  0
LINE
  5
1AA2
  8
243
  6
HIDDEN2
 10
-8.3000000000000114
 20
-12.75
 30
0.0
 11
-8.3000000000000114
 21
-14.784999999999959
 31
0.0
1001
GRPNAME
1000
PASTMD1U
  0
LINE
  5
1AA3
  8
245
  6
CENTER2
 10
-6.0
 20
-11.97724321596047
 30
0.0
 11
-6.0
 21
-15.420296994285881
 31
0.0
1001
GRPNAME
1000
PASTMD1U
  0
LINE
  5
1AA4
  8
243
  6
HIDDEN2
 10
-3.6999999999999882
 20
-12.75
 30
0.0
 11
-3.6999999999999882
 21
-15.014999999999979
 31
0.0
1001
GRPNAME
1000
PASTMD1U
  0
LINE
  5
1AA5
  8
243
  6
HIDDEN2
 10
-3.9329756600000079
 20
-12.75
 30
0.0
 11
-10.69831216
 21
-12.75
 31
0.0
  0
LINE
  5
1AA6
  8
243
  6
HIDDEN2
 10
-11.99735026999997
 20
-10.5
 30
0.0
 11
-10.69831216
 21
-12.75
 31
0.0
  0
LINE
  5
1ABF
  8
AM_7
 10
46.0
 20
6.0
 30
0.0
 11
46.000000000000007
 21
20.0
 31
0.0
  0
LINE
  5
1AC0
  8
243
  6
HIDDEN2
 10
31.499999999992738
 20
8.0
 30
0.0
 11
73.499999999999218
 21
8.0
 31
0.0
  0
LINE
  5
1AC2
  8
243
  6
HIDDEN2
 10
80.0
 20
11.100000000000041
 30
0.0
 11
73.49999999999919
 21
11.099999999999911
 31
0.0
  0
LINE
  5
1B99
  8
243
  6
HIDDEN2
 10
31.499999999992738
 20
-8.0
 30
0.0
 11
73.499999999999218
 21
-8.0
 31
0.0
  0
LINE
  5
1B9A
  8
243
  6
HIDDEN2
 10
73.499999999999403
 20
11.0999999999999
 30
0.0
 11
73.49999999999919
 21
-11.099999999999911
 31
0.0
  0
LINE
  5
1B9B
  8
243
  6
HIDDEN2
 10
80.0
 20
-11.100000000000041
 30
0.0
 11
73.49999999999919
 21
-11.099999999999911
 31
0.0
  0
VIEWPORT
  5
22
 67
     1
  8
0
 10
261.51769911999997
 20
148.5
 30
0.0
 40
523.03539823000006
 41
297.0
 68
     1
 69
     1
1001
ACAD
1000
MVIEW
1002
{
1070
    16
1010
0.0
1020
0.0
1030
0.0
1010
0.0
1020
0.0
1030
1.0
1040
0.0
1040
297.0
1040
261.51769911999997
1040
148.5
1040
50.0
1040
0.0
1040
0.0
1070
     0
1070
   100
1070
     1
1070
     1
1070
     0
1070
     0
1070
     0
1070
     0
1040
0.0
1040
0.0
1040
0.0
1040
1.0
1040
1.0
1040
10.0
1040
10.0
1070
     0
1002
{
1002
}
1002
}
1001
GENIUS_GENOBJ-N-SDF_13
1002
{
1000
OWNER
1000
GEN
1002
}
1001
GENIUS_GENODEF_13
1002
{
1000
HIER
1070
     0
1002
}
1002
{
1000
MANEDIT
1070
     0
1002
}
1002
{
1000
NOSEL
1070
     0
1002
}
1002
{
1000
BEHIND
1070
     0
1002
}
1002
{
1000
OTHER
1070
     0
1002
}
1002
{
1000
REACTOR
1002
}
1001
GENIUS_GENSCREG_15
1000
PF
1040
1.0
1000
DF
1040
1.0
1000
MIN
1011
0.0000000049999471
1021
0.0
1031
0.0
1021
0.0
1031
0.0
1000
MAX
1011
523.035398235
1021
0.0
1031
0.0
1021
297.0
1031
0.0
1000
FLAGS
1070
     4
  0
ENDSEC
  0
EOF
