  0
SECTION
  2
HEADER
  9
$ACADVER
  1
AC1009
  9
$INSBASE
 10
0.0
 20
0.0
 30
0.0
  9
$EXTMIN
 10
-39.943744998592763
 20
-22.750937300639858
 30
0.0
  9
$EXTMAX
 10
105.26705882
 20
54.0
 30
0.0
  9
$LIMMIN
 10
0.0
 20
0.0
  9
$LIMMAX
 10
420.0
 20
297.0
  9
$ORTHOMODE
 70
     1
  9
$REGENMODE
 70
     1
  9
$FILLMODE
 70
     1
  9
$QTEXTMODE
 70
     0
  9
$MIRRTEXT
 70
     1
  9
$DRAGMODE
 70
     2
  9
$LTSCALE
 40
10.0
  9
$OSMODE
 70
    47
  9
$ATTMODE
 70
     1
  9
$TEXTSIZE
 40
3.0
  9
$TRACEWID
 40
1.0
  9
$TEXTSTYLE
  7
YOKO
  9
$CLAYER
  8
240
  9
$CELTYPE
  6
BYLAYER
  9
$CECOLOR
 62
   256
  9
$DIMSCALE
 40
1.0
  9
$DIMASZ
 40
2.0
  9
$DIMEXO
 40
2.0
  9
$DIMDLI
 40
2.5
  9
$DIMRND
 40
0.0
  9
$DIMDLE
 40
0.0
  9
$DIMEXE
 40
2.0
  9
$DIMTP
 40
0.0
  9
$DIMTM
 40
0.0
  9
$DIMTXT
 40
4.0
  9
$DIMCEN
 40
0.0
  9
$DIMTSZ
 40
0.0
  9
$DIMTOL
 70
     0
  9
$DIMLIM
 70
     0
  9
$DIMTIH
 70
     0
  9
$DIMTOH
 70
     0
  9
$DIMSE1
 70
     0
  9
$DIMSE2
 70
     0
  9
$DIMTAD
 70
     3
  9
$DIMZIN
 70
     8
  9
$DIMBLK
  1

  9
$DIMASO
 70
     1
  9
$DIMSHO
 70
     1
  9
$DIMPOST
  1

  9
$DIMAPOST
  1

  9
$DIMALT
 70
     0
  9
$DIMALTD
 70
     2
  9
$DIMALTF
 40
25.399999999999999
  9
$DIMLFAC
 40
1.0
  9
$DIMTOFL
 70
     1
  9
$DIMTVP
 40
0.0
  9
$DIMTIX
 70
     1
  9
$DIMSOXD
 70
     0
  9
$DIMSAH
 70
     1
  9
$DIMBLK1
  1
OPEN
  9
$DIMBLK2
  1
OPEN
  9
$DIMSTYLE
  2
BIGT
  9
$DIMCLRD
 70
   256
  9
$DIMCLRE
 70
   256
  9
$DIMCLRT
 70
    40
  9
$DIMTFAC
 40
1.0
  9
$DIMGAP
 40
1.0
  9
$LUNITS
 70
     2
  9
$LUPREC
 70
     3
  9
$SKETCHINC
 40
1.0
  9
$FILLETRAD
 40
0.0
  9
$AUNITS
 70
     0
  9
$AUPREC
 70
     3
  9
$MENU
  1
.
  9
$ELEVATION
 40
0.0
  9
$PELEVATION
 40
0.0
  9
$THICKNESS
 40
0.0
  9
$LIMCHECK
 70
     0
  9
$BLIPMODE
 70
     0
  9
$CHAMFERA
 40
10.0
  9
$CHAMFERB
 40
10.0
  9
$SKPOLY
 70
     0
  9
$TDCREATE
 40
2455037.6921363198
  9
$TDUPDATE
 40
2457673.6603265051
  9
$TDINDWG
 40
0.2531293171
  9
$TDUSRTIMER
 40
0.2531287616
  9
$USRTIMER
 70
     1
  9
$ANGBASE
 50
0.0
  9
$ANGDIR
 70
     0
  9
$PDMODE
 70
     1
  9
$PDSIZE
 40
-5.0
  9
$PLINEWID
 40
0.0
  9
$COORDS
 70
     1
  9
$SPLFRAME
 70
     0
  9
$SPLINETYPE
 70
     6
  9
$SPLINESEGS
 70
     8
  9
$ATTDIA
 70
     1
  9
$ATTREQ
 70
     1
  9
$HANDLING
 70
     1
  9
$HANDSEED
  5
1EA9
  9
$SURFTAB1
 70
     6
  9
$SURFTAB2
 70
     6
  9
$SURFTYPE
 70
     6
  9
$SURFU
 70
     6
  9
$SURFV
 70
     6
  9
$UCSNAME
  2

  9
$UCSORG
 10
0.0
 20
0.0
 30
0.0
  9
$UCSXDIR
 10
1.0
 20
0.0
 30
0.0
  9
$UCSYDIR
 10
0.0
 20
1.0
 30
0.0
  9
$PUCSNAME
  2

  9
$PUCSORG
 10
0.0
 20
0.0
 30
0.0
  9
$PUCSXDIR
 10
1.0
 20
0.0
 30
0.0
  9
$PUCSYDIR
 10
0.0
 20
1.0
 30
0.0
  9
$USERI1
 70
     1
  9
$USERI2
 70
     0
  9
$USERI3
 70
     0
  9
$USERI4
 70
     0
  9
$USERI5
 70
     0
  9
$USERR1
 40
0.0
  9
$USERR2
 40
0.0
  9
$USERR3
 40
0.0
  9
$USERR4
 40
0.0
  9
$USERR5
 40
0.0
  9
$WORLDVIEW
 70
     1
  9
$SHADEDGE
 70
     3
  9
$SHADEDIF
 70
    70
  9
$TILEMODE
 70
     1
  9
$MAXACTVP
 70
    16
  9
$PLIMCHECK
 70
     0
  9
$PEXTMIN
 10
1.0000000000000000E+020
 20
1.0000000000000000E+020
 30
1.0000000000000000E+020
  9
$PEXTMAX
 10
-1.0000000000000000E+020
 20
-1.0000000000000000E+020
 30
-1.0000000000000000E+020
  9
$PLIMMIN
 10
0.0
 20
0.0
  9
$PLIMMAX
 10
420.0
 20
297.0
  9
$UNITMODE
 70
     0
  9
$VISRETAIN
 70
     0
  9
$PLINEGEN
 70
     0
  9
$PSLTSCALE
 70
     1
  0
ENDSEC
  0
SECTION
  2
TABLES
  0
TABLE
  2
VPORT
 70
     1
  0
VPORT
  2
*ACTIVE
 70
     0
 10
0.0
 20
0.0
 11
1.0
 21
1.0
 12
32.672233309236631
 22
15.70329505763582
 13
0.0
 23
0.0
 14
7.0
 24
7.0
 15
7.0
 25
7.0
 16
0.0
 26
0.0
 36
1.0
 17
0.0
 27
0.0
 37
0.0
 40
97.121701059111842
 41
1.502092050209205
 42
50.0
 43
0.0
 44
0.0
 50
0.0
 51
0.0
 71
     0
 72
  2000
 73
     1
 74
     0
 75
     0
 76
     0
 77
     0
 78
     0
  0
ENDTAB
  0
TABLE
  2
LTYPE
 70
    16
  0
LTYPE
  2
CONTINUOUS
 70
     0
  3
Solid line
 72
    65
 73
     0
 40
0.0
  0
LTYPE
  2
CENTER2
 70
     0
  3
___ _ ___ _ ___ _ ___ _ ___ _ ___ _ ___ _ ___ _
 72
    65
 73
     4
 40
1.125
 49
0.75
 49
-0.125
 49
0.125
 49
-0.125
  0
LTYPE
  2
HIDDEN2
 70
     0
  3
_ _ _ _ _ _ _ _ _ _ _ _ _ _ _ _ _ _ _ _ _ _ _ _
 72
    65
 73
     2
 40
0.1875
 49
0.125
 49
-0.0625
  0
LTYPE
  2
PHANTOM2
 70
     0
  3
___ _ _ ___ _ _ ___ _ _ ___ _ _ ___ _ _ ___ _ _
 72
    65
 73
     6
 40
1.25
 49
0.625
 49
-0.125
 49
0.125
 49
-0.125
 49
0.125
 49
-0.125
  0
LTYPE
  2
AMCONSTR
 70
     0
  3
_______________________
 72
    65
 73
     2
 40
9999.0
 49
9999.0
 49
0.0
  0
LTYPE
  2
AM_ISO02W050
 70
     0
  3
__ __ __ __ __ __ __ __ __ __ __ __ __ __ __
 72
    65
 73
     2
 40
7.5
 49
6.0
 49
-1.5
  0
LTYPE
  2
ACJISTGB
 70
     0
  3
__ . . __ . .
 72
    65
 73
     6
 40
9.0
 49
4.0
 49
-1.0
 49
1.0
 49
-1.0
 49
1.0
 49
-1.0
  0
LTYPE
  2
ACJISTGL
 70
     0
  3
_ _ _ _ _
 72
    65
 73
     2
 40
3.0
 49
2.0
 49
-1.0
  0
LTYPE
  2
ACISOWELD
 70
     0
  3
_ _ _ _ _
 72
    65
 73
     2
 40
2.0
 49
2.0
 49
-1.0
  0
LTYPE
  2
ACISOTGB
 70
     0
  3
__ . . __ . .
 72
    65
 73
     6
 40
9.0
 49
4.0
 49
-1.0
 49
1.0
 49
-1.0
 49
1.0
 49
-1.0
  0
LTYPE
  2
ACISOTGL
 70
     0
  3
_ _ _ _ _
 72
    65
 73
     2
 40
3.0
 49
2.0
 49
-1.0
  0
ENDTAB
  0
TABLE
  2
LAYER
 70
     9
  0
LAYER
  2
0
 70
     0
 62
     7
  6
CONTINUOUS
  0
LAYER
  2
240
 70
     0
 62
     4
  6
CONTINUOUS
  0
LAYER
  2
241
 70
     0
 62
   211
  6
CONTINUOUS
  0
LAYER
  2
245
 70
     0
 62
     2
  6
CENTER2
  0
LAYER
  2
250
 70
     0
 62
     3
  6
CONTINUOUS
  0
LAYER
  2
DEFPOINTS
 70
     0
 62
     7
  6
CONTINUOUS
  0
LAYER
  2
243
 70
     0
 62
   211
  6
HIDDEN2
  0
LAYER
  2
247
 70
     0
 62
    60
  6
CONTINUOUS
  0
ENDTAB
  0
TABLE
  2
STYLE
 70
     7
  0
STYLE
  2
STANDARD
 70
     0
 40
0.0
 41
1.0
 50
0.0
 71
     0
 42
3.0
  3
romans.shx
  4
BIGFONT.SHX
  0
STYLE
  2
YOKO
 70
     0
 40
0.0
 41
1.0
 50
0.0
 71
     0
 42
3.0
  3
romans.shx
  4
extfont.shx
  0
STYLE
  2
ACJISTS
 70
     0
 40
1.0
 41
1.0
 50
0.0
 71
     0
 42
3.0
  3
amgdt.shx
  4
extfont.shx
  0
STYLE
  2
ACJISGDT
 70
     0
 40
0.0
 41
1.0
 50
0.0
 71
     0
 42
3.0
  3
amgdt.shx
  4
extfont.shx
  0
STYLE
  2
ACISOTS
 70
     0
 40
1.0
 41
1.0
 50
0.0
 71
     0
 42
3.0
  3
amgdt.shx
  4
extfont.shx
  0
STYLE
  2
ACISOGDT
 70
     0
 40
0.0
 41
1.0
 50
0.0
 71
     0
 42
3.0
  3
amgdt.shx
  4
extfont.shx
  0
ENDTAB
  0
TABLE
  2
VIEW
 70
     1
  0
VIEW
  2
OLE1
 70
     0
 40
100.43900665
 10
33.749248919999999
 20
15.565548209999999
 41
143.8133038
 11
0.0
 21
0.0
 31
1.0
 12
0.0
 22
0.0
 32
0.0
 42
50.0
 43
0.0
 44
0.0
 50
0.0
 71
     0
  0
ENDTAB
  0
TABLE
  2
UCS
 70
     0
  0
ENDTAB
  0
TABLE
  2
APPID
 70
    42
  0
APPID
  2
ACAD
 70
     0
  0
APPID
  2
GLOBAL
 70
     0
  0
APPID
  2
DETAIL
 70
     0
  0
APPID
  2
GRPNAME
 70
     0
  0
APPID
  2
GPARA
 70
     0
  0
APPID
  2
DCO15
 70
     0
  0
APPID
  2
ITEMNAME
 70
     0
  0
APPID
  2
GRADE_0
 70
     0
  0
APPID
  2
GENIUS_GENODEF_13
 70
     0
  0
APPID
  2
GENIUS_GENOREF_13
 70
     0
  0
APPID
  2
GENIUS_GENOBJ-N-FIL_13
 70
     0
  0
APPID
  2
GENIUS_GENFIL_13
 70
     0
  0
APPID
  2
GENIUS_GENOBJ-N-CHA_13
 70
     0
  0
APPID
  2
HATCH_TYPE
 70
     0
  0
APPID
  2
HATCH_DISPLAY
 70
     0
  0
APPID
  2
HATCH_DISTANCE
 70
     0
  0
APPID
  2
GENIUS_GENOBJ-N-CEN_13
 70
     0
  0
APPID
  2
ACAD_PSEXT
 70
     0
  0
APPID
  2
CONTENTBLOCKICON
 70
     0
  0
APPID
  2
MCAD_NO_VIS
 70
     0
  0
APPID
  2
ACAD_TEMP_GRAPHIC
 70
     0
  0
APPID
  2
ACATTRIBSERVICES
 70
     0
  0
APPID
  2
GENIUS_GENSCREG_15
 70
     0
  0
APPID
  2
GENIUS_GENOBJ-N-SDF_13
 70
     0
  0
APPID
  2
GENIUS_GENREC_14
 70
     0
  0
APPID
  2
GENIUS_GENOBJ-N-REC_13
 70
     0
  0
APPID
  2
GENIUS_GENDIMSH_14
 70
     0
  0
APPID
  2
GENIUS_GENOBJ-N-DIM_13
 70
     0
  0
APPID
  2
GENIUS_GENDIM_13
 70
     0
  0
APPID
  2
GENIUS_GENDTOL_13
 70
     0
  0
APPID
  2
GENIUS_GENOLIS_13
 70
     0
  0
APPID
  2
GENIUS_GENOENT_13
 70
     0
  0
APPID
  2
GENIUS_GENOBJ-F-FEM_13
 70
     0
  0
APPID
  2
GENIUS_GEFFEM_13
 70
     0
  0
APPID
  2
GENIUS_GEFFEMP_13
 70
     0
  0
APPID
  2
AD_DRAW
 70
     0
  0
APPID
  2
DESIGNERASSEMBLIES
 70
     0
  0
APPID
  2
ACADM_DIM_EDIT
 70
     0
  0
APPID
  2
AMDT_DM_ADJ
 70
     0
  0
APPID
  2
ACAD_NAV_VCDISPLAY
 70
     0
  0
APPID
  2
ACAECLAYERSTANDARD
 70
     0
  0
APPID
  2
ACAD_MLEADERVER
 70
     0
  0
ENDTAB
  0
TABLE
  2
DIMSTYLE
 70
    29
  0
DIMSTYLE
  2
BIGT
 70
     0
  3

  4

  5
OPEN
  6

  7

 40
1.0
 41
2.2299999999999991
 42
0.5
 43
7.0
 44
1.0
 45
0.0
 46
0.0
 47
0.0
 48
0.01
140
2.7999999999999989
141
0.0
142
0.0
143
25.399999999999999
144
1.0
145
0.0
146
1.0
147
1.0
 71
     0
 72
     0
 73
     0
 74
     0
 75
     0
 76
     0
 77
     3
 78
     9
170
     0
171
     2
172
     1
173
     0
174
     1
175
     0
176
   256
177
   256
178
    40
  0
DIMSTYLE
  2
BIGT$0
 70
     0
  3

  4

  5
OPEN
  6

  7

 40
1.0
 41
2.2299999999999991
 42
0.5
 43
7.0
 44
1.0
 45
0.0
 46
0.0
 47
0.0
 48
0.01
140
2.7999999999999989
141
0.0
142
0.0
143
25.399999999999999
144
1.0
145
0.0
146
1.0
147
1.0
 71
     0
 72
     0
 73
     0
 74
     0
 75
     0
 76
     0
 77
     3
 78
     9
170
     0
171
     2
172
     1
173
     0
174
     1
175
     0
176
   256
177
   256
178
    40
  0
DIMSTYLE
  2
BIGT$2
 70
     0
  3

  4

  5
OPEN
  6

  7

 40
1.0
 41
2.2299999999999991
 42
0.5
 43
7.0
 44
1.0
 45
0.0
 46
0.0
 47
0.0
 48
0.01
140
2.7999999999999989
141
0.0
142
0.0
143
25.399999999999999
144
1.0
145
0.0
146
1.0
147
1.0
 71
     0
 72
     0
 73
     0
 74
     0
 75
     0
 76
     0
 77
     3
 78
     9
170
     0
171
     2
172
     1
173
     0
174
     0
175
     0
176
   256
177
   256
178
    40
  0
DIMSTYLE
  2
BIGT$3
 70
     0
  3

  4

  5
OPEN
  6

  7

 40
1.0
 41
2.2299999999999991
 42
0.5
 43
2.5
 44
1.0
 45
0.0
 46
0.0
 47
0.0
 48
0.01
140
2.7999999999999989
141
0.0
142
0.0
143
25.399999999999999
144
1.0
145
0.0
146
1.0
147
1.0
 71
     0
 72
     0
 73
     0
 74
     0
 75
     0
 76
     0
 77
     3
 78
     9
170
     0
171
     2
172
     1
173
     0
174
     0
175
     0
176
   256
177
   256
178
    40
  0
DIMSTYLE
  2
BIGT$4
 70
     0
  3

  4

  5
OPEN
  6

  7

 40
1.0
 41
2.2299999999999991
 42
0.5
 43
2.5
 44
1.0
 45
0.0
 46
0.0
 47
0.0
 48
0.01
140
2.7999999999999989
141
0.0
142
0.0
143
25.399999999999999
144
1.0
145
0.0
146
1.0
147
1.0
 71
     0
 72
     0
 73
     0
 74
     0
 75
     0
 76
     0
 77
     3
 78
     9
170
     0
171
     2
172
     1
173
     0
174
     0
175
     0
176
   256
177
   256
178
    40
  0
DIMSTYLE
  2
BIGT$6
 70
     0
  3

  4

  5
OPEN
  6

  7

 40
1.0
 41
2.2299999999999991
 42
0.5
 43
2.5
 44
1.0
 45
0.0
 46
0.0
 47
0.0
 48
0.01
140
2.7999999999999989
141
0.0
142
0.0
143
25.399999999999999
144
1.0
145
0.0
146
1.0
147
1.0
 71
     0
 72
     0
 73
     0
 74
     0
 75
     0
 76
     0
 77
     3
 78
     9
170
     0
171
     2
172
     1
173
     0
174
     0
175
     0
176
   256
177
   256
178
    40
  0
DIMSTYLE
  2
BIGT$7
 70
     0
  3

  4

  5
OPEN
  6

  7

 40
0.0
 41
2.2299999999999991
 42
0.5
 43
7.0
 44
1.0
 45
0.0
 46
0.0
 47
0.0
 48
0.01
140
2.7999999999999989
141
0.0
142
0.0
143
25.399999999999999
144
1.0
145
0.0
146
1.0
147
1.0
 71
     0
 72
     0
 73
     0
 74
     0
 75
     0
 76
     0
 77
     3
 78
     9
170
     0
171
     2
172
     0
173
     0
174
     0
175
     0
176
   256
177
   256
178
    40
  0
DIMSTYLE
  2
BIGT$SF
 70
     0
  3

  4

  5
OPEN
  6

  7

 40
1.0
 41
2.2299999999999991
 42
0.5
 43
7.0
 44
1.0
 45
0.0
 46
0.0
 47
0.0
 48
0.0
140
2.7999999999999989
141
0.0
142
0.0
143
25.399999999999999
144
1.0
145
0.0
146
1.0
147
1.0
 71
     0
 72
     0
 73
     0
 74
     0
 75
     0
 76
     0
 77
     3
 78
     9
170
     0
171
     2
172
     1
173
     0
174
     0
175
     0
176
   256
177
   256
178
    40
  0
DIMSTYLE
  2
BIGT$SH
 70
     0
  3

  4

  5
OPEN
  6

  7

 40
1.0
 41
2.2299999999999991
 42
0.5
 43
7.0
 44
1.0
 45
0.0
 46
0.0
 47
0.0
 48
0.0
140
2.7999999999999989
141
0.0
142
0.0
143
25.399999999999999
144
1.0
145
0.0
146
1.0
147
1.0
 71
     0
 72
     0
 73
     0
 74
     0
 75
     0
 76
     0
 77
     3
 78
     9
170
     0
171
     2
172
     1
173
     0
174
     0
175
     0
176
   256
177
   256
178
    40
  0
DIMSTYLE
  2
AM_ISO
 70
     0
  3

  4
"
  5

  6

  7

 40
1.0
 41
2.5
 42
1.0
 43
10.0
 44
1.0
 45
0.0
 46
0.0
 47
0.1
 48
0.1
140
3.5
141
0.0
142
0.0
143
0.0393701
144
1.0
145
0.0
146
0.71
147
1.5
 71
     0
 72
     0
 73
     0
 74
     0
 75
     0
 76
     0
 77
     1
 78
     8
170
     0
171
     2
172
     1
173
     0
174
     0
175
     0
176
   256
177
   256
178
     2
  0
DIMSTYLE
  2
AM_ISO$3
 70
     0
  3

  4
"
  5

  6

  7

 40
1.0
 41
2.5
 42
1.0
 43
10.0
 44
1.0
 45
0.0
 46
0.0
 47
0.1
 48
0.1
140
3.5
141
0.0
142
0.0
143
0.0393701
144
1.0
145
0.0
146
0.71
147
1.5
 71
     0
 72
     0
 73
     0
 74
     1
 75
     0
 76
     0
 77
     1
 78
     8
170
     0
171
     2
172
     0
173
     0
174
     0
175
     0
176
   256
177
   256
178
     2
  0
DIMSTYLE
  2
AM_ISO$4
 70
     0
  3

  4
"
  5

  6

  7

 40
1.0
 41
2.5
 42
1.0
 43
10.0
 44
1.0
 45
0.0
 46
0.0
 47
0.1
 48
0.1
140
3.5
141
0.0
142
0.0
143
0.0393701
144
1.0
145
0.0
146
0.71
147
1.5
 71
     0
 72
     0
 73
     0
 74
     1
 75
     0
 76
     0
 77
     1
 78
     8
170
     0
171
     2
172
     0
173
     0
174
     0
175
     0
176
   256
177
   256
178
     2
  0
DIMSTYLE
  2
AM_ISO$6
 70
     0
  3

  4
"
  5

  6

  7

 40
1.0
 41
2.5
 42
1.0
 43
10.0
 44
1.0
 45
0.0
 46
0.0
 47
0.1
 48
0.1
140
3.5
141
0.0
142
0.0
143
0.0393701
144
1.0
145
0.0
146
0.71
147
1.5
 71
     0
 72
     0
 73
     0
 74
     0
 75
     0
 76
     0
 77
     0
 78
     8
170
     0
171
     2
172
     1
173
     0
174
     0
175
     0
176
   256
177
   256
178
     2
  0
DIMSTYLE
  2
AM_ISO$7
 70
     0
  3

  4
"
  5

  6

  7

 40
1.0
 41
2.5
 42
1.0
 43
10.0
 44
1.0
 45
0.0
 46
0.0
 47
0.1
 48
0.1
140
5.0
141
0.0
142
0.0
143
0.0393701
144
1.0
145
0.0
146
0.71
147
1.5
 71
     0
 72
     0
 73
     0
 74
     0
 75
     0
 76
     0
 77
     1
 78
     8
170
     0
171
     2
172
     1
173
     0
174
     0
175
     0
176
   256
177
   256
178
     2
  0
DIMSTYLE
  2
AM_ISO$SF
 70
     0
  3

  4
"
  5

  6

  7

 40
1.0
 41
2.5
 42
1.0
 43
10.0
 44
1.0
 45
0.0
 46
0.0
 47
0.1
 48
0.1
140
3.5
141
0.0
142
0.0
143
0.0393701
144
1.0
145
0.0
146
0.71
147
1.5
 71
     0
 72
     0
 73
     0
 74
     0
 75
     1
 76
     1
 77
     1
 78
     8
170
     0
171
     2
172
     1
173
     0
174
     0
175
     0
176
   256
177
   256
178
     2
  0
DIMSTYLE
  2
AM_ISO$SH
 70
     0
  3

  4
"
  5

  6
GENAXEH
  7

 40
1.0
 41
2.5
 42
1.0
 43
10.0
 44
1.0
 45
0.0
 46
0.0
 47
0.1
 48
0.1
140
3.5
141
0.0
142
0.0
143
0.0393701
144
2.0
145
0.0
146
0.71
147
1.5
 71
     0
 72
     0
 73
     0
 74
     0
 75
     1
 76
     1
 77
     1
 78
     8
170
     0
171
     2
172
     1
173
     1
174
     0
175
     0
176
   256
177
   256
178
     2
  0
DIMSTYLE
  2
TECHNICAL_OSAKA
 70
     0
  3

  4
"
  5
OPEN30
  6

  7

 40
1.0
 41
2.5
 42
1.0
 43
10.0
 44
1.0
 45
0.0
 46
0.0
 47
0.1
 48
0.1
140
2.7999999999999989
141
0.0
142
0.0
143
0.0393701
144
1.0
145
0.0
146
0.71
147
1.5
 71
     0
 72
     0
 73
     0
 74
     0
 75
     0
 76
     0
 77
     3
 78
     8
170
     0
171
     2
172
     1
173
     0
174
     0
175
     0
176
   256
177
   256
178
    40
  0
DIMSTYLE
  2
TECHNICAL_OSAKA$3
 70
     0
  3

  4
"
  5
OPEN30
  6

  7

 40
1.0
 41
2.5
 42
1.0
 43
10.0
 44
1.0
 45
0.0
 46
0.0
 47
0.1
 48
0.1
140
2.7999999999999989
141
0.0
142
0.0
143
0.0393701
144
1.0
145
0.0
146
0.71
147
1.5
 71
     0
 72
     0
 73
     0
 74
     1
 75
     0
 76
     0
 77
     3
 78
     8
170
     0
171
     2
172
     0
173
     0
174
     0
175
     0
176
   256
177
   256
178
    40
  0
DIMSTYLE
  2
TECHNICAL_OSAKA$4
 70
     0
  3

  4
"
  5
OPEN30
  6

  7

 40
1.0
 41
2.5
 42
1.0
 43
10.0
 44
1.0
 45
0.0
 46
0.0
 47
0.1
 48
0.1
140
2.7999999999999989
141
0.0
142
0.0
143
0.0393701
144
1.0
145
0.0
146
0.71
147
1.5
 71
     0
 72
     0
 73
     0
 74
     1
 75
     0
 76
     0
 77
     3
 78
     8
170
     0
171
     2
172
     0
173
     0
174
     0
175
     0
176
   256
177
   256
178
    40
  0
DIMSTYLE
  2
TECHNICAL_OSAKA$6
 70
     0
  3

  4
"
  5
OPEN30
  6

  7

 40
1.0
 41
2.5
 42
1.0
 43
10.0
 44
1.0
 45
0.0
 46
0.0
 47
0.1
 48
0.1
140
2.7999999999999989
141
0.0
142
0.0
143
0.0393701
144
1.0
145
0.0
146
0.71
147
1.5
 71
     0
 72
     0
 73
     0
 74
     0
 75
     0
 76
     0
 77
     0
 78
     8
170
     0
171
     2
172
     1
173
     0
174
     0
175
     0
176
   256
177
   256
178
    40
  0
DIMSTYLE
  2
TECHNICAL_OSAKA$7
 70
     0
  3

  4
"
  5
OPEN30
  6

  7

 40
1.0
 41
2.5
 42
1.0
 43
10.0
 44
1.0
 45
0.0
 46
0.0
 47
0.1
 48
0.1
140
2.7999999999999989
141
0.0
142
0.0
143
0.0393701
144
1.0
145
0.0
146
0.71
147
1.5
 71
     0
 72
     0
 73
     0
 74
     0
 75
     0
 76
     0
 77
     3
 78
     8
170
     0
171
     2
172
     1
173
     0
174
     0
175
     0
176
   256
177
   256
178
    40
  0
DIMSTYLE
  2
TECHNICAL_OSAKA$SF
 70
     0
  3

  4
"
  5
OPEN30
  6
OPEN30
  7
OPEN30
 40
1.0
 41
2.5
 42
1.0
 43
10.0
 44
1.0
 45
0.0
 46
0.0
 47
0.1
 48
0.1
140
3.5
141
0.0
142
0.0
143
0.0393701
144
1.0
145
0.0
146
0.71
147
1.5
 71
     0
 72
     0
 73
     0
 74
     0
 75
     1
 76
     1
 77
     3
 78
     8
170
     0
171
     2
172
     1
173
     0
174
     0
175
     0
176
   256
177
   256
178
    40
  0
DIMSTYLE
  2
TECHNICAL_OSAKA$SH
 70
     0
  3

  4
"
  5
OPEN30
  6
GENAXEH
  7
OPEN30
 40
1.0
 41
2.5
 42
1.0
 43
10.0
 44
1.0
 45
0.0
 46
0.0
 47
0.1
 48
0.1
140
3.5
141
0.0
142
0.0
143
0.0393701
144
2.0
145
0.0
146
0.71
147
1.5
 71
     0
 72
     0
 73
     0
 74
     0
 75
     1
 76
     1
 77
     3
 78
     8
170
     0
171
     2
172
     1
173
     1
174
     0
175
     0
176
   256
177
   256
178
    40
  0
ENDTAB
  0
ENDSEC
  0
SECTION
  2
BLOCKS
  0
BLOCK
  8
0
  2
$MODEL_SPACE
 70
     0
 10
0.0
 20
0.0
 30
0.0
  3
$MODEL_SPACE
  1

  0
ENDBLK
  5
1C
  8
0
  0
BLOCK
 67
     1
  8
0
  2
$PAPER_SPACE
 70
     0
 10
0.0
 20
0.0
 30
0.0
  3
$PAPER_SPACE
  1

  0
ENDBLK
  5
19
 67
     1
  8
0
  0
BLOCK
  8
0
  2
_OPEN
 70
     0
 10
0.0
 20
0.0
 30
0.0
  3
_OPEN
  1

  0
LINE
  5
1D9C
  8
0
  6
BYBLOCK
 62
     0
 10
-1.0
 20
0.1666666666666666
 30
0.0
 11
0.0
 21
0.0
 31
0.0
  0
LINE
  5
1D9D
  8
0
  6
BYBLOCK
 62
     0
 10
-1.0
 20
-0.1666666666666666
 30
0.0
 11
0.0
 21
0.0
 31
0.0
  0
LINE
  5
1D9E
  8
0
  6
BYBLOCK
 62
     0
 10
0.0
 20
0.0
 30
0.0
 11
-1.0
 21
0.0
 31
0.0
  0
ENDBLK
  5
1D9F
  8
0
  0
BLOCK
  8
0
  2
矢印なし
 70
     0
 10
0.0
 20
0.0
 30
0.0
  3
矢印なし
  1

  0
ENDBLK
  5
6E5
  8
0
  0
BLOCK
  8
0
  2
GENAXEH
 70
     0
 10
0.0
 20
0.0
 30
0.0
  3
GENAXEH
  1

  0
LINE
  5
1DD7
  8
0
 10
-1.0
 20
0.0
 30
0.0
 11
1.0
 21
0.0
 31
0.0
  0
ENDBLK
  5
1DD8
  8
0
  0
BLOCK
  8
0
  2
_OPEN30
 70
     0
 10
0.0
 20
0.0
 30
0.0
  3
_OPEN30
  1

  0
LINE
  5
1E13
  8
0
  6
BYBLOCK
 62
     0
 10
-1.0
 20
0.26794919
 30
0.0
 11
0.0
 21
0.0
 31
0.0
  0
LINE
  5
1E14
  8
0
  6
BYBLOCK
 62
     0
 10
0.0
 20
0.0
 30
0.0
 11
-1.0
 21
-0.26794919
 31
0.0
  0
LINE
  5
1E15
  8
0
  6
BYBLOCK
 62
     0
 10
0.0
 20
0.0
 30
0.0
 11
-1.0
 21
0.0
 31
0.0
  0
ENDBLK
  5
1E16
  8
0
  0
BLOCK
  8
0
  2
*U7
 70
     1
 10
0.0
 20
0.0
 30
0.0
  3
*U7
  1

  0
TEXT
  5
1E63
  8
250
 10
89.400392146666675
 20
29.177260059999998
 30
0.0
 40
2.7999999999999989
  1
MGT12
  7
YOKO
  0
ENDBLK
  5
1E65
  8
0
  0
ENDSEC
  0
SECTION
  2
ENTITIES
  0
INSERT
  5
6E6
  8
245
  2
矢印なし
 10
175.62382697000001
 20
90.551235719999994
 30
0.0
  0
TEXT
  5
A38
  8
241
  6
CONTINUOUS
 10
-20.0
 20
49.0
 30
0.0
 40
5.0
  1
HSK-A40-MGT12-85
  7
YOKO
 11
-20.0
 21
49.0
 31
0.0
 73
     1
  0
INSERT
  5
14DA
  8
240
  2
*U7
 10
0.0
 20
0.0
 30
0.0
  0
LINE
  5
14DC
  8
250
  6
CONTINUOUS
 10
87.133725479999995
 20
28.177260059999998
 30
0.0
 11
105.26705882
 21
28.177260059999998
 31
0.0
1001
ITEMNAME
1000
LNSP2
  0
LINE
  5
19F4
  8
245
  6
CENTER2
 10
86.0
 20
0.0
 30
0.0
 11
-21.0
 21
0.0
 31
0.0
  0
LINE
  5
19FC
  8
241
  6
CONTINUOUS
 10
20.0
 20
-16.800000000000001
 30
0.0
 11
20.0
 21
16.800000000000001
 31
0.0
  0
LINE
  5
19FE
  8
241
  6
CONTINUOUS
 10
38.700000000000003
 20
-20.410179719999999
 30
0.0
 11
38.700000000000003
 21
20.410179719999999
 31
0.0
  0
LINE
  5
19FF
  8
241
  6
CONTINUOUS
 10
35.0
 20
-16.800000000000001
 30
0.0
 11
35.0
 21
16.800000000000001
 31
0.0
  0
LINE
  5
1A06
  8
240
  6
CONTINUOUS
 10
20.0
 20
-16.800000000000001
 30
0.0
 11
35.0
 21
-16.800000000000001
 31
0.0
  0
LINE
  5
1A13
  8
240
  6
CONTINUOUS
 10
35.0
 20
-16.800000000000001
 30
0.0
 11
38.407106779999999
 21
-20.20710678
 31
0.0
  0
ARC
  5
1A14
  8
240
  6
CONTINUOUS
 10
39.114213560000003
 20
-19.5
 30
0.0
 40
1.0
 50
225.0
 51
270.0
1001
GENIUS_GENOREF_13
1005
0
  0
LINE
  5
1A3E
  8
240
  6
CONTINUOUS
 10
20.0
 20
16.800000000000001
 30
0.0
 11
35.0
 21
16.800000000000001
 31
0.0
  0
LINE
  5
1A46
  8
240
  6
CONTINUOUS
 10
35.0
 20
16.800000000000001
 30
0.0
 11
38.407106779999999
 21
20.20710678
 31
0.0
  0
ARC
  5
1A47
  8
240
  6
CONTINUOUS
 10
39.114213560000003
 20
19.5
 30
0.0
 40
1.0
 50
90.0
 51
135.0
1001
GENIUS_GENODEF_13
1002
{
1000
HIER
1070
     0
1002
}
1002
{
1000
MANEDIT
1070
     0
1002
}
1002
{
1000
NOSEL
1070
     0
1002
}
1002
{
1000
BEHIND
1070
     0
1002
}
1002
{
1000
OTHER
1070
     0
1002
}
1002
{
1000
REACTOR
1002
}
1001
GENIUS_GENOBJ-N-FIL_13
1002
{
1000
OWNER
1000
GEN
1002
}
  0
LINE
  5
1A48
  8
241
  6
CONTINUOUS
 10
69.0
 20
20.5
 30
0.0
 11
69.0
 21
-20.5
 31
0.0
  0
LINE
  5
1A49
  8
240
  6
CONTINUOUS
 10
85.0
 20
-18.356406464558351
 30
0.0
 11
85.0
 21
18.356406464558361
 31
0.0
  0
LINE
  5
1A4A
  8
241
  6
CONTINUOUS
 10
77.0
 20
-20.412959300000001
 30
0.0
 11
77.0
 21
20.412959300000001
 31
0.0
  0
LINE
  5
1A4B
  8
241
  6
CONTINUOUS
 10
62.0
 20
-20.5
 30
0.0
 11
62.0
 21
20.5
 31
0.0
  0
LINE
  5
1A4C
  8
241
  6
CONTINUOUS
 10
60.399999999999999
 20
-20.5
 30
0.0
 11
60.399999999999999
 21
20.5
 31
0.0
  0
LINE
  5
1A4D
  8
241
  6
CONTINUOUS
 10
59.0
 20
-20.5
 30
0.0
 11
59.0
 21
20.5
 31
0.0
  0
LINE
  5
1A4E
  8
241
  6
CONTINUOUS
 10
57.399999999999999
 20
-20.5
 30
0.0
 11
57.399999999999999
 21
20.5
 31
0.0
  0
LINE
  5
1A50
  8
240
  6
CONTINUOUS
 10
39.114213560000003
 20
-20.5
 30
0.0
 11
76.999999990111405
 21
-20.5
 31
0.0
  0
LINE
  5
1A58
  8
240
  6
CONTINUOUS
 10
76.999999990111405
 20
-20.5
 30
0.0
 11
85.0
 21
-18.356406464558351
 31
0.0
  0
LINE
  5
1A61
  8
245
  6
CENTER2
 10
50.0
 20
22.940494882521961
 30
0.0
 11
50.0
 21
8.0000000000013536
 31
0.0
1001
GENIUS_GENOBJ-N-CEN_13
1002
{
1000
OWNER
1000
GEN
1002
}
1001
GENIUS_GENODEF_13
1002
{
1000
HIER
1070
     0
1002
}
1002
{
1000
MANEDIT
1070
     0
1002
}
1002
{
1000
NOSEL
1070
     0
1002
}
1002
{
1000
BEHIND
1070
     0
1002
}
1002
{
1000
OTHER
1070
     0
1002
}
1002
{
1000
REACTOR
1002
}
  0
LINE
  5
1A62
  8
240
  6
CONTINUOUS
 10
39.114213560000003
 20
20.5
 30
0.0
 11
76.999999990111391
 21
20.5
 31
0.0
  0
LINE
  5
1A6A
  8
240
  6
CONTINUOUS
 10
76.999999990111391
 20
20.5
 30
0.0
 11
85.0
 21
18.356406464558351
 31
0.0
  0
LINE
  5
1A6D
  8
250
  6
CONTINUOUS
 10
0.0
 20
20.5
 30
0.0
 11
0.0
 21
36.0
 31
0.0
  0
LINE
  5
1A6E
  8
250
  6
CONTINUOUS
 10
85.000000000000014
 20
18.874044554655711
 30
0.0
 11
85.0
 21
36.0
 31
0.0
  0
LINE
  5
1A6F
  8
250
  6
CONTINUOUS
 10
2.2299999999999991
 20
35.0
 30
0.0
 11
82.769999999999996
 21
35.0
 31
0.0
  0
LINE
  5
1A73
  8
250
  6
CONTINUOUS
 10
76.999999990111405
 20
-20.5
 30
0.0
 11
99.0
 21
-20.5
 31
0.0
  0
LINE
  5
1A74
  8
250
  6
CONTINUOUS
 10
76.999999990111391
 20
20.5
 30
0.0
 11
99.0
 21
20.5
 31
0.0
  0
LINE
  5
1A75
  8
250
  6
CONTINUOUS
 10
98.0
 20
-18.27
 30
0.0
 11
98.0
 21
18.27
 31
0.0
  0
POLYLINE
  5
1A7A
  8
250
  6
CONTINUOUS
 66
     1
 10
0.0
 20
0.0
 30
0.0
1001
ACAD
1000
DSTYLE
1002
{
1070
     6
1000
OPEN
1070
    41
1040
2.0
1070
    42
1040
2.0
1070
    44
1040
2.0
1070
    79
1070
     2
1070
   140
1040
4.0
1070
   179
1070
     3
1070
   343
1005
594
1070
   371
1070
    -1
1070
   372
1070
    -1
1002
}
  0
VERTEX
  5
1EA2
  8
250
  6
CONTINUOUS
 10
82.937433679046165
 20
20.909069448119581
 30
0.0
  0
VERTEX
  5
1EA3
  8
250
  6
CONTINUOUS
 10
87.133725479999995
 20
28.177260059999998
 30
0.0
  0
SEQEND
  5
1EA4
  8
250
  6
CONTINUOUS
  0
LINE
  5
1A7B
  8
250
  6
CONTINUOUS
 10
83.22610881373275
 20
20.74240278161189
 30
0.0
 11
81.937433679999984
 21
19.17701864
 31
0.0
  0
LINE
  5
1A7C
  8
250
  6
CONTINUOUS
 10
82.648758544359538
 20
21.075736114627269
 30
0.0
 11
81.937433679999984
 21
19.17701864
 31
0.0
  0
LINE
  5
1A7D
  8
250
  6
CONTINUOUS
 10
81.937433679999984
 20
19.17701864
 30
0.0
 11
82.937433679046165
 21
20.909069448119581
 31
0.0
  0
TEXT
  5
1A7E
  8
250
  6
CONTINUOUS
 10
40.252077633333329
 20
36.0
 30
0.0
 40
2.7999999999999989
  1
85
1001
ACAD
1000
MTEXTBEGIN
1070
    73
1070
     1
1070
    44
1040
1.0
1070
    74
1070
     0
1000
MTEXTEND
1000
MTEXTBEGIN
1070
    73
1070
     1
1070
    44
1040
1.0
1070
    74
1070
     0
1000
MTEXTEND
  0
LINE
  5
1A7F
  8
250
  6
CONTINUOUS
 10
82.769999999999996
 20
35.37166666666667
 30
0.0
 11
85.0
 21
35.0
 31
0.0
  0
LINE
  5
1A80
  8
250
  6
CONTINUOUS
 10
82.769999999999996
 20
34.62833333333333
 30
0.0
 11
85.0
 21
35.0
 31
0.0
  0
LINE
  5
1A81
  8
250
  6
CONTINUOUS
 10
85.0
 20
35.0
 30
0.0
 11
82.769999999999996
 21
35.0
 31
0.0
  0
LINE
  5
1A82
  8
250
  6
CONTINUOUS
 10
2.2299999999999991
 20
34.62833333333333
 30
0.0
 11
0.0
 21
35.0
 31
0.0
  0
LINE
  5
1A83
  8
250
  6
CONTINUOUS
 10
2.2299999999999991
 20
35.37166666666667
 30
0.0
 11
0.0
 21
35.0
 31
0.0
  0
LINE
  5
1A84
  8
250
  6
CONTINUOUS
 10
0.0
 20
35.0
 30
0.0
 11
2.2299999999999991
 21
35.0
 31
0.0
  0
TEXT
  5
1A85
  8
250
  6
CONTINUOUS
 10
96.999999999999986
 20
-3.5333333333333319
 30
0.0
 40
2.7999999999999989
  1
\U+220541
 50
90.0
1001
ACAD
1000
MTEXTBEGIN
1070
    73
1070
     1
1070
    44
1040
1.0
1070
    74
1070
     0
1000
MTEXTEND
1000
MTEXTBEGIN
1070
    73
1070
     1
1070
    44
1040
1.0
1070
    74
1070
     0
1000
MTEXTEND
1000
MTEXTBEGIN
1070
    73
1070
     1
1070
    44
1040
1.0
1070
    74
1070
     0
1000
MTEXTEND
1000
MTEXTBEGIN
1070
    73
1070
     1
1070
    44
1040
1.0
1070
    74
1070
     0
1000
MTEXTEND
  0
LINE
  5
1A86
  8
250
  6
CONTINUOUS
 10
97.62833333333333
 20
18.27
 30
0.0
 11
98.0
 21
20.5
 31
0.0
  0
LINE
  5
1A87
  8
250
  6
CONTINUOUS
 10
98.371666666666684
 20
18.27
 30
0.0
 11
98.0
 21
20.5
 31
0.0
  0
LINE
  5
1A88
  8
250
  6
CONTINUOUS
 10
98.0
 20
20.5
 30
0.0
 11
98.0
 21
18.27
 31
0.0
  0
LINE
  5
1A89
  8
250
  6
CONTINUOUS
 10
98.371666666666684
 20
-18.27
 30
0.0
 11
98.0
 21
-20.5
 31
0.0
  0
LINE
  5
1A8A
  8
250
  6
CONTINUOUS
 10
97.62833333333333
 20
-18.27
 30
0.0
 11
98.0
 21
-20.5
 31
0.0
  0
LINE
  5
1A8B
  8
250
  6
CONTINUOUS
 10
98.0
 20
-20.5
 30
0.0
 11
98.0
 21
-18.27
 31
0.0
  0
LINE
  5
1B36
  8
241
  6
CONTINUOUS
 10
15.0
 20
12.0
 30
0.0
 11
8.0
 21
12.0
 31
0.0
  0
LINE
  5
1B37
  8
243
  6
HIDDEN2
 10
20.0
 20
-17.0
 30
0.0
 11
8.0
 21
-17.0
 31
0.0
  0
LINE
  5
1B38
  8
240
  6
CONTINUOUS
 10
0.0
 20
-20.0
 30
0.0
 11
13.979274059999961
 21
-20.0
 31
0.0
  0
LINE
  5
1B39
  8
243
  6
HIDDEN2
 10
20.0
 20
17.0
 30
0.0
 11
8.0
 21
17.0
 31
0.0
  0
LINE
  5
1B3A
  8
240
  6
CONTINUOUS
 10
0.0
 20
20.0
 30
0.0
 11
13.979274059999961
 21
20.0
 31
0.0
  0
ARC
  5
1B3B
  8
241
  6
CONTINUOUS
 10
12.47213594999999
 20
11.5
 30
0.0
 40
4.5
 50
90.0
 51
173.62062979000191
  0
LINE
  5
1B3C
  8
240
  6
CONTINUOUS
 10
0.0
 20
-15.19999999999999
 30
0.0
 11
-20.0
 21
-14.19999999999999
 31
0.0
  0
LINE
  5
1B3D
  8
240
  6
CONTINUOUS
 10
-20.0
 20
14.19999999999999
 30
0.0
 11
-20.0
 21
-14.19999999999999
 31
0.0
  0
LINE
  5
1B3E
  8
241
  6
CONTINUOUS
 10
0.0
 20
15.19999999999999
 30
0.0
 11
0.0000000000000284
 21
-15.20000000000004
 31
0.0
  0
LINE
  5
1B3F
  8
240
  6
CONTINUOUS
 10
0.0
 20
-15.19999999999999
 30
0.0
 11
0.0
 21
-20.0
 31
0.0
  0
LINE
  5
1B40
  8
243
  6
HIDDEN2
 10
8.0
 20
-20.0
 30
0.0
 11
8.0
 21
-17.0
 31
0.0
  0
LINE
  5
1B41
  8
240
  6
CONTINUOUS
 10
0.0
 20
15.19999999999999
 30
0.0
 11
-20.0
 21
14.19999999999999
 31
0.0
  0
LINE
  5
1B42
  8
243
  6
HIDDEN2
 10
-11.99735026999997
 20
10.5
 30
0.0
 11
-20.0
 21
10.5
 31
0.0
  0
LINE
  5
1B43
  8
243
  6
HIDDEN2
 10
-16.5
 20
14.375
 30
0.0
 11
-16.5
 21
10.5
 31
0.0
  0
ARC
  5
1B44
  8
243
  6
HIDDEN2
 10
-3.9329756600000079
 20
7.75
 30
0.0
 40
4.9999999992728812
 50
39.050122530001509
 51
89.999999989998059
  0
LINE
  5
1B45
  8
243
  6
HIDDEN2
 10
-8.3000000000000114
 20
12.75
 30
0.0
 11
-8.3000000000000114
 21
14.784999999999959
 31
0.0
1001
GRPNAME
1000
PASTMD1U
  0
LINE
  5
1B46
  8
245
  6
CENTER2
 10
-6.0
 20
11.97724321596047
 30
0.0
 11
-6.0
 21
15.420296994285881
 31
0.0
1001
GRPNAME
1000
PASTMD1U
  0
LINE
  5
1B47
  8
243
  6
HIDDEN2
 10
-3.6999999999999882
 20
12.75
 30
0.0
 11
-3.6999999999999882
 21
15.014999999999979
 31
0.0
1001
GRPNAME
1000
PASTMD1U
  0
LINE
  5
1B48
  8
243
  6
HIDDEN2
 10
-3.9329756600000079
 20
12.75
 30
0.0
 11
-10.69831216
 21
12.75
 31
0.0
  0
LINE
  5
1B49
  8
243
  6
HIDDEN2
 10
-11.99735026999997
 20
10.5
 30
0.0
 11
-10.69831216
 21
12.75
 31
0.0
  0
LINE
  5
1B4A
  8
240
  6
CONTINUOUS
 10
0.0
 20
15.19999999999999
 30
0.0
 11
0.0
 21
20.0
 31
0.0
  0
LINE
  5
1B4B
  8
243
  6
HIDDEN2
 10
8.0
 20
17.0
 30
0.0
 11
8.0
 21
20.0
 31
0.0
  0
LINE
  5
1B4D
  8
241
  6
CONTINUOUS
 10
17.0
 20
-17.39999999999997
 30
0.0
 11
17.0
 21
17.39999999999997
 31
0.0
  0
LINE
  5
1B4E
  8
241
  6
CONTINUOUS
 10
15.0
 20
-17.39999999999997
 30
0.0
 11
15.0
 21
17.39999999999997
 31
0.0
  0
LINE
  5
1B4F
  8
241
  6
CONTINUOUS
 10
18.02072594000003
 20
12.0
 30
0.0
 11
18.02072594000003
 21
-20.0
 31
0.0
  0
LINE
  5
1B50
  8
241
  6
CONTINUOUS
 10
13.979274059999961
 20
12.0
 30
0.0
 11
13.979274059999961
 21
-20.0
 31
0.0
  0
LINE
  5
1B51
  8
240
  6
CONTINUOUS
 10
15.0
 20
-17.39999999999997
 30
0.0
 11
15.0
 21
-18.232050810000018
 31
0.0
  0
LINE
  5
1B52
  8
240
  6
CONTINUOUS
 10
17.0
 20
-18.232050810000018
 30
0.0
 11
17.0
 21
-17.39999999999997
 31
0.0
  0
LINE
  5
1B53
  8
240
  6
CONTINUOUS
 10
20.0
 20
-16.800000000000011
 30
0.0
 11
20.0
 21
-20.0
 31
0.0
  0
LINE
  5
1B54
  8
240
  6
CONTINUOUS
 10
15.0
 20
-18.232050810000018
 30
0.0
 11
13.979274059999961
 21
-20.0
 31
0.0
  0
LINE
  5
1B55
  8
240
  6
CONTINUOUS
 10
17.0
 20
-18.232050810000018
 30
0.0
 11
18.02072594000003
 21
-20.0
 31
0.0
  0
LINE
  5
1B56
  8
240
  6
CONTINUOUS
 10
18.02072594000003
 20
-20.0
 30
0.0
 11
20.0
 21
-20.0
 31
0.0
  0
LINE
  5
1B57
  8
240
  6
CONTINUOUS
 10
15.0
 20
-17.39999999999997
 30
0.0
 11
17.0
 21
-17.39999999999997
 31
0.0
  0
LINE
  5
1B58
  8
241
  6
CONTINUOUS
 10
18.02072594000003
 20
16.0
 30
0.0
 11
17.0
 21
13.0
 31
0.0
  0
LINE
  5
1B59
  8
241
  6
CONTINUOUS
 10
15.0
 20
13.0
 30
0.0
 11
13.979274059999961
 21
16.0
 31
0.0
  0
LINE
  5
1B5A
  8
241
  6
CONTINUOUS
 10
20.0
 20
12.0
 30
0.0
 11
17.0
 21
12.0
 31
0.0
  0
LINE
  5
1B5B
  8
240
  6
CONTINUOUS
 10
15.0
 20
17.39999999999997
 30
0.0
 11
17.0
 21
17.39999999999997
 31
0.0
  0
LINE
  5
1B5C
  8
240
  6
CONTINUOUS
 10
15.0
 20
18.232050810000018
 30
0.0
 11
13.979274059999961
 21
20.0
 31
0.0
  0
LINE
  5
1B5D
  8
241
  6
CONTINUOUS
 10
13.979274059999961
 20
20.0
 30
0.0
 11
13.979274059999961
 21
16.0
 31
0.0
  0
LINE
  5
1B5E
  8
241
  6
CONTINUOUS
 10
13.979274059999961
 20
16.0
 30
0.0
 11
12.47213594999999
 21
16.0
 31
0.0
  0
LINE
  5
1B5F
  8
240
  6
CONTINUOUS
 10
15.0
 20
17.39999999999997
 30
0.0
 11
15.0
 21
18.232050810000018
 31
0.0
  0
LINE
  5
1B60
  8
240
  6
CONTINUOUS
 10
17.0
 20
18.232050810000018
 30
0.0
 11
18.02072594000003
 21
20.0
 31
0.0
  0
LINE
  5
1B61
  8
240
  6
CONTINUOUS
 10
20.0
 20
16.800000000000011
 30
0.0
 11
20.0
 21
20.0
 31
0.0
  0
LINE
  5
1B62
  8
241
  6
CONTINUOUS
 10
18.02072594000003
 20
20.0
 30
0.0
 11
18.02072594000003
 21
16.0
 31
0.0
  0
LINE
  5
1B63
  8
240
  6
CONTINUOUS
 10
17.0
 20
18.232050810000018
 30
0.0
 11
17.0
 21
17.39999999999997
 31
0.0
  0
LINE
  5
1B64
  8
241
  6
CONTINUOUS
 10
20.0
 20
16.0
 30
0.0
 11
18.02072594000003
 21
16.0
 31
0.0
  0
LINE
  5
1B65
  8
240
  6
CONTINUOUS
 10
18.02072594000003
 20
20.0
 30
0.0
 11
20.0
 21
20.0
 31
0.0
  0
LINE
  5
1B66
  8
250
  6
CONTINUOUS
 10
-12.43687277352973
 20
-16.39540331785798
 30
0.0
 11
-10.999999998592781
 21
-14.6500000006398
 31
0.0
  0
LINE
  5
1B67
  8
250
  6
CONTINUOUS
 10
-11.793127223354301
 20
-16.76706998447435
 30
0.0
 11
-10.999999998592781
 21
-14.6500000006398
 31
0.0
  0
LINE
  5
1B68
  8
250
  6
CONTINUOUS
 10
-10.999999998592781
 20
-14.6500000006398
 30
0.0
 11
-12.114999998442039
 21
-16.58123665116619
 31
0.0
  0
POLYLINE
  5
1B69
  8
250
  6
CONTINUOUS
 66
     1
 10
0.0
 20
0.0
 30
0.0
1001
ACAD
1000
DSTYLE
1002
{
1070
     6
1000
OPEN
1070
   343
1005
0
1002
}
  0
VERTEX
  5
1B6A
  8
250
  6
CONTINUOUS
 10
-12.114999998442039
 20
-16.58123665116619
 30
0.0
  0
VERTEX
  5
1B6B
  8
250
  6
CONTINUOUS
 10
-15.677078328592749
 20
-22.750937300639858
 30
0.0
  0
SEQEND
  5
1B6C
  8
250
  6
CONTINUOUS
  0
LINE
  5
1B6D
  8
250
  6
CONTINUOUS
 10
-15.677078328592749
 20
-22.750937300639858
 30
0.0
 11
-39.943744998592763
 21
-22.750937300639858
 31
0.0
1001
ITEMNAME
1000
LNSP2
  0
TEXT
  5
1B6E
  8
250
  6
CONTINUOUS
 10
-37.677078331926111
 20
-21.750937300639858
 30
0.0
 40
2.799999999999998
  1
HSK-A40
  7
YOKO
1001
ITEMNAME
1000
LNSP3
  0
LINE
  5
1B6F
  8
247
  6
CONTINUOUS
 10
6.4999999999999432
 20
-10.75
 30
0.0
 11
6.5
 21
-6.1153846156699929
 31
0.0
  0
LINE
  5
1B70
  8
247
  6
CONTINUOUS
 10
4.0
 20
-9.9548934999879748
 30
0.0
 11
6.0999999999160082
 21
-10.557058810057351
 31
0.0
  0
LINE
  5
1B71
  8
247
  6
CONTINUOUS
 10
4.996153846113998
 20
-9.3251514035190421
 30
0.0
 11
4.996153846113998
 21
-10.240536018867029
 31
0.0
  0
ARC
  5
1B72
  8
247
  6
CONTINUOUS
 10
4.384719067294097
 20
-9.0872634019468101
 30
0.0
 40
0.3876715809326743
 50
72.997889675292214
 51
172.92416621851359
  0
ARC
  5
1B73
  8
247
  6
CONTINUOUS
 10
4.305223131028014
 20
-9.3824775568041314
 30
0.0
 40
0.6933047965358768
 50
4.7429368521989632
 51
73.849226273266751
1001
GENIUS_GENOBJ-N-FIL_13
1002
{
1000
OWNER
1000
GEN
1002
}
1001
GENIUS_GENODEF_13
1002
{
1000
HIER
1070
     0
1002
}
1002
{
1000
MANEDIT
1070
     0
1002
}
1002
{
1000
NOSEL
1070
     0
1002
}
1002
{
1000
BEHIND
1070
     0
1002
}
1002
{
1000
OTHER
1070
     0
1002
}
1002
{
1000
REACTOR
1002
}
  0
LINE
  5
1B74
  8
247
  6
CONTINUOUS
 10
6.0999999999160082
 20
-9.6416741947093634
 30
0.0
 11
6.0999999999160082
 21
-10.557058810057351
 31
0.0
  0
LINE
  5
1B75
  8
247
  6
CONTINUOUS
 10
4.0
 20
-9.9548934999879748
 30
0.0
 11
4.0
 21
-9.0395088846399272
 31
0.0
  0
ARC
  5
1B76
  8
247
  6
CONTINUOUS
 10
5.3874169627678707
 20
-9.3783064762668555
 30
0.0
 40
0.394857301075386
 50
65.990941652528889
 51
172.26344345906909
  0
ARC
  5
1B77
  8
247
  6
CONTINUOUS
 10
5.3912003273325668
 20
-9.7124466104269231
 30
0.0
 40
0.7123241612361686
 50
5.7019851642564632
 51
77.277338436822006
1001
GENIUS_GENOBJ-N-FIL_13
1002
{
1000
OWNER
1000
GEN
1002
}
1001
GENIUS_GENODEF_13
1002
{
1000
HIER
1070
     0
1002
}
1002
{
1000
MANEDIT
1070
     0
1002
}
1002
{
1000
NOSEL
1070
     0
1002
}
1002
{
1000
BEHIND
1070
     0
1002
}
1002
{
1000
OTHER
1070
     0
1002
}
1002
{
1000
REACTOR
1002
}
  0
LINE
  5
1B78
  8
247
  6
CONTINUOUS
 10
6.0999999999160082
 20
-8.6839818870633945
 30
0.0
 11
4.0
 21
-8.0818165769939583
 31
0.0
  0
LINE
  5
1B79
  8
247
  6
CONTINUOUS
 10
4.0
 20
-6.585662730907984
 30
0.0
 11
4.0
 21
-6.981678364303546
 31
0.0
  0
LINE
  5
1B7A
  8
247
  6
CONTINUOUS
 10
6.0999999999160082
 20
-7.6087396539439851
 30
0.0
 11
6.0999999999160082
 21
-7.177970423191935
 31
0.0
  0
ARC
  5
1B7B
  8
247
  6
CONTINUOUS
 10
5.4582995950833579
 20
-6.3818165770699684
 30
0.0
 40
1.576855057639547
 50
202.35948814152911
 51
254.99324854284649
  0
ARC
  5
1B7C
  8
247
  6
CONTINUOUS
 10
4.5658188585381341
 20
-6.8475113661332321
 30
0.0
 40
0.6234706797009447
 50
94.994589319075317
 51
155.1663289573039
1001
GENIUS_GENOBJ-N-FIL_13
1002
{
1000
OWNER
1000
GEN
1002
}
1001
GENIUS_GENODEF_13
1002
{
1000
HIER
1070
     0
1002
}
1002
{
1000
MANEDIT
1070
     0
1002
}
1002
{
1000
NOSEL
1070
     0
1002
}
1002
{
1000
BEHIND
1070
     0
1002
}
1002
{
1000
OTHER
1070
     0
1002
}
1002
{
1000
REACTOR
1002
}
  0
ARC
  5
1B7D
  8
247
  6
CONTINUOUS
 10
5.1621021219694381
 20
-7.4441839510327554
 30
0.0
 40
0.9749472149106983
 50
15.8460965557808
 51
82.325137004169278
  0
ARC
  5
1B7E
  8
247
  6
CONTINUOUS
 10
5.371470401971064
 20
-7.0352116387722381
 30
0.0
 40
0.9271945638692009
 50
249.7136016704969
 51
321.78874565641053
1001
GENIUS_GENOBJ-N-FIL_13
1002
{
1000
OWNER
1000
GEN
1002
}
1001
GENIUS_GENODEF_13
1002
{
1000
HIER
1070
     0
1002
}
1002
{
1000
MANEDIT
1070
     0
1002
}
1002
{
1000
NOSEL
1070
     0
1002
}
1002
{
1000
BEHIND
1070
     0
1002
}
1002
{
1000
OTHER
1070
     0
1002
}
1002
{
1000
REACTOR
1002
}
  0
LINE
  5
1B7F
  8
247
  6
CONTINUOUS
 10
5.2923076922559744
 20
-6.9625858078159668
 30
0.0
 11
5.2923076922559744
 21
-6.4779704232199711
 31
0.0
  0
ARC
  5
1B80
  8
247
  6
CONTINUOUS
 10
5.25
 20
-10.75
 30
0.0
 40
1.25
 50
180.0
 51
0.0
  0
LINE
  5
1B81
  8
247
  6
CONTINUOUS
 10
4.0
 20
-10.75
 30
0.0
 11
4.0
 21
-10.30384615391398
 31
0.0
  0
ARC
  5
1B82
  8
247
  6
CONTINUOUS
 10
5.25
 20
-6.1153846156699929
 30
0.0
 40
1.25
 50
0.0
 51
180.0
  0
LINE
  5
1B83
  8
243
  6
HIDDEN2
 10
-11.99735026999997
 20
-10.5
 30
0.0
 11
-20.0
 21
-10.5
 31
0.0
  0
LINE
  5
1B84
  8
243
  6
HIDDEN2
 10
-14.0
 20
-14.5
 30
0.0
 11
-14.0
 21
-10.5
 31
0.0
  0
ARC
  5
1B85
  8
243
  6
HIDDEN2
 10
-3.9329756600000079
 20
-7.75
 30
0.0
 40
4.9999999992728812
 50
270.00000000999847
 51
320.94987746999851
  0
LINE
  5
1B86
  8
243
  6
HIDDEN2
 10
-8.3000000000000114
 20
-12.75
 30
0.0
 11
-8.3000000000000114
 21
-14.784999999999959
 31
0.0
1001
GRPNAME
1000
PASTMD1U
  0
LINE
  5
1B87
  8
245
  6
CENTER2
 10
-6.0
 20
-11.97724321596047
 30
0.0
 11
-6.0
 21
-15.420296994285881
 31
0.0
1001
GRPNAME
1000
PASTMD1U
  0
LINE
  5
1B88
  8
243
  6
HIDDEN2
 10
-3.6999999999999882
 20
-12.75
 30
0.0
 11
-3.6999999999999882
 21
-15.014999999999979
 31
0.0
1001
GRPNAME
1000
PASTMD1U
  0
LINE
  5
1B89
  8
243
  6
HIDDEN2
 10
-3.9329756600000079
 20
-12.75
 30
0.0
 11
-10.69831216
 21
-12.75
 31
0.0
  0
LINE
  5
1B8A
  8
243
  6
HIDDEN2
 10
-11.99735026999997
 20
-10.5
 30
0.0
 11
-10.69831216
 21
-12.75
 31
0.0
  0
LINE
  5
1B9B
  8
243
  6
HIDDEN2
 10
32.999999999977277
 20
10.000000000002
 30
0.0
 11
78.500000000003212
 21
10.000000000000281
 31
0.0
  0
LINE
  5
1B9C
  8
243
  6
HIDDEN2
 10
85.0
 20
13.599999999999829
 30
0.0
 11
78.500000000000099
 21
13.599999999999829
 31
0.0
  0
LINE
  5
1B9D
  8
243
  6
HIDDEN2
 10
78.500000000023689
 20
-13.599999999999829
 30
0.0
 11
78.500000000000099
 21
13.599999999999829
 31
0.0
  0
LINE
  5
1B9F
  8
243
  6
HIDDEN2
 10
32.999999999977291
 20
-10.000000000002039
 30
0.0
 11
78.500000000003226
 21
-10.00000000000027
 31
0.0
  0
LINE
  5
1BA0
  8
243
  6
HIDDEN2
 10
85.000000000000014
 20
-13.59999999999982
 30
0.0
 11
78.500000000000114
 21
-13.599999999999829
 31
0.0
  0
VIEWPORT
  5
22
 67
     1
  8
0
 10
261.51769911999997
 20
148.5
 30
0.0
 40
523.03539823000006
 41
297.0
 68
     1
 69
     1
1001
ACAD
1000
MVIEW
1002
{
1070
    16
1010
0.0
1020
0.0
1030
0.0
1010
0.0
1020
0.0
1030
1.0
1040
0.0
1040
297.0
1040
261.51769911999997
1040
148.5
1040
50.0
1040
0.0
1040
0.0
1070
     0
1070
   100
1070
     1
1070
     1
1070
     0
1070
     0
1070
     0
1070
     0
1040
0.0
1040
0.0
1040
0.0
1040
1.0
1040
1.0
1040
10.0
1040
10.0
1070
     0
1002
{
1002
}
1002
}
1001
GENIUS_GENOBJ-N-SDF_13
1002
{
1000
OWNER
1000
GEN
1002
}
1001
GENIUS_GENODEF_13
1002
{
1000
HIER
1070
     0
1002
}
1002
{
1000
MANEDIT
1070
     0
1002
}
1002
{
1000
NOSEL
1070
     0
1002
}
1002
{
1000
BEHIND
1070
     0
1002
}
1002
{
1000
OTHER
1070
     0
1002
}
1002
{
1000
REACTOR
1002
}
1001
GENIUS_GENSCREG_15
1000
PF
1040
1.0
1000
DF
1040
1.0
1000
MIN
1011
0.0000000049999471
1021
0.0
1031
0.0
1021
0.0
1031
0.0
1000
MAX
1011
523.035398235
1021
0.0
1031
0.0
1021
297.0
1031
0.0
1000
FLAGS
1070
     4
  0
ENDSEC
  0
EOF
