  0
SECTION
  2
HEADER
  9
$ACADVER
  1
AC1024
  9
$ACADMAINTVER
 70
     6
  9
$DWGCODEPAGE
  3
ANSI_1252
  9
$INSBASE
 10
0.0
 20
0.0
 30
0.0
  9
$EXTMIN
 10
-39.94374499859276
 20
-22.75093730063986
 30
0.0
  9
$EXTMAX
 10
86.89990167999999
 20
47.0
 30
0.0
  9
$LIMMIN
 10
0.0
 20
0.0
  9
$LIMMAX
 10
297.0
 20
210.0
  9
$ORTHOMODE
 70
     1
  9
$REGENMODE
 70
     1
  9
$FILLMODE
 70
     1
  9
$QTEXTMODE
 70
     0
  9
$MIRRTEXT
 70
     1
  9
$LTSCALE
 40
10.0
  9
$ATTMODE
 70
     1
  9
$TEXTSIZE
 40
3.0
  9
$TRACEWID
 40
1.0
  9
$TEXTSTYLE
  7
YOKO
  9
$CLAYER
  8
240
  9
$CELTYPE
  6
ByLayer
  9
$CECOLOR
 62
   256
  9
$CELTSCALE
 40
1.0
  9
$DISPSILH
 70
     0
  9
$DIMSCALE
 40
1.0
  9
$DIMASZ
 40
2.229999999999999
  9
$DIMEXO
 40
0.5
  9
$DIMDLI
 40
7.0
  9
$DIMRND
 40
0.0
  9
$DIMDLE
 40
0.0
  9
$DIMEXE
 40
1.0
  9
$DIMTP
 40
0.0
  9
$DIMTM
 40
0.01
  9
$DIMTXT
 40
2.799999999999998
  9
$DIMCEN
 40
0.0
  9
$DIMTSZ
 40
0.0
  9
$DIMTOL
 70
     0
  9
$DIMLIM
 70
     0
  9
$DIMTIH
 70
     0
  9
$DIMTOH
 70
     0
  9
$DIMSE1
 70
     0
  9
$DIMSE2
 70
     0
  9
$DIMTAD
 70
     3
  9
$DIMZIN
 70
     9
  9
$DIMBLK
  1
OPEN
  9
$DIMASO
 70
     1
  9
$DIMSHO
 70
     1
  9
$DIMPOST
  1

  9
$DIMAPOST
  1

  9
$DIMALT
 70
     0
  9
$DIMALTD
 70
     2
  9
$DIMALTF
 40
25.4
  9
$DIMLFAC
 40
1.0
  9
$DIMTOFL
 70
     1
  9
$DIMTVP
 40
0.0
  9
$DIMTIX
 70
     1
  9
$DIMSOXD
 70
     0
  9
$DIMSAH
 70
     0
  9
$DIMBLK1
  1

  9
$DIMBLK2
  1

  9
$DIMSTYLE
  2
BIGT
  9
$DIMCLRD
 70
   256
  9
$DIMCLRE
 70
   256
  9
$DIMCLRT
 70
    40
  9
$DIMTFAC
 40
1.0
  9
$DIMGAP
 40
1.0
  9
$DIMJUST
 70
     0
  9
$DIMSD1
 70
     0
  9
$DIMSD2
 70
     0
  9
$DIMTOLJ
 70
     1
  9
$DIMTZIN
 70
     0
  9
$DIMALTZ
 70
     0
  9
$DIMALTTZ
 70
     0
  9
$DIMUPT
 70
     0
  9
$DIMDEC
 70
     6
  9
$DIMTDEC
 70
     6
  9
$DIMALTU
 70
     2
  9
$DIMALTTD
 70
     2
  9
$DIMTXSTY
  7
STANDARD
  9
$DIMAUNIT
 70
     0
  9
$DIMADEC
 70
     0
  9
$DIMALTRND
 40
0.0
  9
$DIMAZIN
 70
     0
  9
$DIMDSEP
 70
    46
  9
$DIMATFIT
 70
     3
  9
$DIMFRAC
 70
     0
  9
$DIMLDRBLK
  1

  9
$DIMLUNIT
 70
     2
  9
$DIMLWD
 70
    -2
  9
$DIMLWE
 70
    -2
  9
$DIMTMOVE
 70
     2
  9
$DIMFXL
 40
1.0
  9
$DIMFXLON
 70
     0
  9
$DIMJOGANG
 40
0.7853981633974483
  9
$DIMTFILL
 70
     0
  9
$DIMTFILLCLR
 70
     0
  9
$DIMARCSYM
 70
     0
  9
$DIMLTYPE
  6

  9
$DIMLTEX1
  6

  9
$DIMLTEX2
  6

  9
$DIMTXTDIRECTION
 70
     0
  9
$LUNITS
 70
     2
  9
$LUPREC
 70
     6
  9
$SKETCHINC
 40
1.0
  9
$FILLETRAD
 40
4.0
  9
$AUNITS
 70
     0
  9
$AUPREC
 70
     6
  9
$MENU
  1
.
  9
$ELEVATION
 40
0.0
  9
$PELEVATION
 40
0.0
  9
$THICKNESS
 40
0.0
  9
$LIMCHECK
 70
     0
  9
$CHAMFERA
 40
0.2
  9
$CHAMFERB
 40
0.2
  9
$CHAMFERC
 40
1.0
  9
$CHAMFERD
 40
0.0
  9
$SKPOLY
 70
     0
  9
$TDCREATE
 40
2457731.688078032
  9
$TDUCREATE
 40
2457731.896411366
  9
$TDUPDATE
 40
2457813.748343959
  9
$TDUUPDATE
 40
2457813.956677292
  9
$TDINDWG
 40
0.0788476852
  9
$TDUSRTIMER
 40
2458323.784787014
  9
$USRTIMER
 70
     1
  9
$ANGBASE
 50
0.0
  9
$ANGDIR
 70
     0
  9
$PDMODE
 70
     1
  9
$PDSIZE
 40
0.0
  9
$PLINEWID
 40
0.0
  9
$SPLFRAME
 70
     0
  9
$SPLINETYPE
 70
     6
  9
$SPLINESEGS
 70
     4
  9
$HANDSEED
  5
47A7
  9
$SURFTAB1
 70
     6
  9
$SURFTAB2
 70
     6
  9
$SURFTYPE
 70
     6
  9
$SURFU
 70
     6
  9
$SURFV
 70
     6
  9
$UCSBASE
  2

  9
$UCSNAME
  2

  9
$UCSORG
 10
0.0
 20
0.0
 30
0.0
  9
$UCSXDIR
 10
1.0
 20
0.0
 30
0.0
  9
$UCSYDIR
 10
0.0
 20
1.0
 30
0.0
  9
$UCSORTHOREF
  2

  9
$UCSORTHOVIEW
 70
     0
  9
$UCSORGTOP
 10
0.0
 20
0.0
 30
0.0
  9
$UCSORGBOTTOM
 10
0.0
 20
0.0
 30
0.0
  9
$UCSORGLEFT
 10
0.0
 20
0.0
 30
0.0
  9
$UCSORGRIGHT
 10
0.0
 20
0.0
 30
0.0
  9
$UCSORGFRONT
 10
0.0
 20
0.0
 30
0.0
  9
$UCSORGBACK
 10
0.0
 20
0.0
 30
0.0
  9
$PUCSBASE
  2

  9
$PUCSNAME
  2

  9
$PUCSORG
 10
0.0
 20
0.0
 30
0.0
  9
$PUCSXDIR
 10
1.0
 20
0.0
 30
0.0
  9
$PUCSYDIR
 10
0.0
 20
1.0
 30
0.0
  9
$PUCSORTHOREF
  2

  9
$PUCSORTHOVIEW
 70
     0
  9
$PUCSORGTOP
 10
0.0
 20
0.0
 30
0.0
  9
$PUCSORGBOTTOM
 10
0.0
 20
0.0
 30
0.0
  9
$PUCSORGLEFT
 10
0.0
 20
0.0
 30
0.0
  9
$PUCSORGRIGHT
 10
0.0
 20
0.0
 30
0.0
  9
$PUCSORGFRONT
 10
0.0
 20
0.0
 30
0.0
  9
$PUCSORGBACK
 10
0.0
 20
0.0
 30
0.0
  9
$USERI1
 70
     1
  9
$USERI2
 70
     0
  9
$USERI3
 70
     0
  9
$USERI4
 70
     0
  9
$USERI5
 70
     0
  9
$USERR1
 40
0.0
  9
$USERR2
 40
0.0
  9
$USERR3
 40
0.0
  9
$USERR4
 40
0.0
  9
$USERR5
 40
0.0
  9
$WORLDVIEW
 70
     1
  9
$SHADEDGE
 70
     3
  9
$SHADEDIF
 70
    70
  9
$TILEMODE
 70
     1
  9
$MAXACTVP
 70
    16
  9
$PINSBASE
 10
0.0
 20
0.0
 30
0.0
  9
$PLIMCHECK
 70
     0
  9
$PEXTMIN
 10
1.000000000000000E+20
 20
1.000000000000000E+20
 30
1.000000000000000E+20
  9
$PEXTMAX
 10
-1.000000000000000E+20
 20
-1.000000000000000E+20
 30
-1.000000000000000E+20
  9
$PLIMMIN
 10
0.0
 20
0.0
  9
$PLIMMAX
 10
420.0
 20
297.0
  9
$UNITMODE
 70
     0
  9
$VISRETAIN
 70
     1
  9
$PLINEGEN
 70
     0
  9
$PSLTSCALE
 70
     1
  9
$TREEDEPTH
 70
  3020
  9
$CMLSTYLE
  2
Standard
  9
$CMLJUST
 70
     0
  9
$CMLSCALE
 40
1.0
  9
$PROXYGRAPHICS
 70
     1
  9
$MEASUREMENT
 70
     0
  9
$CELWEIGHT
370
    -1
  9
$ENDCAPS
280
     0
  9
$JOINSTYLE
280
     0
  9
$LWDISPLAY
290
     0
  9
$INSUNITS
 70
     0
  9
$HYPERLINKBASE
  1

  9
$STYLESHEET
  1

  9
$XEDIT
290
     1
  9
$CEPSNTYPE
380
     0
  9
$PSTYLEMODE
290
     1
  9
$FINGERPRINTGUID
  2
{446EEF37-964E-4479-9107-B03D00AC0795}
  9
$VERSIONGUID
  2
{FAEB1C32-E019-11D5-929B-00C0DF256EC4}
  9
$EXTNAMES
290
     1
  9
$PSVPSCALE
 40
0.0
  9
$OLESTARTUP
290
     0
  9
$SORTENTS
280
   127
  9
$INDEXCTL
280
     0
  9
$HIDETEXT
280
     1
  9
$XCLIPFRAME
280
     2
  9
$HALOGAP
280
     0
  9
$OBSCOLOR
 70
   257
  9
$OBSLTYPE
280
     0
  9
$INTERSECTIONDISPLAY
280
     0
  9
$INTERSECTIONCOLOR
 70
   257
  9
$DIMASSOC
280
     2
  9
$PROJECTNAME
  1

  9
$CAMERADISPLAY
290
     0
  9
$LENSLENGTH
 40
50.0
  9
$CAMERAHEIGHT
 40
0.0
  9
$STEPSPERSEC
 40
2.0
  9
$STEPSIZE
 40
6.0
  9
$3DDWFPREC
 40
2.0
  9
$PSOLWIDTH
 40
0.25
  9
$PSOLHEIGHT
 40
4.0
  9
$LOFTANG1
 40
1.570796326794897
  9
$LOFTANG2
 40
1.570796326794897
  9
$LOFTMAG1
 40
0.0
  9
$LOFTMAG2
 40
0.0
  9
$LOFTPARAM
 70
     7
  9
$LOFTNORMALS
280
     1
  9
$LATITUDE
 40
37.795
  9
$LONGITUDE
 40
-122.394
  9
$NORTHDIRECTION
 40
0.0
  9
$TIMEZONE
 70
 -8000
  9
$LIGHTGLYPHDISPLAY
280
     1
  9
$TILEMODELIGHTSYNCH
280
     1
  9
$SOLIDHIST
280
     1
  9
$SHOWHIST
280
     1
  9
$DWFFRAME
280
     2
  9
$DGNFRAME
280
     2
  9
$REALWORLDSCALE
290
     1
  9
$INTERFERECOLOR
 62
   256
  9
$CSHADOW
280
     0
  9
$SHADOWPLANELOCATION
 40
0.0
  0
ENDSEC
  0
SECTION
  2
CLASSES
  0
CLASS
  1
ACDBDICTIONARYWDFLT
  2
AcDbDictionaryWithDefault
  3
ObjectDBX Classes
 90
        0
 91
        6
280
     0
281
     0
  0
CLASS
  1
SCALE
  2
AcDbScale
  3
ObjectDBX Classes
 90
     1153
 91
        6
280
     0
281
     0
  0
CLASS
  1
TABLESTYLE
  2
AcDbTableStyle
  3
ObjectDBX Classes
 90
     4095
 91
        6
280
     0
281
     0
  0
CLASS
  1
RASTERVARIABLES
  2
AcDbRasterVariables
  3
ISM
 90
        0
 91
        6
280
     0
281
     0
  0
CLASS
  1
DICTIONARYVAR
  2
AcDbDictionaryVar
  3
ObjectDBX Classes
 90
        0
 91
        4
280
     0
281
     0
  0
CLASS
  1
CELLSTYLEMAP
  2
AcDbCellStyleMap
  3
ObjectDBX Classes
 90
     1152
 91
        4
280
     0
281
     0
  0
ENDSEC
  0
SECTION
  2
TABLES
  0
TABLE
  2
VPORT
  5
4715
330
0
100
AcDbSymbolTable
 70
     1
  0
VPORT
  5
472C
330
4715
100
AcDbSymbolTableRecord
100
AcDbViewportTableRecord
  2
*ACTIVE
 70
     0
 10
0.0
 20
0.0
 11
1.0
 21
1.0
 12
49.80959334664331
 22
21.06254071837503
 13
0.0
 23
0.0
 14
7.0
 24
7.0
 15
7.0
 25
7.0
 16
0.0
 26
0.0
 36
1.0
 17
0.0
 27
0.0
 37
0.0
 40
142.656909036444
 41
1.434108527131783
 42
50.0
 43
0.0
 44
0.0
 50
0.0
 51
0.0
 71
     0
 72
  2000
 73
     1
 74
     0
 75
     0
 76
     1
 77
     0
 78
     0
281
     0
 65
     0
110
0.0
120
0.0
130
0.0
111
1.0
121
0.0
131
0.0
112
0.0
122
1.0
132
0.0
 79
     0
146
0.0
 60
     3
 61
     5
292
     1
282
     1
141
0.0
142
0.0
 63
   256
  0
ENDTAB
  0
TABLE
  2
LTYPE
  5
4712
330
0
100
AcDbSymbolTable
 70
    10
  0
LTYPE
  5
4720
330
4712
100
AcDbSymbolTableRecord
100
AcDbLinetypeTableRecord
  2
ByBlock
 70
     0
  3

 72
    65
 73
     0
 40
0.0
  0
LTYPE
  5
4721
330
4712
100
AcDbSymbolTableRecord
100
AcDbLinetypeTableRecord
  2
ByLayer
 70
     0
  3

 72
    65
 73
     0
 40
0.0
  0
LTYPE
  5
4722
330
4712
100
AcDbSymbolTableRecord
100
AcDbLinetypeTableRecord
  2
CONTINUOUS
 70
     0
  3
Solid line
 72
    65
 73
     0
 40
0.0
  0
LTYPE
  5
472E
330
4712
100
AcDbSymbolTableRecord
100
AcDbLinetypeTableRecord
  2
CENTER2
 70
     0
  3
___ _ ___ _ ___ _ ___ _ ___ _ ___ _ ___ _ ___ _
 72
    65
 73
     4
 40
1.125
 49
0.75
 74
     0
 49
-0.125
 74
     0
 49
0.125
 74
     0
 49
-0.125
 74
     0
  0
LTYPE
  5
472F
330
4712
100
AcDbSymbolTableRecord
100
AcDbLinetypeTableRecord
  2
HIDDEN2
 70
     0
  3
_ _ _ _ _ _ _ _ _ _ _ _ _ _ _ _ _ _ _ _ _ _ _ _
 72
    65
 73
     2
 40
0.1875
 49
0.125
 74
     0
 49
-0.0625
 74
     0
  0
LTYPE
  5
4730
330
4712
100
AcDbSymbolTableRecord
100
AcDbLinetypeTableRecord
  2
PHANTOM2
 70
     0
  3
___ _ _ ___ _ _ ___ _ _ ___ _ _ ___ _ _ ___ _ _
 72
    65
 73
     6
 40
1.25
 49
0.625
 74
     0
 49
-0.125
 74
     0
 49
0.125
 74
     0
 49
-0.125
 74
     0
 49
0.125
 74
     0
 49
-0.125
 74
     0
  0
LTYPE
  5
4731
330
4712
100
AcDbSymbolTableRecord
100
AcDbLinetypeTableRecord
  2
AMCONSTR
 70
     0
  3
_______________________
 72
    65
 73
     2
 40
9999.0
 49
9999.0
 74
     0
 49
0.0
 74
     0
  0
LTYPE
  5
4732
330
4712
100
AcDbSymbolTableRecord
100
AcDbLinetypeTableRecord
  2
HIDDEN
 70
     0
  3
Hidden __ __ __ __ __ __ __ __ __ __ __ __ __ _
 72
    65
 73
     2
 40
0.375
 49
0.25
 74
     0
 49
-0.125
 74
     0
  0
LTYPE
  5
4733
330
4712
100
AcDbSymbolTableRecord
100
AcDbLinetypeTableRecord
  2
CENTER
 70
     0
  3
Center ____ _ ____ _ ____ _ ____ _ ____ _ ____
 72
    65
 73
     4
 40
2.0
 49
1.25
 74
     0
 49
-0.25
 74
     0
 49
0.25
 74
     0
 49
-0.25
 74
     0
  0
LTYPE
  5
4734
330
4712
100
AcDbSymbolTableRecord
100
AcDbLinetypeTableRecord
  2
AMZIGZAG2
 70
     0
  3
/\/-/\/-/\/-/\/-/\/-/\/
 72
    65
 73
     2
 40
0.4401000000000001
 49
0.0001
 74
     0
 49
-0.4400000000000001
 74
     0
  0
LTYPE
  5
4735
330
4712
100
AcDbSymbolTableRecord
100
AcDbLinetypeTableRecord
  2
ACANSTGB
 70
     0
  3
__ . . __ . .
 72
    65
 73
     6
 40
0.35433070866
 49
0.15748031496
 74
     0
 49
-0.03937007874
 74
     0
 49
0.03937007874
 74
     0
 49
-0.03937007874
 74
     0
 49
0.03937007874
 74
     0
 49
-0.03937007874
 74
     0
  0
LTYPE
  5
4736
330
4712
100
AcDbSymbolTableRecord
100
AcDbLinetypeTableRecord
  2
ACANSTGL
 70
     0
  3
_ _ _ _ _
 72
    65
 73
     2
 40
0.11811023622
 49
0.07874015748
 74
     0
 49
-0.03937007874
 74
     0
  0
ENDTAB
  0
TABLE
  2
LAYER
  5
470F
330
0
100
AcDbSymbolTable
 70
     9
  0
LAYER
  5
471D
330
470F
100
AcDbSymbolTableRecord
100
AcDbLayerTableRecord
  2
0
 70
     0
 62
     7
  6
CONTINUOUS
370
    -3
390
471C
347
0
  0
LAYER
  5
4738
330
470F
100
AcDbSymbolTableRecord
100
AcDbLayerTableRecord
  2
240
 70
     0
 62
     4
  6
CONTINUOUS
370
    -3
390
471C
347
0
  0
LAYER
  5
4739
330
470F
100
AcDbSymbolTableRecord
100
AcDbLayerTableRecord
  2
DEFPOINTS
 70
     0
 62
     7
  6
CONTINUOUS
290
     0
370
    -3
390
471C
347
0
  0
LAYER
  5
473A
330
470F
100
AcDbSymbolTableRecord
100
AcDbLayerTableRecord
  2
245
 70
     0
 62
     2
  6
CENTER2
370
    -3
390
471C
347
0
  0
LAYER
  5
473B
330
470F
100
AcDbSymbolTableRecord
100
AcDbLayerTableRecord
  2
241
 70
     0
 62
   211
  6
CONTINUOUS
370
    -3
390
471C
347
0
  0
LAYER
  5
473C
330
470F
100
AcDbSymbolTableRecord
100
AcDbLayerTableRecord
  2
242
 70
     0
 62
     3
  6
CONTINUOUS
370
    -3
390
471C
347
0
  0
LAYER
  5
473D
330
470F
100
AcDbSymbolTableRecord
100
AcDbLayerTableRecord
  2
243
 70
     0
 62
   211
  6
HIDDEN2
370
    -3
390
471C
347
0
  0
LAYER
  5
473E
330
470F
100
AcDbSymbolTableRecord
100
AcDbLayerTableRecord
  2
247
 70
     0
 62
    60
  6
CONTINUOUS
370
    -3
390
471C
347
0
  0
LAYER
  5
473F
330
470F
100
AcDbSymbolTableRecord
100
AcDbLayerTableRecord
  2
250
 70
     0
 62
     3
  6
CONTINUOUS
370
    -3
390
471C
347
0
  0
ENDTAB
  0
TABLE
  2
STYLE
  5
4710
330
0
100
AcDbSymbolTable
 70
     4
  0
STYLE
  5
471E
330
4710
100
AcDbSymbolTableRecord
100
AcDbTextStyleTableRecord
  2
STANDARD
 70
     0
 40
0.0
 41
1.0
 50
0.0
 71
     0
 42
3.0
  3
romans.shx
  4
extfont.shx
  0
STYLE
  5
4741
330
4710
100
AcDbSymbolTableRecord
100
AcDbTextStyleTableRecord
  2
YOKO
 70
     0
 40
0.0
 41
1.0
 50
0.0
 71
     0
 42
3.0
  3
romans.shx
  4
extfont.shx
  0
STYLE
  5
4742
330
4710
100
AcDbSymbolTableRecord
100
AcDbTextStyleTableRecord
  2

 70
     1
 40
0.0
 41
1.0
 50
0.0
 71
     0
 42
3.0
  3
genltshp.shx
  4

  0
STYLE
  5
4743
330
4710
100
AcDbSymbolTableRecord
100
AcDbTextStyleTableRecord
  2
ACANSGDT
 70
     0
 40
0.0
 41
1.0
 50
0.0
 71
     0
 42
3.0
  3
amgdt.shx
  4

  0
ENDTAB
  0
TABLE
  2
VIEW
  5
4713
330
0
100
AcDbSymbolTable
 70
     0
  0
ENDTAB
  0
TABLE
  2
UCS
  5
4714
330
0
100
AcDbSymbolTable
 70
     0
  0
ENDTAB
  0
TABLE
  2
APPID
  5
4716
330
0
100
AcDbSymbolTable
 70
    38
  0
APPID
  5
471F
330
4716
100
AcDbSymbolTableRecord
100
AcDbRegAppTableRecord
  2
ACAD
 70
     0
  0
APPID
  5
4745
330
4716
100
AcDbSymbolTableRecord
100
AcDbRegAppTableRecord
  2
ACADANNOTATIVE
 70
     0
  0
APPID
  5
4746
330
4716
100
AcDbSymbolTableRecord
100
AcDbRegAppTableRecord
  2
GLOBAL
 70
     0
  0
APPID
  5
4747
330
4716
100
AcDbSymbolTableRecord
100
AcDbRegAppTableRecord
  2
DETAIL
 70
     0
  0
APPID
  5
4748
330
4716
100
AcDbSymbolTableRecord
100
AcDbRegAppTableRecord
  2
GRPNAME
 70
     0
  0
APPID
  5
4749
330
4716
100
AcDbSymbolTableRecord
100
AcDbRegAppTableRecord
  2
GPARA
 70
     0
  0
APPID
  5
474A
330
4716
100
AcDbSymbolTableRecord
100
AcDbRegAppTableRecord
  2
MCAD_NO_VIS
 70
     0
  0
APPID
  5
474B
330
4716
100
AcDbSymbolTableRecord
100
AcDbRegAppTableRecord
  2
ACAD_TEMP_GRAPHIC
 70
     0
  0
APPID
  5
474C
330
4716
100
AcDbSymbolTableRecord
100
AcDbRegAppTableRecord
  2
ACATTRIBSERVICES
 70
     0
  0
APPID
  5
474D
330
4716
100
AcDbSymbolTableRecord
100
AcDbRegAppTableRecord
  2
GENIUS_GENSCREG_15
 70
     0
  0
APPID
  5
474E
330
4716
100
AcDbSymbolTableRecord
100
AcDbRegAppTableRecord
  2
GENIUS_GENODEF_13
 70
     0
  0
APPID
  5
474F
330
4716
100
AcDbSymbolTableRecord
100
AcDbRegAppTableRecord
  2
GENIUS_GENOBJ-N-SDF_13
 70
     0
  0
APPID
  5
4750
330
4716
100
AcDbSymbolTableRecord
100
AcDbRegAppTableRecord
  2
GENIUS_GENREC_14
 70
     0
  0
APPID
  5
4751
330
4716
100
AcDbSymbolTableRecord
100
AcDbRegAppTableRecord
  2
GENIUS_GENOBJ-N-REC_13
 70
     0
  0
APPID
  5
4752
330
4716
100
AcDbSymbolTableRecord
100
AcDbRegAppTableRecord
  2
GENIUS_GENDIMSH_14
 70
     0
  0
APPID
  5
4753
330
4716
100
AcDbSymbolTableRecord
100
AcDbRegAppTableRecord
  2
GENIUS_GENOBJ-N-DIM_13
 70
     0
  0
APPID
  5
4754
330
4716
100
AcDbSymbolTableRecord
100
AcDbRegAppTableRecord
  2
GENIUS_GENDIM_13
 70
     0
  0
APPID
  5
4755
330
4716
100
AcDbSymbolTableRecord
100
AcDbRegAppTableRecord
  2
GENIUS_GENDTOL_13
 70
     0
  0
APPID
  5
4756
330
4716
100
AcDbSymbolTableRecord
100
AcDbRegAppTableRecord
  2
GENIUS_GENOLIS_13
 70
     0
  0
APPID
  5
4757
330
4716
100
AcDbSymbolTableRecord
100
AcDbRegAppTableRecord
  2
GENIUS_GENOENT_13
 70
     0
  0
APPID
  5
4758
330
4716
100
AcDbSymbolTableRecord
100
AcDbRegAppTableRecord
  2
GENIUS_GENOBJ-F-FEM_13
 70
     0
  0
APPID
  5
4759
330
4716
100
AcDbSymbolTableRecord
100
AcDbRegAppTableRecord
  2
GENIUS_GENOREF_13
 70
     0
  0
APPID
  5
475A
330
4716
100
AcDbSymbolTableRecord
100
AcDbRegAppTableRecord
  2
GENIUS_GEFFEM_13
 70
     0
  0
APPID
  5
475B
330
4716
100
AcDbSymbolTableRecord
100
AcDbRegAppTableRecord
  2
GENIUS_GEFFEMP_13
 70
     0
  0
APPID
  5
475C
330
4716
100
AcDbSymbolTableRecord
100
AcDbRegAppTableRecord
  2
AD_DRAW
 70
     0
  0
APPID
  5
475D
330
4716
100
AcDbSymbolTableRecord
100
AcDbRegAppTableRecord
  2
DESIGNERASSEMBLIES
 70
     0
  0
APPID
  5
475E
330
4716
100
AcDbSymbolTableRecord
100
AcDbRegAppTableRecord
  2
ACADM_DIM_EDIT
 70
     0
  0
APPID
  5
475F
330
4716
100
AcDbSymbolTableRecord
100
AcDbRegAppTableRecord
  2
AMDT_DM_ADJ
 70
     0
  0
APPID
  5
4760
330
4716
100
AcDbSymbolTableRecord
100
AcDbRegAppTableRecord
  2
ITEMNAME
 70
     0
  0
APPID
  5
4761
330
4716
100
AcDbSymbolTableRecord
100
AcDbRegAppTableRecord
  2
GENIUS_GENOBJ-N-FIL_13
 70
     0
  0
APPID
  5
4762
330
4716
100
AcDbSymbolTableRecord
100
AcDbRegAppTableRecord
  2
GENIUS_GENFIL_13
 70
     0
  0
APPID
  5
4763
330
4716
100
AcDbSymbolTableRecord
100
AcDbRegAppTableRecord
  2
GENIUS_GENOBJ-N-CHA_13
 70
     0
  0
APPID
  5
4764
330
4716
100
AcDbSymbolTableRecord
100
AcDbRegAppTableRecord
  2
ACAD_NAV_VCDISPLAY
 70
     0
  0
APPID
  5
4765
330
4716
100
AcDbSymbolTableRecord
100
AcDbRegAppTableRecord
  2
ACAD_EXEMPT_FROM_CAD_STANDARDS
 70
     0
  0
APPID
  5
4766
330
4716
100
AcDbSymbolTableRecord
100
AcDbRegAppTableRecord
  2
ACAECLAYERSTANDARD
 70
     0
  0
APPID
  5
4767
330
4716
100
AcDbSymbolTableRecord
100
AcDbRegAppTableRecord
  2
ACAD_MLEADERVER
 70
     0
  0
APPID
  5
4768
330
4716
100
AcDbSymbolTableRecord
100
AcDbRegAppTableRecord
  2
ACAD_DSTYLE_DIMJAG
 70
     0
  0
APPID
  5
4769
330
4716
100
AcDbSymbolTableRecord
100
AcDbRegAppTableRecord
  2
ACAD_DSTYLE_DIMBREAK
 70
     0
  0
ENDTAB
  0
TABLE
  2
DIMSTYLE
  5
4717
330
0
100
AcDbSymbolTable
 70
     8
100
AcDbDimStyleTable
  0
DIMSTYLE
105
476A
330
4717
100
AcDbSymbolTableRecord
100
AcDbDimStyleTableRecord
  2
STANDARD
 70
     0
340
4741
  0
DIMSTYLE
105
476B
330
4717
100
AcDbSymbolTableRecord
100
AcDbDimStyleTableRecord
  2
BIGT
 70
     0
 41
2.229999999999999
 42
0.5
 43
7.0
 44
1.0
 48
0.01
 73
     0
 74
     0
 77
     3
 78
     9
140
2.799999999999998
141
0.0
147
1.0
172
     1
174
     1
176
   256
177
   256
178
    40
340
4741
  0
DIMSTYLE
105
476C
330
4717
100
AcDbSymbolTableRecord
100
AcDbDimStyleTableRecord
  2
AM_ANSI
 70
     0
  4
mm
 41
0.12
 42
0.05
 43
0.5
 44
0.1
 47
0.1
 48
0.1
 78
     7
140
0.12
141
0.0
146
0.71
147
0.06
176
   256
177
   256
178
     2
340
4741
  0
DIMSTYLE
105
476D
330
4717
100
AcDbSymbolTableRecord
100
AcDbDimStyleTableRecord
  2
AM_ANSI$3
 70
     0
  4
mm
 41
0.12
 42
0.05
 43
0.5
 44
0.1
 47
0.1
 48
0.1
 78
     7
140
0.12
141
0.0
146
0.71
147
0.06
176
   256
177
   256
178
     2
340
4741
  0
DIMSTYLE
105
476E
330
4717
100
AcDbSymbolTableRecord
100
AcDbDimStyleTableRecord
  2
AM_ANSI$4
 70
     0
  4
mm
 41
0.12
 42
0.05
 43
0.5
 44
0.1
 47
0.1
 48
0.1
 78
     7
140
0.12
141
0.0
146
0.71
147
0.06
176
   256
177
   256
178
     2
340
4741
  0
DIMSTYLE
105
476F
330
4717
100
AcDbSymbolTableRecord
100
AcDbDimStyleTableRecord
  2
AM_ANSI$7
 70
     0
  4
mm
 41
0.12
 42
0.05
 43
0.5
 44
0.1
 47
0.1
 48
0.1
 78
     7
140
0.12
141
0.0
146
0.71
147
0.06
176
   256
177
   256
178
     2
340
4741
  0
DIMSTYLE
105
4770
330
4717
100
AcDbSymbolTableRecord
100
AcDbDimStyleTableRecord
  2
AM_ANSI$SF
 70
     0
  4
mm
 41
0.12
 42
0.05
 43
0.5
 44
0.1
 47
0.1
 48
0.1
 75
     1
 76
     1
 78
     7
140
0.12
141
0.0
146
0.71
147
0.06
176
   256
177
   256
178
     2
340
4741
  0
DIMSTYLE
105
4771
330
4717
100
AcDbSymbolTableRecord
100
AcDbDimStyleTableRecord
  2
AM_ANSI$SH
 70
     0
  4
mm
 41
0.12
 42
0.05
 43
0.5
 44
0.1
 47
0.1
 48
0.1
 75
     1
 76
     1
 78
     7
140
0.12
141
0.0
146
0.71
147
0.06
173
     1
176
   256
177
   256
178
     2
340
4741
341
4777
343
4777
  0
ENDTAB
  0
TABLE
  2
BLOCK_RECORD
  5
470E
330
0
100
AcDbSymbolTable
 70
     3
  0
BLOCK_RECORD
  5
4729
330
470E
100
AcDbSymbolTableRecord
100
AcDbBlockTableRecord
  2
*Model_Space
340
472A
 70
     0
280
     1
281
     0
  0
BLOCK_RECORD
  5
4727
330
470E
100
AcDbSymbolTableRecord
100
AcDbBlockTableRecord
  2
*Paper_Space
340
4728
 70
     0
280
     1
281
     0
  0
BLOCK_RECORD
  5
4775
330
470E
100
AcDbSymbolTableRecord
100
AcDbBlockTableRecord
  2
_OPEN
340
0
 70
     0
280
     1
281
     0
  0
BLOCK_RECORD
  5
4777
330
470E
100
AcDbSymbolTableRecord
100
AcDbBlockTableRecord
  2
GENAXEH
340
0
 70
     0
280
     1
281
     0
  0
BLOCK_RECORD
  5
4779
330
470E
100
AcDbSymbolTableRecord
100
AcDbBlockTableRecord
  2
_ACMFILLEDHALF
340
0
 70
     0
280
     1
281
     0
  0
ENDTAB
  0
ENDSEC
  0
SECTION
  2
BLOCKS
  0
BLOCK
  5
4772
330
4729
100
AcDbEntity
  8
0
100
AcDbBlockBegin
  2
*Model_Space
 70
     0
 10
0.0
 20
0.0
 30
0.0
  3
*Model_Space
  1

  0
ENDBLK
  5
45C6
330
4729
100
AcDbEntity
  8
0
100
AcDbBlockEnd
  0
BLOCK
  5
4773
330
4727
100
AcDbEntity
 67
     1
  8
0
100
AcDbBlockBegin
  2
*Paper_Space
 70
     0
 10
0.0
 20
0.0
 30
0.0
  3
*Paper_Space
  1

  0
ENDBLK
  5
45C2
330
4727
100
AcDbEntity
 67
     1
  8
0
100
AcDbBlockEnd
  0
BLOCK
  5
4774
330
4775
100
AcDbEntity
  8
0
100
AcDbBlockBegin
  2
_OPEN
 70
     0
 10
0.0
 20
0.0
 30
0.0
  3
_OPEN
  1

  0
LINE
  5
4453
330
4775
100
AcDbEntity
  8
0
  6
ByBlock
 62
     0
100
AcDbLine
 10
-1.0
 20
0.1666666666666666
 30
0.0
 11
0.0
 21
0.0
 31
0.0
  0
LINE
  5
4454
330
4775
100
AcDbEntity
  8
0
  6
ByBlock
 62
     0
100
AcDbLine
 10
-1.0
 20
-0.1666666666666666
 30
0.0
 11
0.0
 21
0.0
 31
0.0
  0
LINE
  5
4455
330
4775
100
AcDbEntity
  8
0
  6
ByBlock
 62
     0
100
AcDbLine
 10
0.0
 20
0.0
 30
0.0
 11
-1.0
 21
0.0
 31
0.0
  0
ENDBLK
  5
4456
330
4775
100
AcDbEntity
  8
0
100
AcDbBlockEnd
  0
BLOCK
  5
4776
330
4777
100
AcDbEntity
  8
0
100
AcDbBlockBegin
  2
GENAXEH
 70
     0
 10
0.0
 20
0.0
 30
0.0
  3
GENAXEH
  1

  0
LINE
  5
448E
330
4777
100
AcDbEntity
  8
0
100
AcDbLine
 10
-1.0
 20
0.0
 30
0.0
 11
1.0
 21
0.0
 31
0.0
  0
ENDBLK
  5
448F
330
4777
100
AcDbEntity
  8
0
100
AcDbBlockEnd
  0
BLOCK
  5
4778
330
4779
100
AcDbEntity
  8
0
100
AcDbBlockBegin
  2
_ACMFILLEDHALF
 70
     0
 10
0.0
 20
0.0
 30
0.0
  3
_ACMFILLEDHALF
  1

  0
TRACE
  5
4687
330
4779
100
AcDbEntity
  8
240
 62
     0
100
AcDbTrace
 10
-0.8
 20
0.0
 30
0.0
 11
-1.0
 21
0.166666666
 31
0.0
 12
0.0
 22
0.0
 32
0.0
 13
0.0
 23
0.0
 33
0.0
  0
LINE
  5
4688
330
4779
100
AcDbEntity
  8
240
 62
     0
100
AcDbLine
 10
-1.0
 20
0.0
 30
0.0
 11
-0.8
 21
0.0
 31
0.0
  0
ENDBLK
  5
4686
330
4779
100
AcDbEntity
  8
0
100
AcDbBlockEnd
  0
ENDSEC
  0
SECTION
  2
ENTITIES
  0
LINE
  5
4282
330
4729
100
AcDbEntity
  8
245
  6
CENTER2
100
AcDbLine
 10
-21.0
 20
0.0
 30
0.0
 11
74.86823337522537
 21
0.0
 31
0.0
  0
LINE
  5
4283
330
4729
100
AcDbEntity
  8
241
  6
Continuous
100
AcDbLine
 10
15.0
 20
12.0
 30
0.0
 11
8.0
 21
12.0
 31
0.0
  0
LINE
  5
4284
330
4729
100
AcDbEntity
  8
243
  6
HIDDEN2
100
AcDbLine
 10
20.0
 20
-17.0
 30
0.0
 11
8.0
 21
-17.0
 31
0.0
  0
LINE
  5
4285
330
4729
100
AcDbEntity
  8
240
  6
Continuous
100
AcDbLine
 10
0.0
 20
-20.0
 30
0.0
 11
13.97927405999996
 21
-20.0
 31
0.0
  0
LINE
  5
4286
330
4729
100
AcDbEntity
  8
243
  6
HIDDEN2
100
AcDbLine
 10
20.0
 20
17.0
 30
0.0
 11
8.0
 21
17.0
 31
0.0
  0
LINE
  5
4287
330
4729
100
AcDbEntity
  8
240
  6
Continuous
100
AcDbLine
 10
0.0
 20
20.0
 30
0.0
 11
13.97927405999996
 21
20.0
 31
0.0
  0
ARC
  5
4288
330
4729
100
AcDbEntity
  8
241
  6
Continuous
100
AcDbCircle
 10
12.47213594999999
 20
11.5
 30
0.0
 40
4.5
100
AcDbArc
 50
90.0
 51
173.6206297900019
  0
LINE
  5
4289
330
4729
100
AcDbEntity
  8
240
  6
Continuous
100
AcDbLine
 10
0.0
 20
-15.19999999999999
 30
0.0
 11
-20.0
 21
-14.19999999999999
 31
0.0
  0
LINE
  5
428A
330
4729
100
AcDbEntity
  8
240
  6
Continuous
100
AcDbLine
 10
-20.0
 20
14.19999999999999
 30
0.0
 11
-20.0
 21
-14.19999999999999
 31
0.0
  0
LINE
  5
428B
330
4729
100
AcDbEntity
  8
241
  6
Continuous
100
AcDbLine
 10
0.0
 20
15.19999999999999
 30
0.0
 11
0.0000000000000284
 21
-15.20000000000004
 31
0.0
  0
LINE
  5
428C
330
4729
100
AcDbEntity
  8
240
  6
Continuous
100
AcDbLine
 10
0.0
 20
-15.19999999999999
 30
0.0
 11
0.0
 21
-20.0
 31
0.0
  0
LINE
  5
428D
330
4729
100
AcDbEntity
  8
243
  6
HIDDEN2
100
AcDbLine
 10
8.0
 20
-20.0
 30
0.0
 11
8.0
 21
-17.0
 31
0.0
  0
LINE
  5
428E
330
4729
100
AcDbEntity
  8
240
  6
Continuous
100
AcDbLine
 10
0.0
 20
15.19999999999999
 30
0.0
 11
-20.0
 21
14.19999999999999
 31
0.0
  0
LINE
  5
428F
330
4729
100
AcDbEntity
  8
243
  6
HIDDEN2
100
AcDbLine
 10
-11.99735026999997
 20
10.5
 30
0.0
 11
-20.0
 21
10.5
 31
0.0
  0
LINE
  5
4290
330
4729
100
AcDbEntity
  8
243
  6
HIDDEN2
100
AcDbLine
 10
-16.5
 20
14.375
 30
0.0
 11
-16.5
 21
10.5
 31
0.0
  0
ARC
  5
4291
330
4729
100
AcDbEntity
  8
243
  6
HIDDEN2
100
AcDbCircle
 10
-3.932975660000007
 20
7.75
 30
0.0
 40
4.999999999272881
100
AcDbArc
 50
39.05012253000152
 51
89.99999998999806
  0
LINE
  5
4292
330
4729
100
AcDbEntity
  8
243
  6
HIDDEN2
100
AcDbLine
 10
-8.300000000000011
 20
12.75
 30
0.0
 11
-8.300000000000011
 21
14.78499999999996
 31
0.0
1001
GRPNAME
1000
PASTMD1U
  0
LINE
  5
4293
330
4729
100
AcDbEntity
  8
245
  6
CENTER2
100
AcDbLine
 10
-6.0
 20
11.97724321596047
 30
0.0
 11
-6.0
 21
15.42029699428588
 31
0.0
1001
GRPNAME
1000
PASTMD1U
  0
LINE
  5
4294
330
4729
100
AcDbEntity
  8
243
  6
HIDDEN2
100
AcDbLine
 10
-3.699999999999988
 20
12.75
 30
0.0
 11
-3.699999999999988
 21
15.01499999999998
 31
0.0
1001
GRPNAME
1000
PASTMD1U
  0
LINE
  5
4295
330
4729
100
AcDbEntity
  8
243
  6
HIDDEN2
100
AcDbLine
 10
-3.932975660000007
 20
12.75
 30
0.0
 11
-10.69831216
 21
12.75
 31
0.0
  0
LINE
  5
4296
330
4729
100
AcDbEntity
  8
243
  6
HIDDEN2
100
AcDbLine
 10
-11.99735026999997
 20
10.5
 30
0.0
 11
-10.69831216
 21
12.75
 31
0.0
  0
LINE
  5
4297
330
4729
100
AcDbEntity
  8
240
  6
Continuous
100
AcDbLine
 10
0.0
 20
15.19999999999999
 30
0.0
 11
0.0
 21
20.0
 31
0.0
  0
LINE
  5
4298
330
4729
100
AcDbEntity
  8
243
  6
HIDDEN2
100
AcDbLine
 10
8.0
 20
17.0
 30
0.0
 11
8.0
 21
20.0
 31
0.0
  0
LINE
  5
4299
330
4729
100
AcDbEntity
  8
241
  6
Continuous
100
AcDbLine
 10
20.0
 20
-16.80000000000001
 30
0.0
 11
20.0
 21
16.80000000000001
 31
0.0
  0
LINE
  5
429A
330
4729
100
AcDbEntity
  8
241
  6
Continuous
100
AcDbLine
 10
17.0
 20
-17.39999999999997
 30
0.0
 11
17.0
 21
17.39999999999997
 31
0.0
  0
LINE
  5
429B
330
4729
100
AcDbEntity
  8
241
  6
Continuous
100
AcDbLine
 10
15.0
 20
-17.39999999999997
 30
0.0
 11
15.0
 21
17.39999999999997
 31
0.0
  0
LINE
  5
429C
330
4729
100
AcDbEntity
  8
241
  6
Continuous
100
AcDbLine
 10
18.02072594000003
 20
12.0
 30
0.0
 11
18.02072594000003
 21
-20.0
 31
0.0
  0
LINE
  5
429D
330
4729
100
AcDbEntity
  8
241
  6
Continuous
100
AcDbLine
 10
13.97927405999996
 20
12.0
 30
0.0
 11
13.97927405999996
 21
-20.0
 31
0.0
  0
LINE
  5
429E
330
4729
100
AcDbEntity
  8
240
  6
Continuous
100
AcDbLine
 10
20.0
 20
-16.80000000000001
 30
0.0
 11
27.50000000000002
 21
-16.80000000000001
 31
0.0
1001
GRPNAME
1000
PASTMD1U
  0
LINE
  5
429F
330
4729
100
AcDbEntity
  8
240
  6
Continuous
100
AcDbLine
 10
15.0
 20
-17.39999999999997
 30
0.0
 11
15.0
 21
-18.23205081000002
 31
0.0
  0
LINE
  5
42A0
330
4729
100
AcDbEntity
  8
240
  6
Continuous
100
AcDbLine
 10
17.0
 20
-18.23205081000002
 30
0.0
 11
17.0
 21
-17.39999999999997
 31
0.0
  0
LINE
  5
42A1
330
4729
100
AcDbEntity
  8
240
  6
Continuous
100
AcDbLine
 10
20.0
 20
-16.80000000000001
 30
0.0
 11
20.0
 21
-20.0
 31
0.0
  0
LINE
  5
42A2
330
4729
100
AcDbEntity
  8
240
  6
Continuous
100
AcDbLine
 10
15.0
 20
-18.23205081000002
 30
0.0
 11
13.97927405999996
 21
-20.0
 31
0.0
  0
LINE
  5
42A3
330
4729
100
AcDbEntity
  8
240
  6
Continuous
100
AcDbLine
 10
17.0
 20
-18.23205081000002
 30
0.0
 11
18.02072594000003
 21
-20.0
 31
0.0
  0
LINE
  5
42A4
330
4729
100
AcDbEntity
  8
240
  6
Continuous
100
AcDbLine
 10
18.02072594000003
 20
-20.0
 30
0.0
 11
20.0
 21
-20.0
 31
0.0
  0
LINE
  5
42A5
330
4729
100
AcDbEntity
  8
240
  6
Continuous
100
AcDbLine
 10
15.0
 20
-17.39999999999997
 30
0.0
 11
17.0
 21
-17.39999999999997
 31
0.0
  0
LINE
  5
42A6
330
4729
100
AcDbEntity
  8
240
  6
Continuous
100
AcDbLine
 10
20.0
 20
16.80000000000001
 30
0.0
 11
27.50000000000002
 21
16.80000000000001
 31
0.0
1001
GRPNAME
1000
PASTMD1U
  0
LINE
  5
42A7
330
4729
100
AcDbEntity
  8
241
  6
Continuous
100
AcDbLine
 10
18.02072594000003
 20
16.0
 30
0.0
 11
17.0
 21
13.0
 31
0.0
  0
LINE
  5
42A8
330
4729
100
AcDbEntity
  8
241
  6
Continuous
100
AcDbLine
 10
15.0
 20
13.0
 30
0.0
 11
13.97927405999996
 21
16.0
 31
0.0
  0
LINE
  5
42A9
330
4729
100
AcDbEntity
  8
241
  6
Continuous
100
AcDbLine
 10
20.0
 20
12.0
 30
0.0
 11
17.0
 21
12.0
 31
0.0
  0
LINE
  5
42AA
330
4729
100
AcDbEntity
  8
240
  6
Continuous
100
AcDbLine
 10
15.0
 20
17.39999999999997
 30
0.0
 11
17.0
 21
17.39999999999997
 31
0.0
  0
LINE
  5
42AB
330
4729
100
AcDbEntity
  8
240
  6
Continuous
100
AcDbLine
 10
15.0
 20
18.23205081000002
 30
0.0
 11
13.97927405999996
 21
20.0
 31
0.0
  0
LINE
  5
42AC
330
4729
100
AcDbEntity
  8
241
  6
Continuous
100
AcDbLine
 10
13.97927405999996
 20
20.0
 30
0.0
 11
13.97927405999996
 21
16.0
 31
0.0
  0
LINE
  5
42AD
330
4729
100
AcDbEntity
  8
241
  6
Continuous
100
AcDbLine
 10
13.97927405999996
 20
16.0
 30
0.0
 11
12.47213594999999
 21
16.0
 31
0.0
  0
LINE
  5
42AE
330
4729
100
AcDbEntity
  8
240
  6
Continuous
100
AcDbLine
 10
15.0
 20
17.39999999999997
 30
0.0
 11
15.0
 21
18.23205081000002
 31
0.0
  0
LINE
  5
42AF
330
4729
100
AcDbEntity
  8
240
  6
Continuous
100
AcDbLine
 10
17.0
 20
18.23205081000002
 30
0.0
 11
18.02072594000003
 21
20.0
 31
0.0
  0
LINE
  5
42B0
330
4729
100
AcDbEntity
  8
240
  6
Continuous
100
AcDbLine
 10
20.0
 20
16.80000000000001
 30
0.0
 11
20.0
 21
20.0
 31
0.0
  0
LINE
  5
42B1
330
4729
100
AcDbEntity
  8
241
  6
Continuous
100
AcDbLine
 10
18.02072594000003
 20
20.0
 30
0.0
 11
18.02072594000003
 21
16.0
 31
0.0
  0
LINE
  5
42B2
330
4729
100
AcDbEntity
  8
240
  6
Continuous
100
AcDbLine
 10
17.0
 20
18.23205081000002
 30
0.0
 11
17.0
 21
17.39999999999997
 31
0.0
  0
LINE
  5
42B3
330
4729
100
AcDbEntity
  8
241
  6
Continuous
100
AcDbLine
 10
20.0
 20
16.0
 30
0.0
 11
18.02072594000003
 21
16.0
 31
0.0
  0
LINE
  5
42B4
330
4729
100
AcDbEntity
  8
240
  6
Continuous
100
AcDbLine
 10
18.02072594000003
 20
20.0
 30
0.0
 11
20.0
 21
20.0
 31
0.0
  0
LINE
  5
42B5
330
4729
100
AcDbEntity
  8
250
  6
Continuous
100
AcDbLine
 10
-12.43687277352973
 20
-16.39540331785798
 30
0.0
 11
-10.99999999859278
 21
-14.6500000006398
 31
0.0
  0
LINE
  5
42B6
330
4729
100
AcDbEntity
  8
250
  6
Continuous
100
AcDbLine
 10
-11.7931272233543
 20
-16.76706998447435
 30
0.0
 11
-10.99999999859278
 21
-14.6500000006398
 31
0.0
  0
LINE
  5
42B7
330
4729
100
AcDbEntity
  8
250
  6
Continuous
100
AcDbLine
 10
-10.99999999859278
 20
-14.6500000006398
 30
0.0
 11
-12.11499999844204
 21
-16.58123665116619
 31
0.0
  0
LWPOLYLINE
  5
42B8
330
4729
100
AcDbEntity
  8
250
  6
Continuous
100
AcDbPolyline
 90
        2
 70
     0
 43
0.0
 10
-12.11499999844204
 20
-16.58123665116619
 10
-15.67707832859275
 20
-22.75093730063986
1001
ACAD
1000
DSTYLE
1002
{
1070
     6
1000
OPEN
1070
   343
1005
0
1002
}
  0
LINE
  5
42BC
330
4729
100
AcDbEntity
  8
250
  6
Continuous
100
AcDbLine
 10
-15.67707832859275
 20
-22.75093730063986
 30
0.0
 11
-39.94374499859276
 21
-22.75093730063986
 31
0.0
1001
ITEMNAME
1000
LNSP2
  0
TEXT
  5
42BD
330
4729
100
AcDbEntity
  8
250
  6
Continuous
100
AcDbText
 10
-37.67707833192611
 20
-21.75093730063986
 30
0.0
 40
2.799999999999998
  1
HSK-A40
  7
YOKO
100
AcDbText
1001
ITEMNAME
1000
LNSP3
  0
LINE
  5
42BE
330
4729
100
AcDbEntity
  8
247
  6
Continuous
100
AcDbLine
 10
6.499999999999943
 20
-10.75
 30
0.0
 11
6.5
 21
-6.115384615669992
 31
0.0
  0
LINE
  5
42BF
330
4729
100
AcDbEntity
  8
247
  6
Continuous
100
AcDbLine
 10
4.0
 20
-9.954893499987975
 30
0.0
 11
6.099999999916008
 21
-10.55705881005735
 31
0.0
  0
LINE
  5
42C0
330
4729
100
AcDbEntity
  8
247
  6
Continuous
100
AcDbLine
 10
4.996153846113998
 20
-9.325151403519042
 30
0.0
 11
4.996153846113998
 21
-10.24053601886703
 31
0.0
  0
ARC
  5
42C1
330
4729
100
AcDbEntity
  8
247
  6
Continuous
100
AcDbCircle
 10
4.384719067294096
 20
-9.08726340194681
 30
0.0
 40
0.3876715809326743
100
AcDbArc
 50
72.9978896752922
 51
172.9241662185136
  0
ARC
  5
42C2
330
4729
100
AcDbEntity
  8
247
  6
Continuous
100
AcDbCircle
 10
4.305223131028014
 20
-9.382477556804131
 30
0.0
 40
0.693304796535877
100
AcDbArc
 50
4.742936852198963
 51
73.84922627326675
1001
GENIUS_GENOBJ-N-FIL_13
1002
{
1000
OWNER
1000
GEN
1002
}
1001
GENIUS_GENODEF_13
1002
{
1000
HIER
1070
     0
1002
}
1002
{
1000
MANEDIT
1070
     0
1002
}
1002
{
1000
NOSEL
1070
     0
1002
}
1002
{
1000
BEHIND
1070
     0
1002
}
1002
{
1000
OTHER
1070
     0
1002
}
1002
{
1000
REACTOR
1002
}
  0
LINE
  5
42C3
330
4729
100
AcDbEntity
  8
247
  6
Continuous
100
AcDbLine
 10
6.099999999916008
 20
-9.641674194709363
 30
0.0
 11
6.099999999916008
 21
-10.55705881005735
 31
0.0
  0
LINE
  5
42C4
330
4729
100
AcDbEntity
  8
247
  6
Continuous
100
AcDbLine
 10
4.0
 20
-9.954893499987975
 30
0.0
 11
4.0
 21
-9.039508884639927
 31
0.0
  0
ARC
  5
42C5
330
4729
100
AcDbEntity
  8
247
  6
Continuous
100
AcDbCircle
 10
5.387416962767871
 20
-9.378306476266856
 30
0.0
 40
0.394857301075386
100
AcDbArc
 50
65.99094165252889
 51
172.2634434590691
  0
ARC
  5
42C6
330
4729
100
AcDbEntity
  8
247
  6
Continuous
100
AcDbCircle
 10
5.391200327332566
 20
-9.712446610426923
 30
0.0
 40
0.7123241612361686
100
AcDbArc
 50
5.701985164256464
 51
77.277338436822
1001
GENIUS_GENOBJ-N-FIL_13
1002
{
1000
OWNER
1000
GEN
1002
}
1001
GENIUS_GENODEF_13
1002
{
1000
HIER
1070
     0
1002
}
1002
{
1000
MANEDIT
1070
     0
1002
}
1002
{
1000
NOSEL
1070
     0
1002
}
1002
{
1000
BEHIND
1070
     0
1002
}
1002
{
1000
OTHER
1070
     0
1002
}
1002
{
1000
REACTOR
1002
}
  0
LINE
  5
42C7
330
4729
100
AcDbEntity
  8
247
  6
Continuous
100
AcDbLine
 10
6.099999999916008
 20
-8.683981887063394
 30
0.0
 11
4.0
 21
-8.081816576993958
 31
0.0
  0
LINE
  5
42C8
330
4729
100
AcDbEntity
  8
247
  6
Continuous
100
AcDbLine
 10
4.0
 20
-6.585662730907984
 30
0.0
 11
4.0
 21
-6.981678364303546
 31
0.0
  0
LINE
  5
42C9
330
4729
100
AcDbEntity
  8
247
  6
Continuous
100
AcDbLine
 10
6.099999999916008
 20
-7.608739653943985
 30
0.0
 11
6.099999999916008
 21
-7.177970423191935
 31
0.0
  0
ARC
  5
42CA
330
4729
100
AcDbEntity
  8
247
  6
Continuous
100
AcDbCircle
 10
5.458299595083357
 20
-6.381816577069968
 30
0.0
 40
1.576855057639547
100
AcDbArc
 50
202.3594881415291
 51
254.9932485428465
  0
ARC
  5
42CB
330
4729
100
AcDbEntity
  8
247
  6
Continuous
100
AcDbCircle
 10
4.565818858538134
 20
-6.847511366133232
 30
0.0
 40
0.6234706797009447
100
AcDbArc
 50
94.99458931907532
 51
155.1663289573039
1001
GENIUS_GENOBJ-N-FIL_13
1002
{
1000
OWNER
1000
GEN
1002
}
1001
GENIUS_GENODEF_13
1002
{
1000
HIER
1070
     0
1002
}
1002
{
1000
MANEDIT
1070
     0
1002
}
1002
{
1000
NOSEL
1070
     0
1002
}
1002
{
1000
BEHIND
1070
     0
1002
}
1002
{
1000
OTHER
1070
     0
1002
}
1002
{
1000
REACTOR
1002
}
  0
ARC
  5
42CC
330
4729
100
AcDbEntity
  8
247
  6
Continuous
100
AcDbCircle
 10
5.162102121969438
 20
-7.444183951032755
 30
0.0
 40
0.9749472149106982
100
AcDbArc
 50
15.8460965557808
 51
82.32513700416929
  0
ARC
  5
42CD
330
4729
100
AcDbEntity
  8
247
  6
Continuous
100
AcDbCircle
 10
5.371470401971063
 20
-7.035211638772238
 30
0.0
 40
0.9271945638692008
100
AcDbArc
 50
249.7136016704969
 51
321.7887456564105
1001
GENIUS_GENOBJ-N-FIL_13
1002
{
1000
OWNER
1000
GEN
1002
}
1001
GENIUS_GENODEF_13
1002
{
1000
HIER
1070
     0
1002
}
1002
{
1000
MANEDIT
1070
     0
1002
}
1002
{
1000
NOSEL
1070
     0
1002
}
1002
{
1000
BEHIND
1070
     0
1002
}
1002
{
1000
OTHER
1070
     0
1002
}
1002
{
1000
REACTOR
1002
}
  0
LINE
  5
42CE
330
4729
100
AcDbEntity
  8
247
  6
Continuous
100
AcDbLine
 10
5.292307692255974
 20
-6.962585807815966
 30
0.0
 11
5.292307692255974
 21
-6.477970423219971
 31
0.0
  0
ARC
  5
42CF
330
4729
100
AcDbEntity
  8
247
  6
Continuous
100
AcDbCircle
 10
5.25
 20
-10.75
 30
0.0
 40
1.25
100
AcDbArc
 50
180.0
 51
0.0
  0
LINE
  5
42D0
330
4729
100
AcDbEntity
  8
247
  6
Continuous
100
AcDbLine
 10
4.0
 20
-10.75
 30
0.0
 11
4.0
 21
-10.30384615391398
 31
0.0
  0
ARC
  5
42D1
330
4729
100
AcDbEntity
  8
247
  6
Continuous
100
AcDbCircle
 10
5.25
 20
-6.115384615669992
 30
0.0
 40
1.25
100
AcDbArc
 50
0.0
 51
180.0
  0
LINE
  5
42D2
330
4729
100
AcDbEntity
  8
243
  6
HIDDEN2
100
AcDbLine
 10
-11.99735026999997
 20
-10.5
 30
0.0
 11
-20.0
 21
-10.5
 31
0.0
  0
LINE
  5
42D3
330
4729
100
AcDbEntity
  8
243
  6
HIDDEN2
100
AcDbLine
 10
-14.0
 20
-14.5
 30
0.0
 11
-14.0
 21
-10.5
 31
0.0
  0
ARC
  5
42D4
330
4729
100
AcDbEntity
  8
243
  6
HIDDEN2
100
AcDbCircle
 10
-3.932975660000007
 20
-7.75
 30
0.0
 40
4.999999999272881
100
AcDbArc
 50
270.0000000099985
 51
320.9498774699985
  0
LINE
  5
42D5
330
4729
100
AcDbEntity
  8
243
  6
HIDDEN2
100
AcDbLine
 10
-8.300000000000011
 20
-12.75
 30
0.0
 11
-8.300000000000011
 21
-14.78499999999996
 31
0.0
1001
GRPNAME
1000
PASTMD1U
  0
LINE
  5
42D6
330
4729
100
AcDbEntity
  8
245
  6
CENTER2
100
AcDbLine
 10
-6.0
 20
-11.97724321596047
 30
0.0
 11
-6.0
 21
-15.42029699428588
 31
0.0
1001
GRPNAME
1000
PASTMD1U
  0
LINE
  5
42D7
330
4729
100
AcDbEntity
  8
243
  6
HIDDEN2
100
AcDbLine
 10
-3.699999999999988
 20
-12.75
 30
0.0
 11
-3.699999999999988
 21
-15.01499999999998
 31
0.0
1001
GRPNAME
1000
PASTMD1U
  0
LINE
  5
42D8
330
4729
100
AcDbEntity
  8
243
  6
HIDDEN2
100
AcDbLine
 10
-3.932975660000007
 20
-12.75
 30
0.0
 11
-10.69831216
 21
-12.75
 31
0.0
  0
LINE
  5
42D9
330
4729
100
AcDbEntity
  8
243
  6
HIDDEN2
100
AcDbLine
 10
-11.99735026999997
 20
-10.5
 30
0.0
 11
-10.69831216
 21
-12.75
 31
0.0
  0
LINE
  5
42E4
330
4729
100
AcDbEntity
  8
240
  6
Continuous
100
AcDbLine
 10
72.50000000000001
 20
-9.5
 30
0.0
 11
72.50000000000001
 21
9.5
 31
0.0
1001
GRPNAME
1000
PASTMD0K
  0
LINE
  5
42E5
330
4729
100
AcDbEntity
  8
240
  6
Continuous
100
AcDbLine
 10
72.50000000000001
 20
-9.5
 30
0.0
 11
31.5000000000001
 21
-9.5
 31
0.0
1001
GRPNAME
1000
PASTMD0K
  0
LINE
  5
42E6
330
4729
100
AcDbEntity
  8
240
  6
Continuous
100
AcDbLine
 10
72.50000000000001
 20
9.5
 30
0.0
 11
31.50000000000009
 21
9.5
 31
0.0
1001
GRPNAME
1000
PASTMD0K
  0
LINE
  5
42ED
330
4729
100
AcDbEntity
  8
240
  6
Continuous
100
AcDbLine
 10
27.5000000000001
 20
13.4999999999999
 30
0.0
 11
27.50000000000002
 21
16.80000000000001
 31
0.0
  0
ARC
  5
42EE
330
4729
100
AcDbEntity
  8
240
  6
Continuous
100
AcDbCircle
 10
31.50000000000009
 20
13.5
 30
0.0
 40
4.0
100
AcDbArc
 50
180.0000000000013
 51
270.0
1001
GRPNAME
1000
PASTMD0K
1001
GENIUS_GENOBJ-N-FIL_13
1002
{
1000
OWNER
1000
GEN
1002
}
1001
GENIUS_GENODEF_13
1002
{
1000
HIER
1070
     0
1002
}
1002
{
1000
MANEDIT
1070
     0
1002
}
1002
{
1000
NOSEL
1070
     0
1002
}
1002
{
1000
BEHIND
1070
     0
1002
}
1002
{
1000
OTHER
1070
     0
1002
}
1002
{
1000
REACTOR
1002
}
  0
ARC
  5
42F0
330
4729
100
AcDbEntity
  8
240
  6
Continuous
100
AcDbCircle
 10
31.50000000000009
 20
-13.5
 30
0.0
 40
4.0
100
AcDbArc
 50
89.99999999999994
 51
179.9999999999987
1001
GRPNAME
1000
PASTMD0K
1001
GENIUS_GENOBJ-N-FIL_13
1002
{
1000
OWNER
1000
GEN
1002
}
1001
GENIUS_GENODEF_13
1002
{
1000
HIER
1070
     0
1002
}
1002
{
1000
MANEDIT
1070
     0
1002
}
1002
{
1000
NOSEL
1070
     0
1002
}
1002
{
1000
BEHIND
1070
     0
1002
}
1002
{
1000
OTHER
1070
     0
1002
}
1002
{
1000
REACTOR
1002
}
  0
LINE
  5
42F1
330
4729
100
AcDbEntity
  8
240
  6
Continuous
100
AcDbLine
 10
27.5000000000001
 20
-13.4999999999999
 30
0.0
 11
27.50000000000002
 21
-16.80000000000001
 31
0.0
  0
LINE
  5
42F9
330
4729
100
AcDbEntity
  8
241
  6
Continuous
100
AcDbLine
 10
27.50000000000009
 20
-13.4999999999999
 30
0.0
 11
27.50000000000009
 21
13.4999999999999
 31
0.0
  0
TEXT
  5
4321
330
4729
100
AcDbEntity
  8
241
  6
Continuous
100
AcDbText
 10
-20.0
 20
43.66666666666666
 30
0.0
 40
5.0
  1
HSK-A40-CKB1-73
  7
YOKO
 11
-20.0
 21
42.0
 31
0.0
100
AcDbText
 73
     1
1001
GRPNAME
1000
PASTMD0I
  0
LINE
  5
4322
330
4729
100
AcDbEntity
  8
250
  6
Continuous
100
AcDbLine
 10
74.63323501000004
 20
21.69794516
 30
0.0
 11
86.89990167999999
 21
21.69794516
 31
0.0
1001
ITEMNAME
1000
LNSP2
  0
LINE
  5
4323
330
4729
100
AcDbEntity
  8
250
  6
Continuous
100
AcDbLine
 10
69.02762086489227
 20
11.24540331725494
 30
0.0
 11
67.59074809000002
 21
9.5
 31
0.0
  0
LINE
  5
4324
330
4729
100
AcDbEntity
  8
250
  6
Continuous
100
AcDbLine
 10
68.3838753147073
 20
11.61706998385486
 30
0.0
 11
67.59074809000002
 21
9.5
 31
0.0
  0
LINE
  5
4325
330
4729
100
AcDbEntity
  8
250
  6
Continuous
100
AcDbLine
 10
67.59074809000002
 20
9.5
 30
0.0
 11
68.70574808979978
 21
11.4312366505549
 31
0.0
  0
LWPOLYLINE
  5
4326
330
4729
100
AcDbEntity
  8
250
  6
Continuous
100
AcDbPolyline
 90
        2
 70
     0
 43
0.0
 10
68.70574808979978
 20
11.4312366505549
 10
74.63323501000004
 20
21.69794516
1001
ACAD
1000
DSTYLE
1002
{
1070
     6
1000
OPEN
1002
}
  0
TEXT
  5
4327
330
4729
100
AcDbEntity
  8
250
  6
Continuous
100
AcDbText
 10
77.03323501000001
 20
22.69794516
 30
0.0
 40
2.799999999999998
  1
CK1
  7
YOKO
100
AcDbText
1001
ITEMNAME
1000
LNSP3
1001
ACAD
1000
MTEXTBEGIN
1070
    73
1070
     1
1070
    44
1040
1.0
1070
    74
1070
     0
1000
MTEXTEND
  0
LINE
  5
4328
330
4729
100
AcDbEntity
  8
250
  6
Continuous
100
AcDbLine
 10
73.00000000000001
 20
-9.500000000000025
 30
0.0
 11
83.64292951000003
 21
-9.500000000000025
 31
0.0
  0
LINE
  5
4329
330
4729
100
AcDbEntity
  8
250
  6
Continuous
100
AcDbLine
 10
73.00000000000001
 20
9.499999999999975
 30
0.0
 11
83.64292951000003
 21
9.499999999999975
 31
0.0
  0
LINE
  5
432A
330
4729
100
AcDbEntity
  8
250
  6
Continuous
100
AcDbLine
 10
82.64292950999999
 20
-7.27000000000002
 30
0.0
 11
82.64292950999999
 21
7.269999999999972
 31
0.0
  0
LINE
  5
432B
330
4729
100
AcDbEntity
  8
250
  6
Continuous
100
AcDbLine
 10
83.01459617666667
 20
-7.270000000000025
 30
0.0
 11
82.64292950999999
 21
-9.500000000000025
 31
0.0
  0
LINE
  5
432C
330
4729
100
AcDbEntity
  8
250
  6
Continuous
100
AcDbLine
 10
82.27126284333333
 20
-7.270000000000025
 30
0.0
 11
82.64292950999999
 21
-9.500000000000025
 31
0.0
  0
LINE
  5
432D
330
4729
100
AcDbEntity
  8
250
  6
Continuous
100
AcDbLine
 10
82.64292950999999
 20
-9.500000000000025
 30
0.0
 11
82.64292950999999
 21
-7.270000000000025
 31
0.0
  0
LINE
  5
432E
330
4729
100
AcDbEntity
  8
250
  6
Continuous
100
AcDbLine
 10
82.27126284333333
 20
7.269999999999977
 30
0.0
 11
82.64292950999999
 21
9.499999999999975
 31
0.0
  0
LINE
  5
432F
330
4729
100
AcDbEntity
  8
250
  6
Continuous
100
AcDbLine
 10
83.01459617666667
 20
7.269999999999977
 30
0.0
 11
82.64292950999999
 21
9.499999999999975
 31
0.0
  0
LINE
  5
4330
330
4729
100
AcDbEntity
  8
250
  6
Continuous
100
AcDbLine
 10
82.64292950999999
 20
9.499999999999975
 30
0.0
 11
82.64292950999999
 21
7.269999999999977
 31
0.0
  0
TEXT
  5
4331
330
4729
100
AcDbEntity
  8
250
  6
Continuous
100
AcDbText
 10
81.64292950999997
 20
-4.000272846666687
 30
0.0
 40
2.799999999999998
  1
∅
 50
90.0
100
AcDbText
1001
ACAD
1000
MTEXTBEGIN
1070
    73
1070
     1
1070
    44
1040
1.0
1070
    74
1070
     0
1000
MTEXTEND
  0
TEXT
  5
4332
330
4729
100
AcDbEntity
  8
250
  6
Continuous
100
AcDbText
 10
81.64292950999997
 20
-1.466939513333354
 30
0.0
 40
2.799999999999998
  1
19
 50
90.0
100
AcDbText
1001
ACAD
1000
MTEXTBEGIN
1070
    73
1070
     1
1070
    44
1040
1.0
1070
    74
1070
     0
1000
MTEXTEND
  0
LINE
  5
4333
330
4729
100
AcDbEntity
  8
250
  6
Continuous
100
AcDbLine
 10
0.0000000000000142
 20
20.49999999999998
 30
0.0
 11
0.0000000000000142
 21
29.0
 31
0.0
  0
LINE
  5
4334
330
4729
100
AcDbEntity
  8
250
  6
Continuous
100
AcDbLine
 10
72.50000000000001
 20
9.999999999999975
 30
0.0
 11
72.50000000000001
 21
29.0
 31
0.0
  0
LINE
  5
4335
330
4729
100
AcDbEntity
  8
250
  6
Continuous
100
AcDbLine
 10
2.230000000000012
 20
28.0
 30
0.0
 11
70.27000000000001
 21
28.0
 31
0.0
  0
LINE
  5
4336
330
4729
100
AcDbEntity
  8
250
  6
Continuous
100
AcDbLine
 10
2.230000000000012
 20
27.62833333333333
 30
0.0
 11
0.0000000000000142
 21
28.0
 31
0.0
  0
LINE
  5
4337
330
4729
100
AcDbEntity
  8
250
  6
Continuous
100
AcDbLine
 10
2.230000000000012
 20
28.37166666666666
 30
0.0
 11
0.0000000000000142
 21
28.0
 31
0.0
  0
LINE
  5
4338
330
4729
100
AcDbEntity
  8
250
  6
Continuous
100
AcDbLine
 10
0.0000000000000142
 20
28.0
 30
0.0
 11
2.230000000000012
 21
28.0
 31
0.0
  0
LINE
  5
4339
330
4729
100
AcDbEntity
  8
250
  6
Continuous
100
AcDbLine
 10
70.27000000000001
 20
28.37166666666666
 30
0.0
 11
72.50000000000001
 21
28.0
 31
0.0
  0
LINE
  5
433A
330
4729
100
AcDbEntity
  8
250
  6
Continuous
100
AcDbLine
 10
70.27000000000001
 20
27.62833333333333
 30
0.0
 11
72.50000000000001
 21
28.0
 31
0.0
  0
LINE
  5
433B
330
4729
100
AcDbEntity
  8
250
  6
Continuous
100
AcDbLine
 10
72.50000000000001
 20
28.0
 30
0.0
 11
70.27000000000001
 21
28.0
 31
0.0
  0
TEXT
  5
433C
330
4729
100
AcDbEntity
  8
250
  6
Continuous
100
AcDbText
 10
31.58333333333335
 20
29.0
 30
0.0
 40
2.799999999999998
  1
72.5
100
AcDbText
1001
ACAD
1000
MTEXTBEGIN
1070
    73
1070
     1
1070
    44
1040
1.0
1070
    74
1070
     0
1000
MTEXTEND
  0
LWPOLYLINE
  5
433D
330
4729
100
AcDbEntity
  8
241
  6
Continuous
100
AcDbPolyline
 90
        6
 70
     1
 43
0.0
 10
66.50000000000001
 20
-0.5773502700000241
 10
67.50000000000001
 20
-1.154700540000024
 10
68.50000000000001
 20
-0.5773502700000241
 10
68.50000000000001
 20
0.5773502699999761
 10
67.50000000000001
 20
1.154700539999975
 10
66.50000000000001
 20
0.5773502699999761
  0
CIRCLE
  5
433E
330
4729
100
AcDbEntity
  8
242
  6
Continuous
100
AcDbCircle
 10
67.50000000000001
 20
-0.000000000000024
 30
0.0
 40
1.75
  0
CIRCLE
  5
433F
330
4729
100
AcDbEntity
  8
241
  6
Continuous
100
AcDbCircle
 10
67.50000000000001
 20
-0.000000000000024
 30
0.0
 40
2.1
  0
LINE
  5
4340
330
4729
100
AcDbEntity
  8
245
  6
CENTER2
100
AcDbLine
 10
67.50000000000001
 20
3.099999999999976
 30
0.0
 11
67.50000000000001
 21
-3.100000000000024
 31
0.0
  0
LINE
  5
46AC
330
4729
100
AcDbEntity
  8
243
  6
HIDDEN2
100
AcDbLine
 10
72.5
 20
5.499999999999999
 30
0.0
 11
58.49999999999997
 21
5.499999999999999
 31
0.0
1001
GRPNAME
1000
PASTMD0K
  0
LINE
  5
46AD
330
4729
100
AcDbEntity
  8
243
  6
HIDDEN2
100
AcDbLine
 10
72.5
 20
-5.499999999999999
 30
0.0
 11
58.49999999999997
 21
-5.499999999999999
 31
0.0
1001
GRPNAME
1000
PASTMD0K
  0
VIEWPORT
  5
22
330
4727
100
AcDbEntity
 67
     1
  8
0
100
AcDbViewport
 10
261.5176991150442
 20
148.5
 30
0.0
 40
523.0353982300885
 41
297.0
 68
     1
 69
    -1
 12
261.5176991150442
 22
148.5
 13
0.0
 23
0.0
 14
1.0
 24
1.0
 15
10.0
 25
10.0
 16
0.0
 26
0.0
 36
1.0
 17
0.0
 27
0.0
 37
0.0
 42
50.0
 43
0.0
 44
0.0
 45
297.0
 50
0.0
 51
0.0
 72
   100
 90
   557216
  1

281
     0
 71
     0
 74
     0
110
0.0
120
0.0
130
0.0
111
1.0
121
0.0
131
0.0
112
0.0
122
1.0
132
0.0
 79
     0
146
0.0
170
     0
 61
     5
292
     1
282
     1
141
0.0
142
0.0
 63
   256
1001
GENIUS_GENODEF_13
1002
{
1000
HIER
1070
     0
1002
}
1002
{
1000
MANEDIT
1070
     0
1002
}
1002
{
1000
NOSEL
1070
     0
1002
}
1002
{
1000
BEHIND
1070
     0
1002
}
1002
{
1000
OTHER
1070
     0
1002
}
1002
{
1000
REACTOR
1002
}
1001
GENIUS_GENOBJ-N-SDF_13
1002
{
1000
OWNER
1000
GEN
1002
}
1001
GENIUS_GENSCREG_15
1000
PF
1040
1.0
1000
DF
1040
1.0
1000
MIN
1011
0.0
1021
0.0
1031
0.0
1000
MAX
1011
523.0353982300885
1021
297.0
1031
0.0
1000
FLAGS
1070
     4
  0
ENDSEC
  0
SECTION
  2
OBJECTS
  0
DICTIONARY
  5
4719
330
0
100
AcDbDictionary
281
     1
  3
ACAD_GROUP
350
471A
  3
ACAD_IMAGE_VARS
350
479F
  3
ACAD_LAYOUT
350
4726
  3
ACAD_MLEADERSTYLE
350
47A6
  3
ACAD_MLINESTYLE
350
4723
  3
ACAD_PLOTSETTINGS
350
4725
  3
ACAD_PLOTSTYLENAME
350
471B
  3
ACAD_SCALELIST
350
477A
  3
ACAD_TABLESTYLE
350
479C
  3
ACDB_RECOMPOSE_DATA
350
47A4
  3
AcDbVariableDictionary
350
47A0
  3
APPDATA
350
479E
  0
DICTIONARY
  5
471A
102
{ACAD_REACTORS
330
4719
102
}
330
4719
100
AcDbDictionary
281
     1
  0
RASTERVARIABLES
  5
479F
102
{ACAD_REACTORS
330
4719
102
}
330
4719
100
AcDbRasterVariables
 90
        0
 70
     1
 71
     1
 72
     0
  0
DICTIONARY
  5
4726
102
{ACAD_REACTORS
330
4719
102
}
330
4719
100
AcDbDictionary
281
     1
  3
Model
350
472A
  3
Sheet1
350
4728
  0
DICTIONARY
  5
47A6
102
{ACAD_REACTORS
330
4719
102
}
330
4719
100
AcDbDictionary
281
     1
  0
DICTIONARY
  5
4723
102
{ACAD_REACTORS
330
4719
102
}
330
4719
100
AcDbDictionary
281
     1
  3
Standard
350
4724
  0
DICTIONARY
  5
4725
102
{ACAD_REACTORS
330
4719
102
}
330
4719
100
AcDbDictionary
281
     1
  0
ACDBDICTIONARYWDFLT
  5
471B
102
{ACAD_REACTORS
330
4719
102
}
330
4719
100
AcDbDictionary
281
     1
  3
Normal
350
471C
100
AcDbDictionaryWithDefault
340
471C
  0
DICTIONARY
  5
477A
102
{ACAD_REACTORS
330
4719
102
}
330
4719
100
AcDbDictionary
281
     1
  3
A0
350
477B
  3
A1
350
477C
  3
A2
350
477D
  3
A3
350
477E
  3
A4
350
477F
  3
A5
350
4780
  3
A6
350
4781
  3
A7
350
4782
  3
A8
350
4783
  3
A9
350
4784
  3
B0
350
4785
  3
B1
350
4786
  3
B2
350
4787
  3
B3
350
4788
  3
B4
350
4789
  3
B5
350
478A
  3
B6
350
478B
  3
B7
350
478C
  3
B8
350
478D
  3
B9
350
478E
  3
C0
350
478F
  3
C1
350
4790
  3
C2
350
4791
  3
C3
350
4792
  3
C4
350
4793
  3
C5
350
4794
  3
C6
350
4795
  3
C7
350
4796
  3
C8
350
4797
  3
C9
350
4798
  3
D0
350
4799
  3
D1
350
479A
  3
D2
350
479B
  0
DICTIONARY
  5
479C
102
{ACAD_REACTORS
330
4719
102
}
330
4719
100
AcDbDictionary
281
     1
  3
Standard
350
479D
  0
XRECORD
  5
47A4
102
{ACAD_REACTORS
330
4719
102
}
330
4719
100
AcDbXrecord
280
     1
 90
        1
330
479D
  0
DICTIONARY
  5
47A0
102
{ACAD_REACTORS
330
4719
102
}
330
4719
100
AcDbDictionary
281
     1
  3
CANNOSCALE
350
47A1
  3
CTABLESTYLE
350
47A5
  0
DICTIONARY
  5
479E
102
{ACAD_REACTORS
330
4719
102
}
330
4719
100
AcDbDictionary
281
     1
  0
LAYOUT
  5
472A
102
{ACAD_REACTORS
330
4726
102
}
330
4726
100
AcDbPlotSettings
  1

  2
none_device
  4

  6

 40
0.0
 41
0.0
 42
0.0
 43
0.0
 44
0.0
 45
0.0
 46
0.0
 47
0.0
 48
0.0
 49
0.0
140
0.0
141
0.0
142
1.0
143
1.0
 70
  1712
 72
     0
 73
     0
 74
     0
  7

 75
     0
 76
     0
 77
     2
 78
   300
147
1.0
148
0.0
149
0.0
100
AcDbLayout
  1
Model
 70
     1
 71
     0
 10
0.0
 20
0.0
 11
12.0
 21
9.0
 12
0.0
 22
0.0
 32
0.0
 14
-39.94374499859276
 24
-22.75093730063986
 34
0.0
 15
86.89990167999999
 25
47.0
 35
0.0
146
0.0
 13
0.0
 23
0.0
 33
0.0
 16
1.0
 26
0.0
 36
0.0
 17
0.0
 27
1.0
 37
0.0
 76
     0
330
4729
331
472C
  0
LAYOUT
  5
4728
102
{ACAD_REACTORS
330
4726
102
}
330
4726
100
AcDbPlotSettings
  1

  2
none_device
  4

  6

 40
0.0
 41
0.0
 42
0.0
 43
0.0
 44
0.0
 45
0.0
 46
0.0
 47
0.0
 48
0.0
 49
0.0
140
0.0
141
0.0
142
1.0
143
1.0
 70
   688
 72
     0
 73
     0
 74
     5
  7

 75
    16
 76
     0
 77
     2
 78
   300
147
1.0
148
0.0
149
0.0
100
AcDbLayout
  1
Sheet1
 70
     1
 71
     1
 10
0.0
 20
0.0
 11
420.0
 21
297.0
 12
0.0
 22
0.0
 32
0.0
 14
1.000000000000000E+20
 24
1.000000000000000E+20
 34
1.000000000000000E+20
 15
-1.000000000000000E+20
 25
-1.000000000000000E+20
 35
-1.000000000000000E+20
146
0.0
 13
0.0
 23
0.0
 33
0.0
 16
1.0
 26
0.0
 36
0.0
 17
0.0
 27
1.0
 37
0.0
 76
     0
330
4727
331
22
  0
MLINESTYLE
  5
4724
102
{ACAD_REACTORS
330
4723
102
}
330
4723
100
AcDbMlineStyle
  2
Standard
 70
     0
  3

 62
   256
 51
90.0
 52
90.0
 71
     2
 49
0.5
 62
   256
  6
BYLAYER
 49
-0.5
 62
   256
  6
BYLAYER
  0
ACDBPLACEHOLDER
  5
471C
102
{ACAD_REACTORS
330
471B
102
}
330
471B
  0
SCALE
  5
477B
102
{ACAD_REACTORS
330
477A
102
}
330
477A
100
AcDbScale
 70
     0
300
1:1
140
1.0
141
1.0
290
     1
  0
SCALE
  5
477C
102
{ACAD_REACTORS
330
477A
102
}
330
477A
100
AcDbScale
 70
     0
300
1:2
140
1.0
141
2.0
290
     0
  0
SCALE
  5
477D
102
{ACAD_REACTORS
330
477A
102
}
330
477A
100
AcDbScale
 70
     0
300
1:4
140
1.0
141
4.0
290
     0
  0
SCALE
  5
477E
102
{ACAD_REACTORS
330
477A
102
}
330
477A
100
AcDbScale
 70
     0
300
1:5
140
1.0
141
5.0
290
     0
  0
SCALE
  5
477F
102
{ACAD_REACTORS
330
477A
102
}
330
477A
100
AcDbScale
 70
     0
300
1:8
140
1.0
141
8.0
290
     0
  0
SCALE
  5
4780
102
{ACAD_REACTORS
330
477A
102
}
330
477A
100
AcDbScale
 70
     0
300
1:10
140
1.0
141
10.0
290
     0
  0
SCALE
  5
4781
102
{ACAD_REACTORS
330
477A
102
}
330
477A
100
AcDbScale
 70
     0
300
1:16
140
1.0
141
16.0
290
     0
  0
SCALE
  5
4782
102
{ACAD_REACTORS
330
477A
102
}
330
477A
100
AcDbScale
 70
     0
300
1:20
140
1.0
141
20.0
290
     0
  0
SCALE
  5
4783
102
{ACAD_REACTORS
330
477A
102
}
330
477A
100
AcDbScale
 70
     0
300
1:30
140
1.0
141
30.0
290
     0
  0
SCALE
  5
4784
102
{ACAD_REACTORS
330
477A
102
}
330
477A
100
AcDbScale
 70
     0
300
1:40
140
1.0
141
40.0
290
     0
  0
SCALE
  5
4785
102
{ACAD_REACTORS
330
477A
102
}
330
477A
100
AcDbScale
 70
     0
300
1:50
140
1.0
141
50.0
290
     0
  0
SCALE
  5
4786
102
{ACAD_REACTORS
330
477A
102
}
330
477A
100
AcDbScale
 70
     0
300
1:100
140
1.0
141
100.0
290
     0
  0
SCALE
  5
4787
102
{ACAD_REACTORS
330
477A
102
}
330
477A
100
AcDbScale
 70
     0
300
2:1
140
2.0
141
1.0
290
     0
  0
SCALE
  5
4788
102
{ACAD_REACTORS
330
477A
102
}
330
477A
100
AcDbScale
 70
     0
300
4:1
140
4.0
141
1.0
290
     0
  0
SCALE
  5
4789
102
{ACAD_REACTORS
330
477A
102
}
330
477A
100
AcDbScale
 70
     0
300
8:1
140
8.0
141
1.0
290
     0
  0
SCALE
  5
478A
102
{ACAD_REACTORS
330
477A
102
}
330
477A
100
AcDbScale
 70
     0
300
10:1
140
10.0
141
1.0
290
     0
  0
SCALE
  5
478B
102
{ACAD_REACTORS
330
477A
102
}
330
477A
100
AcDbScale
 70
     0
300
100:1
140
100.0
141
1.0
290
     0
  0
SCALE
  5
478C
102
{ACAD_REACTORS
330
477A
102
}
330
477A
100
AcDbScale
 70
     0
300
1/128" = 1'-0"
140
0.0078125
141
12.0
290
     0
  0
SCALE
  5
478D
102
{ACAD_REACTORS
330
477A
102
}
330
477A
100
AcDbScale
 70
     0
300
1/64" = 1'-0"
140
0.015625
141
12.0
290
     0
  0
SCALE
  5
478E
102
{ACAD_REACTORS
330
477A
102
}
330
477A
100
AcDbScale
 70
     0
300
1/32" = 1'-0"
140
0.03125
141
12.0
290
     0
  0
SCALE
  5
478F
102
{ACAD_REACTORS
330
477A
102
}
330
477A
100
AcDbScale
 70
     0
300
1/16" = 1'-0"
140
0.0625
141
12.0
290
     0
  0
SCALE
  5
4790
102
{ACAD_REACTORS
330
477A
102
}
330
477A
100
AcDbScale
 70
     0
300
3/32" = 1'-0"
140
0.09375
141
12.0
290
     0
  0
SCALE
  5
4791
102
{ACAD_REACTORS
330
477A
102
}
330
477A
100
AcDbScale
 70
     0
300
1/8" = 1'-0"
140
0.125
141
12.0
290
     0
  0
SCALE
  5
4792
102
{ACAD_REACTORS
330
477A
102
}
330
477A
100
AcDbScale
 70
     0
300
3/16" = 1'-0"
140
0.1875
141
12.0
290
     0
  0
SCALE
  5
4793
102
{ACAD_REACTORS
330
477A
102
}
330
477A
100
AcDbScale
 70
     0
300
1/4" = 1'-0"
140
0.25
141
12.0
290
     0
  0
SCALE
  5
4794
102
{ACAD_REACTORS
330
477A
102
}
330
477A
100
AcDbScale
 70
     0
300
3/8" = 1'-0"
140
0.375
141
12.0
290
     0
  0
SCALE
  5
4795
102
{ACAD_REACTORS
330
477A
102
}
330
477A
100
AcDbScale
 70
     0
300
1/2" = 1'-0"
140
0.5
141
12.0
290
     0
  0
SCALE
  5
4796
102
{ACAD_REACTORS
330
477A
102
}
330
477A
100
AcDbScale
 70
     0
300
3/4" = 1'-0"
140
0.75
141
12.0
290
     0
  0
SCALE
  5
4797
102
{ACAD_REACTORS
330
477A
102
}
330
477A
100
AcDbScale
 70
     0
300
1" = 1'-0"
140
1.0
141
12.0
290
     0
  0
SCALE
  5
4798
102
{ACAD_REACTORS
330
477A
102
}
330
477A
100
AcDbScale
 70
     0
300
1-1/2" = 1'-0"
140
1.5
141
12.0
290
     0
  0
SCALE
  5
4799
102
{ACAD_REACTORS
330
477A
102
}
330
477A
100
AcDbScale
 70
     0
300
3" = 1'-0"
140
3.0
141
12.0
290
     0
  0
SCALE
  5
479A
102
{ACAD_REACTORS
330
477A
102
}
330
477A
100
AcDbScale
 70
     0
300
6" = 1'-0"
140
6.0
141
12.0
290
     0
  0
SCALE
  5
479B
102
{ACAD_REACTORS
330
477A
102
}
330
477A
100
AcDbScale
 70
     0
300
1'-0" = 1'-0"
140
12.0
141
12.0
290
     0
  0
TABLESTYLE
  5
479D
102
{ACAD_REACTORS
330
479C
102
}
102
{ACAD_XDICTIONARY
360
47A2
102
}
330
479C
100
AcDbTableStyle
  3
Standard
 70
     0
 71
     0
 40
0.06
 41
0.06
280
     0
281
     0
  7
STANDARD
140
0.18
170
     2
 62
     0
 63
   257
283
     0
 90
        4
 91
        0
  1

274
    -2
284
     1
 64
     0
275
    -2
285
     1
 65
     0
276
    -2
286
     1
 66
     0
277
    -2
287
     1
 67
     0
278
    -2
288
     1
 68
     0
279
    -2
289
     1
 69
     0
  7
STANDARD
140
0.25
170
     5
 62
     0
 63
   257
283
     0
 90
        4
 91
        0
  1

274
    -2
284
     1
 64
     0
275
    -2
285
     1
 65
     0
276
    -2
286
     1
 66
     0
277
    -2
287
     1
 67
     0
278
    -2
288
     1
 68
     0
279
    -2
289
     1
 69
     0
  7
STANDARD
140
0.18
170
     5
 62
     0
 63
   257
283
     0
 90
        4
 91
        0
  1

274
    -2
284
     1
 64
     0
275
    -2
285
     1
 65
     0
276
    -2
286
     1
 66
     0
277
    -2
287
     1
 67
     0
278
    -2
288
     1
 68
     0
279
    -2
289
     1
 69
     0
  0
DICTIONARYVAR
  5
47A1
102
{ACAD_REACTORS
330
47A0
102
}
330
47A0
100
DictionaryVariables
280
     0
  1
1:1
  0
DICTIONARYVAR
  5
47A5
102
{ACAD_REACTORS
330
47A0
102
}
330
47A0
100
DictionaryVariables
280
     0
  1
Standard
  0
DICTIONARY
  5
47A2
330
479D
100
AcDbDictionary
280
     1
281
     1
  3
ACAD_ROUNDTRIP_2008_TABLESTYLE_CELLSTYLEMAP
360
47A3
  0
CELLSTYLEMAP
  5
47A3
102
{ACAD_REACTORS
330
47A2
102
}
330
47A2
100
AcDbCellStyleMap
 90
        3
300
CELLSTYLE
  1
TABLEFORMAT_BEGIN
 90
        5
170
     1
 91
        0
 92
        0
 62
   257
 93
        1
300
CONTENTFORMAT
  1
CONTENTFORMAT_BEGIN
 90
        0
 91
        0
 92
        4
 93
        0
300

 40
0.0
140
1.0
 94
        5
 62
     0
340
471E
144
0.25
309
CONTENTFORMAT_END
171
     1
301
MARGIN
  1
CELLMARGIN_BEGIN
 40
0.06
 40
0.06
 40
0.06
 40
0.06
 40
0.06
 40
0.06
309
CELLMARGIN_END
 94
        6
 95
        1
302
GRIDFORMAT
  1
GRIDFORMAT_BEGIN
 90
        0
 91
        1
 62
     0
 92
       -2
340
4720
 93
        0
 40
0.045
309
GRIDFORMAT_END
 95
        2
302
GRIDFORMAT
  1
GRIDFORMAT_BEGIN
 90
        0
 91
        1
 62
     0
 92
       -2
340
4720
 93
        0
 40
0.045
309
GRIDFORMAT_END
 95
        4
302
GRIDFORMAT
  1
GRIDFORMAT_BEGIN
 90
        0
 91
        1
 62
     0
 92
       -2
340
4720
 93
        0
 40
0.045
309
GRIDFORMAT_END
 95
        8
302
GRIDFORMAT
  1
GRIDFORMAT_BEGIN
 90
        0
 91
        1
 62
     0
 92
       -2
340
4720
 93
        0
 40
0.045
309
GRIDFORMAT_END
 95
       16
302
GRIDFORMAT
  1
GRIDFORMAT_BEGIN
 90
        0
 91
        1
 62
     0
 92
       -2
340
4720
 93
        0
 40
0.045
309
GRIDFORMAT_END
 95
       32
302
GRIDFORMAT
  1
GRIDFORMAT_BEGIN
 90
        0
 91
        1
 62
     0
 92
       -2
340
4720
 93
        0
 40
0.045
309
GRIDFORMAT_END
309
TABLEFORMAT_END
  1
CELLSTYLE_BEGIN
 90
        1
 91
        1
300
_TITLE
309
CELLSTYLE_END
300
CELLSTYLE
  1
TABLEFORMAT_BEGIN
 90
        5
170
     1
 91
        0
 92
        0
 62
   257
 93
        1
300
CONTENTFORMAT
  1
CONTENTFORMAT_BEGIN
 90
        0
 91
        0
 92
        4
 93
        0
300

 40
0.0
140
1.0
 94
        5
 62
     0
340
471E
144
0.18
309
CONTENTFORMAT_END
171
     1
301
MARGIN
  1
CELLMARGIN_BEGIN
 40
0.06
 40
0.06
 40
0.06
 40
0.06
 40
0.06
 40
0.06
309
CELLMARGIN_END
 94
        6
 95
        1
302
GRIDFORMAT
  1
GRIDFORMAT_BEGIN
 90
        0
 91
        1
 62
     0
 92
       -2
340
4720
 93
        0
 40
0.045
309
GRIDFORMAT_END
 95
        2
302
GRIDFORMAT
  1
GRIDFORMAT_BEGIN
 90
        0
 91
        1
 62
     0
 92
       -2
340
4720
 93
        0
 40
0.045
309
GRIDFORMAT_END
 95
        4
302
GRIDFORMAT
  1
GRIDFORMAT_BEGIN
 90
        0
 91
        1
 62
     0
 92
       -2
340
4720
 93
        0
 40
0.045
309
GRIDFORMAT_END
 95
        8
302
GRIDFORMAT
  1
GRIDFORMAT_BEGIN
 90
        0
 91
        1
 62
     0
 92
       -2
340
4720
 93
        0
 40
0.045
309
GRIDFORMAT_END
 95
       16
302
GRIDFORMAT
  1
GRIDFORMAT_BEGIN
 90
        0
 91
        1
 62
     0
 92
       -2
340
4720
 93
        0
 40
0.045
309
GRIDFORMAT_END
 95
       32
302
GRIDFORMAT
  1
GRIDFORMAT_BEGIN
 90
        0
 91
        1
 62
     0
 92
       -2
340
4720
 93
        0
 40
0.045
309
GRIDFORMAT_END
309
TABLEFORMAT_END
  1
CELLSTYLE_BEGIN
 90
        2
 91
        1
300
_HEADER
309
CELLSTYLE_END
300
CELLSTYLE
  1
TABLEFORMAT_BEGIN
 90
        5
170
     1
 91
        0
 92
        0
 62
   257
 93
        1
300
CONTENTFORMAT
  1
CONTENTFORMAT_BEGIN
 90
        0
 91
        0
 92
        4
 93
        0
300

 40
0.0
140
1.0
 94
        2
 62
     0
340
471E
144
0.18
309
CONTENTFORMAT_END
171
     1
301
MARGIN
  1
CELLMARGIN_BEGIN
 40
0.06
 40
0.06
 40
0.06
 40
0.06
 40
0.06
 40
0.06
309
CELLMARGIN_END
 94
        6
 95
        1
302
GRIDFORMAT
  1
GRIDFORMAT_BEGIN
 90
        0
 91
        1
 62
     0
 92
       -2
340
4720
 93
        0
 40
0.045
309
GRIDFORMAT_END
 95
        2
302
GRIDFORMAT
  1
GRIDFORMAT_BEGIN
 90
        0
 91
        1
 62
     0
 92
       -2
340
4720
 93
        0
 40
0.045
309
GRIDFORMAT_END
 95
        4
302
GRIDFORMAT
  1
GRIDFORMAT_BEGIN
 90
        0
 91
        1
 62
     0
 92
       -2
340
4720
 93
        0
 40
0.045
309
GRIDFORMAT_END
 95
        8
302
GRIDFORMAT
  1
GRIDFORMAT_BEGIN
 90
        0
 91
        1
 62
     0
 92
       -2
340
4720
 93
        0
 40
0.045
309
GRIDFORMAT_END
 95
       16
302
GRIDFORMAT
  1
GRIDFORMAT_BEGIN
 90
        0
 91
        1
 62
     0
 92
       -2
340
4720
 93
        0
 40
0.045
309
GRIDFORMAT_END
 95
       32
302
GRIDFORMAT
  1
GRIDFORMAT_BEGIN
 90
        0
 91
        1
 62
     0
 92
       -2
340
4720
 93
        0
 40
0.045
309
GRIDFORMAT_END
309
TABLEFORMAT_END
  1
CELLSTYLE_BEGIN
 90
        3
 91
        2
300
_DATA
309
CELLSTYLE_END
  0
ENDSEC
  0
EOF
