  0
SECTION
  2
HEADER
  9
$ACADVER
  1
AC1009
  9
$INSBASE
 10
0.0
 20
0.0
 30
0.0
  9
$EXTMIN
 10
-71.047619047618738
 20
-62.500000000000412
 30
0.0
  9
$EXTMAX
 10
178.59253816071819
 20
96.000000000000014
 30
0.0
  9
$LIMMIN
 10
0.0
 20
0.0
  9
$LIMMAX
 10
297.0
 20
210.0
  9
$ORTHOMODE
 70
     1
  9
$REGENMODE
 70
     1
  9
$FILLMODE
 70
     1
  9
$QTEXTMODE
 70
     0
  9
$MIRRTEXT
 70
     1
  9
$DRAGMODE
 70
     2
  9
$LTSCALE
 40
10.0
  9
$OSMODE
 70
    37
  9
$ATTMODE
 70
     1
  9
$TEXTSIZE
 40
3.0
  9
$TRACEWID
 40
1.0
  9
$TEXTSTYLE
  7
YOKO
  9
$CLAYER
  8
240
  9
$CELTYPE
  6
BYLAYER
  9
$CECOLOR
 62
   256
  9
$DIMSCALE
 40
1.0
  9
$DIMASZ
 40
2.2299999999999991
  9
$DIMEXO
 40
0.5
  9
$DIMDLI
 40
7.0
  9
$DIMRND
 40
0.0
  9
$DIMDLE
 40
0.0
  9
$DIMEXE
 40
1.0
  9
$DIMTP
 40
0.0
  9
$DIMTM
 40
0.01
  9
$DIMTXT
 40
2.799999999999998
  9
$DIMCEN
 40
0.0
  9
$DIMTSZ
 40
0.0
  9
$DIMTOL
 70
     0
  9
$DIMLIM
 70
     0
  9
$DIMTIH
 70
     0
  9
$DIMTOH
 70
     0
  9
$DIMSE1
 70
     0
  9
$DIMSE2
 70
     0
  9
$DIMTAD
 70
     3
  9
$DIMZIN
 70
     9
  9
$DIMBLK
  1
OPEN
  9
$DIMASO
 70
     1
  9
$DIMSHO
 70
     1
  9
$DIMPOST
  1

  9
$DIMAPOST
  1

  9
$DIMALT
 70
     0
  9
$DIMALTD
 70
     2
  9
$DIMALTF
 40
25.399999999999999
  9
$DIMLFAC
 40
1.0
  9
$DIMTOFL
 70
     1
  9
$DIMTVP
 40
0.0
  9
$DIMTIX
 70
     1
  9
$DIMSOXD
 70
     0
  9
$DIMSAH
 70
     0
  9
$DIMBLK1
  1

  9
$DIMBLK2
  1

  9
$DIMSTYLE
  2
BIGT
  9
$DIMCLRD
 70
   256
  9
$DIMCLRE
 70
   256
  9
$DIMCLRT
 70
    40
  9
$DIMTFAC
 40
1.0
  9
$DIMGAP
 40
1.0
  9
$LUNITS
 70
     2
  9
$LUPREC
 70
     6
  9
$SKETCHINC
 40
1.0
  9
$FILLETRAD
 40
0.0
  9
$AUNITS
 70
     0
  9
$AUPREC
 70
     6
  9
$MENU
  1
.
  9
$ELEVATION
 40
0.0
  9
$PELEVATION
 40
0.0
  9
$THICKNESS
 40
0.0
  9
$LIMCHECK
 70
     0
  9
$BLIPMODE
 70
     0
  9
$CHAMFERA
 40
1.0
  9
$CHAMFERB
 40
1.0
  9
$SKPOLY
 70
     0
  9
$TDCREATE
 40
2457941.3600681019
  9
$TDUPDATE
 40
2458142.469371018
  9
$TDINDWG
 40
0.0305138773
  9
$TDUSRTIMER
 40
0.030513831
  9
$USRTIMER
 70
     1
  9
$ANGBASE
 50
0.0
  9
$ANGDIR
 70
     0
  9
$PDMODE
 70
     1
  9
$PDSIZE
 40
0.0
  9
$PLINEWID
 40
0.0
  9
$COORDS
 70
     1
  9
$SPLFRAME
 70
     0
  9
$SPLINETYPE
 70
     6
  9
$SPLINESEGS
 70
     4
  9
$ATTDIA
 70
     1
  9
$ATTREQ
 70
     1
  9
$HANDLING
 70
     1
  9
$HANDSEED
  5
4F46
  9
$SURFTAB1
 70
     6
  9
$SURFTAB2
 70
     6
  9
$SURFTYPE
 70
     6
  9
$SURFU
 70
     6
  9
$SURFV
 70
     6
  9
$UCSNAME
  2

  9
$UCSORG
 10
0.0
 20
0.0
 30
0.0
  9
$UCSXDIR
 10
1.0
 20
0.0
 30
0.0
  9
$UCSYDIR
 10
0.0
 20
1.0
 30
0.0
  9
$PUCSNAME
  2

  9
$PUCSORG
 10
0.0
 20
0.0
 30
0.0
  9
$PUCSXDIR
 10
1.0
 20
0.0
 30
0.0
  9
$PUCSYDIR
 10
0.0
 20
1.0
 30
0.0
  9
$USERI1
 70
     1
  9
$USERI2
 70
     0
  9
$USERI3
 70
     0
  9
$USERI4
 70
     0
  9
$USERI5
 70
     0
  9
$USERR1
 40
0.0
  9
$USERR2
 40
0.0
  9
$USERR3
 40
0.0
  9
$USERR4
 40
0.0
  9
$USERR5
 40
0.0
  9
$WORLDVIEW
 70
     1
  9
$SHADEDGE
 70
     3
  9
$SHADEDIF
 70
    70
  9
$TILEMODE
 70
     1
  9
$MAXACTVP
 70
    16
  9
$PLIMCHECK
 70
     0
  9
$PEXTMIN
 10
1.0000000000000000E+020
 20
1.0000000000000000E+020
 30
1.0000000000000000E+020
  9
$PEXTMAX
 10
-1.0000000000000000E+020
 20
-1.0000000000000000E+020
 30
-1.0000000000000000E+020
  9
$PLIMMIN
 10
0.0
 20
0.0
  9
$PLIMMAX
 10
420.0
 20
297.0
  9
$UNITMODE
 70
     0
  9
$VISRETAIN
 70
     1
  9
$PLINEGEN
 70
     0
  9
$PSLTSCALE
 70
     1
  0
ENDSEC
  0
SECTION
  2
TABLES
  0
TABLE
  2
VPORT
 70
     1
  0
VPORT
  2
*ACTIVE
 70
     0
 10
0.0
 20
0.0
 11
1.0
 21
1.0
 12
53.25997540342086
 22
26.96704023207079
 13
0.0
 23
0.0
 14
7.0
 24
7.0
 15
7.0
 25
7.0
 16
0.0
 26
0.0
 36
1.0
 17
0.0
 27
0.0
 37
0.0
 40
309.60236698831051
 41
1.4533622559652919
 42
50.0
 43
0.0
 44
0.0
 50
0.0
 51
0.0
 71
     0
 72
  2000
 73
     1
 74
     0
 75
     0
 76
     1
 77
     0
 78
     0
  0
ENDTAB
  0
TABLE
  2
LTYPE
 70
    18
  0
LTYPE
  2
CONTINUOUS
 70
     0
  3
Solid line
 72
    65
 73
     0
 40
0.0
  0
LTYPE
  2
CENTER2
 70
     0
  3
___ _ ___ _ ___ _ ___ _ ___ _ ___ _ ___ _ ___ _
 72
    65
 73
     4
 40
1.125
 49
0.75
 49
-0.125
 49
0.125
 49
-0.125
  0
LTYPE
  2
HIDDEN2
 70
     0
  3
_ _ _ _ _ _ _ _ _ _ _ _ _ _ _ _ _ _ _ _ _ _ _ _
 72
    65
 73
     2
 40
0.1875
 49
0.125
 49
-0.0625
  0
LTYPE
  2
AMCONSTR
 70
     0
  3
_______________________
 72
    65
 73
     2
 40
9999.0
 49
9999.0
 49
0.0
  0
LTYPE
  2
HIDDEN
 70
     0
  3
Hidden __ __ __ __ __ __ __ __ __ __ __ __ __ _
 72
    65
 73
     2
 40
0.375
 49
0.25
 49
-0.125
  0
LTYPE
  2
PHANTOM2
 70
     0
  3
Phantom (.5x) ___ _ _ ___ _ _ ___ _ _ ___ _ _
 72
    65
 73
     6
 40
1.25
 49
0.625
 49
-0.125
 49
0.125
 49
-0.125
 49
0.125
 49
-0.125
  0
LTYPE
  2
CENTER
 70
     0
  3
Center ____ _ ____ _ ____ _ ____ _ ____ _ ____
 72
    65
 73
     4
 40
2.0
 49
1.25
 49
-0.25
 49
0.25
 49
-0.25
  0
LTYPE
  2
AMZIGZAG2
 70
     0
  3
/\/-/\/-/\/-/\/-/\/-/\/
 72
    65
 73
     2
 40
0.4401
 49
0.0001
 49
-0.4400000000000002
  0
LTYPE
  2
ACANSTGB
 70
     0
  3
__ . . __ . .
 72
    65
 73
     6
 40
0.35433070866
 49
0.15748031496
 49
-0.03937007874
 49
0.03937007874
 49
-0.03937007874
 49
0.03937007874
 49
-0.03937007874
  0
LTYPE
  2
ACANSTGL
 70
     0
  3
_ _ _ _ _
 72
    65
 73
     2
 40
0.11811023622
 49
0.07874015748
 49
-0.03937007874
  0
ENDTAB
  0
TABLE
  2
LAYER
 70
    10
  0
LAYER
  2
0
 70
     0
 62
     7
  6
CONTINUOUS
  0
LAYER
  2
240
 70
     0
 62
     4
  6
CONTINUOUS
  0
LAYER
  2
DEFPOINTS
 70
     0
 62
     7
  6
CONTINUOUS
  0
LAYER
  2
245
 70
     0
 62
     2
  6
CENTER2
  0
LAYER
  2
241
 70
     0
 62
   211
  6
CONTINUOUS
  0
LAYER
  2
243
 70
     0
 62
   211
  6
HIDDEN2
  0
LAYER
  2
247
 70
     0
 62
    60
  6
CONTINUOUS
  0
LAYER
  2
250
 70
     0
 62
     3
  6
CONTINUOUS
  0
ENDTAB
  0
TABLE
  2
STYLE
 70
     6
  0
STYLE
  2
STANDARD
 70
     0
 40
0.0
 41
1.0
 50
0.0
 71
     0
 42
3.0
  3
romans.shx
  4
extfont.shx
  0
STYLE
  2
YOKO
 70
     0
 40
0.0
 41
1.0
 50
0.0
 71
     0
 42
3.0
  3
romans.shx
  4
extfont.shx
  0
STYLE
  2
ACANSGDT
 70
     0
 40
0.0
 41
1.0
 50
0.0
 71
     0
 42
3.0
  3
amgdt.shx
  4

  0
ENDTAB
  0
TABLE
  2
VIEW
 70
     0
  0
ENDTAB
  0
TABLE
  2
UCS
 70
     0
  0
ENDTAB
  0
TABLE
  2
APPID
 70
    44
  0
APPID
  2
ACAD
 70
     0
  0
APPID
  2
ACADANNOTATIVE
 70
     0
  0
APPID
  2
GLOBAL
 70
     0
  0
APPID
  2
DETAIL
 70
     0
  0
APPID
  2
GRPNAME
 70
     0
  0
APPID
  2
GPARA
 70
     0
  0
APPID
  2
MCAD_NO_VIS
 70
     0
  0
APPID
  2
ACAD_TEMP_GRAPHIC
 70
     0
  0
APPID
  2
ACATTRIBSERVICES
 70
     0
  0
APPID
  2
GENIUS_GENSCREG_15
 70
     0
  0
APPID
  2
GENIUS_GENODEF_13
 70
     0
  0
APPID
  2
GENIUS_GENOBJ-N-SDF_13
 70
     0
  0
APPID
  2
GENIUS_GENREC_14
 70
     0
  0
APPID
  2
GENIUS_GENOBJ-N-REC_13
 70
     0
  0
APPID
  2
GENIUS_GENDIMSH_14
 70
     0
  0
APPID
  2
GENIUS_GENOBJ-N-DIM_13
 70
     0
  0
APPID
  2
GENIUS_GENDIM_13
 70
     0
  0
APPID
  2
GENIUS_GENDTOL_13
 70
     0
  0
APPID
  2
GENIUS_GENOLIS_13
 70
     0
  0
APPID
  2
GENIUS_GENOENT_13
 70
     0
  0
APPID
  2
GENIUS_GENOBJ-F-FEM_13
 70
     0
  0
APPID
  2
GENIUS_GENOREF_13
 70
     0
  0
APPID
  2
GENIUS_GEFFEM_13
 70
     0
  0
APPID
  2
GENIUS_GEFFEMP_13
 70
     0
  0
APPID
  2
AD_DRAW
 70
     0
  0
APPID
  2
DESIGNERASSEMBLIES
 70
     0
  0
APPID
  2
ACADM_DIM_EDIT
 70
     0
  0
APPID
  2
AMDT_DM_ADJ
 70
     0
  0
APPID
  2
ITEMNAME
 70
     0
  0
APPID
  2
GENIUS_GENOBJ-N-FIL_13
 70
     0
  0
APPID
  2
GENIUS_GENFIL_13
 70
     0
  0
APPID
  2
GENIUS_GENOBJ-N-CHA_13
 70
     0
  0
APPID
  2
ACAECLAYERSTANDARD
 70
     0
  0
APPID
  2
ACAD_NAV_VCDISPLAY
 70
     0
  0
APPID
  2
ACAD_PSEXT
 70
     0
  0
APPID
  2
ACAD_DSTYLE_DIMJAG
 70
     0
  0
APPID
  2
ACAD_DSTYLE_DIMBREAK
 70
     0
  0
APPID
  2
ACAD_EXEMPT_FROM_CAD_STANDARDS
 70
     0
  0
APPID
  2
ACAD_DSTYLE_DIMINSPECT
 70
     0
  0
APPID
  2
ACAD_MLEADERVER
 70
     0
  0
APPID
  2
ACAD_DSTYLE_DIMARC_LENGTH_
 70
     0
  0
APPID
  2
ACAD_DSTYLE_DIM_LINETYPE
 70
     0
  0
APPID
  2
ACAD_DSTYLE_DIM_EXT1_LINETYPE
 70
     0
  0
APPID
  2
ACAD_DSTYLE_DIM_EXT2_LINETYPE
 70
     0
  0
ENDTAB
  0
TABLE
  2
DIMSTYLE
 70
    11
  0
DIMSTYLE
  2
STANDARD
 70
     0
  3

  4

  5

  6

  7

 40
1.0
 41
0.18
 42
0.0625
 43
0.38
 44
0.18
 45
0.0
 46
0.0
 47
0.0
 48
0.0
140
0.18
141
0.09
142
0.0
143
25.399999999999999
144
1.0
145
0.0
146
1.0
147
0.09
 71
     0
 72
     0
 73
     1
 74
     1
 75
     0
 76
     0
 77
     0
 78
     0
170
     0
171
     2
172
     0
173
     0
174
     0
175
     0
176
     0
177
     0
178
     0
  0
DIMSTYLE
  2
BIGT
 70
     0
  3

  4

  5

  6

  7

 40
1.0
 41
2.2299999999999991
 42
0.5
 43
7.0
 44
1.0
 45
0.0
 46
0.0
 47
0.0
 48
0.01
140
2.799999999999998
141
0.0
142
0.0
143
25.399999999999999
144
1.0
145
0.0
146
1.0
147
1.0
 71
     0
 72
     0
 73
     0
 74
     0
 75
     0
 76
     0
 77
     3
 78
     9
170
     0
171
     2
172
     1
173
     0
174
     1
175
     0
176
   256
177
   256
178
    40
  0
DIMSTYLE
  2
AM_ANSI
 70
     0
  3

  4
mm
  5

  6

  7

 40
1.0
 41
0.12
 42
0.05
 43
0.5
 44
0.1
 45
0.0
 46
0.0
 47
0.1
 48
0.1
140
0.12
141
0.0
142
0.0
143
25.399999999999999
144
1.0
145
0.0
146
0.71
147
0.06
 71
     0
 72
     0
 73
     1
 74
     1
 75
     0
 76
     0
 77
     0
 78
     7
170
     0
171
     2
172
     0
173
     0
174
     0
175
     0
176
   256
177
   256
178
     2
  0
DIMSTYLE
  2
AM_ANSI$3
 70
     0
  3

  4
mm
  5

  6

  7

 40
1.0
 41
0.12
 42
0.05
 43
0.5
 44
0.1
 45
0.0
 46
0.0
 47
0.1
 48
0.1
140
0.12
141
0.0
142
0.0
143
25.399999999999999
144
1.0
145
0.0
146
0.71
147
0.06
 71
     0
 72
     0
 73
     1
 74
     1
 75
     0
 76
     0
 77
     0
 78
     7
170
     0
171
     2
172
     0
173
     0
174
     0
175
     0
176
   256
177
   256
178
     2
  0
DIMSTYLE
  2
AM_ANSI$4
 70
     0
  3

  4
mm
  5

  6

  7

 40
1.0
 41
0.12
 42
0.05
 43
0.5
 44
0.1
 45
0.0
 46
0.0
 47
0.1
 48
0.1
140
0.12
141
0.0
142
0.0
143
25.399999999999999
144
1.0
145
0.0
146
0.71
147
0.06
 71
     0
 72
     0
 73
     1
 74
     1
 75
     0
 76
     0
 77
     0
 78
     7
170
     0
171
     2
172
     0
173
     0
174
     0
175
     0
176
   256
177
   256
178
     2
  0
DIMSTYLE
  2
AM_ANSI$7
 70
     0
  3

  4
mm
  5

  6

  7

 40
1.0
 41
0.12
 42
0.05
 43
0.5
 44
0.1
 45
0.0
 46
0.0
 47
0.1
 48
0.1
140
0.12
141
0.0
142
0.0
143
25.399999999999999
144
1.0
145
0.0
146
0.71
147
0.06
 71
     0
 72
     0
 73
     1
 74
     1
 75
     0
 76
     0
 77
     0
 78
     7
170
     0
171
     2
172
     0
173
     0
174
     0
175
     0
176
   256
177
   256
178
     2
  0
DIMSTYLE
  2
AM_ANSI$SF
 70
     0
  3

  4
mm
  5

  6

  7

 40
1.0
 41
0.12
 42
0.05
 43
0.5
 44
0.1
 45
0.0
 46
0.0
 47
0.1
 48
0.1
140
0.12
141
0.0
142
0.0
143
25.399999999999999
144
1.0
145
0.0
146
0.71
147
0.06
 71
     0
 72
     0
 73
     1
 74
     1
 75
     1
 76
     1
 77
     0
 78
     7
170
     0
171
     2
172
     0
173
     0
174
     0
175
     0
176
   256
177
   256
178
     2
  0
DIMSTYLE
  2
AM_ANSI$SH
 70
     0
  3

  4
mm
  5

  6

  7

 40
1.0
 41
0.12
 42
0.05
 43
0.5
 44
0.1
 45
0.0
 46
0.0
 47
0.1
 48
0.1
140
0.12
141
0.0
142
0.0
143
25.399999999999999
144
1.0
145
0.0
146
0.71
147
0.06
 71
     0
 72
     0
 73
     1
 74
     1
 75
     1
 76
     1
 77
     0
 78
     7
170
     0
171
     2
172
     0
173
     1
174
     0
175
     0
176
   256
177
   256
178
     2
  0
ENDTAB
  0
ENDSEC
  0
SECTION
  2
BLOCKS
  0
BLOCK
  8
0
  2
$MODEL_SPACE
 70
     0
 10
0.0
 20
0.0
 30
0.0
  3
$MODEL_SPACE
  1

  0
ENDBLK
  5
4D3C
  8
0
  0
BLOCK
 67
     1
  8
0
  2
$PAPER_SPACE
 70
     0
 10
0.0
 20
0.0
 30
0.0
  3
$PAPER_SPACE
  1

  0
ENDBLK
  5
4D38
 67
     1
  8
0
  0
BLOCK
  8
0
  2
_OPEN
 70
     0
 10
0.0
 20
0.0
 30
0.0
  3
_OPEN
  1

  0
LINE
  5
3E1A
  8
0
  6
BYBLOCK
 62
     0
 10
-1.0
 20
0.1666666666666666
 30
0.0
 11
0.0
 21
0.0
 31
0.0
  0
LINE
  5
3E1B
  8
0
  6
BYBLOCK
 62
     0
 10
-1.0
 20
-0.1666666666666666
 30
0.0
 11
0.0
 21
0.0
 31
0.0
  0
LINE
  5
3E1C
  8
0
  6
BYBLOCK
 62
     0
 10
0.0
 20
0.0
 30
0.0
 11
-1.0
 21
0.0
 31
0.0
  0
ENDBLK
  5
3E1D
  8
0
  0
BLOCK
  8
0
  2
_ACMFILLEDHALF
 70
     0
 10
0.0
 20
0.0
 30
0.0
  3
_ACMFILLEDHALF
  1

  0
TRACE
  5
471E
  8
240
 62
     0
 10
-0.8
 20
0.0
 30
0.0
 11
-1.0
 21
0.166666666
 31
0.0
 12
0.0
 22
0.0
 32
0.0
 13
0.0
 23
0.0
 33
0.0
  0
LINE
  5
471F
  8
240
 62
     0
 10
-1.0
 20
0.0
 30
0.0
 11
-0.8
 21
0.0
 31
0.0
  0
ENDBLK
  5
471D
  8
0
  0
ENDSEC
  0
SECTION
  2
ENTITIES
  0
LINE
  5
4298
  8
240
  6
CONTINUOUS
 10
29.00000000000006
 20
52.500000000000341
 30
0.0
 11
29.00000000000006
 21
62.499999999999972
 31
0.0
  0
LINE
  5
4299
  8
250
  6
CONTINUOUS
 10
-39.20135676606543
 20
-60.283382249222207
 30
0.0
 11
-66.134690099398753
 21
-60.283382249222207
 31
0.0
1001
ITEMNAME
1000
LNSP2
  0
LINE
  5
429A
  8
240
  6
CONTINUOUS
 10
0.0000000000000021
 20
-62.500000000000412
 30
0.0
 11
-0.000000000000028
 21
-48.134252505009783
 31
0.0
  0
LINE
  5
429B
  8
240
  6
CONTINUOUS
 10
-0.0000000000000787
 20
62.500000000000242
 30
0.0
 11
16.752404735808302
 21
62.500000000000021
 31
0.0
  0
LINE
  5
429C
  8
241
  6
CONTINUOUS
 10
21.875000000000199
 20
58.499999999999801
 30
0.0
 11
21.874999999999801
 21
43.150898020782613
 31
0.0
  0
LINE
  5
429D
  8
240
  6
CONTINUOUS
 10
23.24759526419157
 20
62.499999999999972
 30
0.0
 11
29.00000000000006
 21
62.499999999999972
 31
0.0
  0
LINE
  5
429E
  8
240
  6
CONTINUOUS
 10
0.0000000000000021
 20
-62.500000000000412
 30
0.0
 11
16.752404735808302
 21
-62.500000000000071
 31
0.0
  0
LINE
  5
429F
  8
240
  6
CONTINUOUS
 10
23.24759526419157
 20
-62.500000000000021
 30
0.0
 11
21.875000000000831
 21
-60.122595264193897
 31
0.0
  0
LINE
  5
42A0
  8
240
  6
CONTINUOUS
 10
18.124999999999911
 20
-60.122595264191361
 30
0.0
 11
16.752404735808302
 21
-62.500000000000071
 31
0.0
  0
LINE
  5
42A1
  8
240
  6
CONTINUOUS
 10
21.875000000000199
 20
-58.499999999999801
 30
0.0
 11
18.12500000000162
 21
-58.500000000000043
 31
0.0
  0
LINE
  5
42A2
  8
240
  6
CONTINUOUS
 10
23.24759526419157
 20
-62.500000000000021
 30
0.0
 11
29.000000000000139
 21
-62.49999999999995
 31
0.0
  0
LINE
  5
42A3
  8
240
  6
CONTINUOUS
 10
-62.999999999999901
 20
-44.97793987975902
 30
0.0
 11
-62.999999999999901
 21
44.977939879759091
 31
0.0
  0
LINE
  5
42A4
  8
240
  6
CONTINUOUS
 10
0.0000000000006439
 20
48.134252505009748
 30
0.0
 11
-62.999999999999901
 21
44.977939879759091
 31
0.0
  0
LINE
  5
42A5
  8
243
  6
HIDDEN2
 10
-51.000000000000192
 20
33.499999999999957
 30
0.0
 11
-51.000000000000263
 21
45.579142284568718
 31
0.0
  0
LINE
  5
42A6
  8
243
  6
HIDDEN2
 10
-43.999999999997797
 20
-45.929843687374422
 30
0.0
 11
-43.999999999998522
 21
-33.500000000000007
 31
0.0
  0
LINE
  5
42A7
  8
240
  6
CONTINUOUS
 10
0.0000000000006439
 20
48.134252505009748
 30
0.0
 11
-0.0000000000000787
 21
62.500000000000242
 31
0.0
  0
LINE
  5
42A8
  8
240
  6
CONTINUOUS
 10
-0.000000000000028
 20
-48.134252505009783
 30
0.0
 11
-62.999999999999901
 21
-44.97793987975902
 31
0.0
  0
LINE
  5
42A9
  8
241
  6
CONTINUOUS
 10
10.00000000000008
 20
39.499999999999922
 30
0.0
 11
29.000000000000139
 21
39.499999999999972
 31
0.0
  0
LINE
  5
42AA
  8
241
  6
CONTINUOUS
 10
4.999999999999968
 20
48.435524153249141
 30
0.0
 11
16.7524047358066
 21
48.435524153249361
 31
0.0
  0
LINE
  5
42AB
  8
241
  6
CONTINUOUS
 10
4.999999999999968
 20
48.435524153249141
 30
0.0
 11
5.0000000000000284
 21
44.499999999999908
 31
0.0
  0
ARC
  5
42AC
  8
241
  6
CONTINUOUS
 10
10.00000000000008
 20
44.499999999999908
 30
0.0
 40
5.0
 50
180.0
 51
270.0
  0
LINE
  5
42AD
  8
241
  6
CONTINUOUS
 10
16.752404735808302
 20
62.500000000001663
 30
0.0
 11
16.752404735808302
 21
48.435524153249361
 31
0.0
  0
LINE
  5
42AE
  8
241
  6
CONTINUOUS
 10
23.24759526419157
 20
62.500000000001613
 30
0.0
 11
23.24759526419157
 21
48.435524153249361
 31
0.0
  0
LINE
  5
42AF
  8
241
  6
CONTINUOUS
 10
23.24759526419157
 20
39.500000000000171
 30
0.0
 11
23.247595264191752
 21
-62.499999999999972
 31
0.0
  0
LINE
  5
42B0
  8
241
  6
CONTINUOUS
 10
18.12499999999946
 20
43.15089802078289
 30
0.0
 11
21.874999999999801
 21
43.150898020782613
 31
0.0
  0
LINE
  5
42B1
  8
241
  6
CONTINUOUS
 10
16.752404735808302
 20
48.435524153249361
 30
0.0
 11
18.1249999999994
 21
45.326332978763638
 31
0.0
  0
LINE
  5
42B2
  8
241
  6
CONTINUOUS
 10
21.874999999999801
 20
45.326332978763638
 30
0.0
 11
23.24759526419157
 21
48.435524153249183
 31
0.0
  0
LINE
  5
42B3
  8
241
  6
CONTINUOUS
 10
23.247595264196061
 20
48.435524153249361
 30
0.0
 11
29.000000000000028
 21
48.435524153249197
 31
0.0
  0
LINE
  5
42B4
  8
240
  6
CONTINUOUS
 10
18.125000000000011
 20
-60.122595264191759
 30
0.0
 11
18.12500000000162
 21
-58.500000000000043
 31
0.0
  0
LINE
  5
42B5
  8
241
  6
CONTINUOUS
 10
18.125000000000011
 20
58.499999999999943
 30
0.0
 11
18.12499999999946
 21
43.15089802078289
 31
0.0
  0
LINE
  5
42B6
  8
240
  6
CONTINUOUS
 10
21.875000000000831
 20
-60.122595264193897
 30
0.0
 11
21.87499999999833
 21
-58.500000000000043
 31
0.0
  0
LINE
  5
42B7
  8
241
  6
CONTINUOUS
 10
-0.0000000000000284
 20
-47.933851703406383
 30
0.0
 11
-0.0000000000000284
 21
48.134252505009719
 31
0.0
  0
LINE
  5
42B8
  8
240
  6
CONTINUOUS
 10
23.247595264191631
 20
62.500000000000021
 30
0.0
 11
21.875000000000881
 21
60.122595264193961
 31
0.0
  0
LINE
  5
42B9
  8
240
  6
CONTINUOUS
 10
18.124999999999972
 20
60.122595264191361
 30
0.0
 11
16.752404735808369
 21
62.500000000000071
 31
0.0
  0
LINE
  5
42BA
  8
240
  6
CONTINUOUS
 10
21.875000000000309
 20
58.499999999999801
 30
0.0
 11
18.12500000000168
 21
58.500000000000043
 31
0.0
  0
LINE
  5
42BB
  8
240
  6
CONTINUOUS
 10
18.125000000000082
 20
60.122595264191801
 30
0.0
 11
18.12500000000168
 21
58.500000000000043
 31
0.0
  0
LINE
  5
42BC
  8
240
  6
CONTINUOUS
 10
21.875000000000881
 20
60.122595264193961
 30
0.0
 11
21.87499999999838
 21
58.500000000000021
 31
0.0
  0
LINE
  5
42BD
  8
241
  6
CONTINUOUS
 10
21.875000000000028
 20
39.500000000000171
 30
0.0
 11
21.875000000000139
 21
-58.499999999999801
 31
0.0
  0
LINE
  5
42BE
  8
241
  6
CONTINUOUS
 10
18.125000000000082
 20
39.500000000000128
 30
0.0
 11
18.125000000000199
 21
-58.500000000000043
 31
0.0
  0
LINE
  5
42BF
  8
241
  6
CONTINUOUS
 10
16.752404735808302
 20
39.500000000000128
 30
0.0
 11
16.752404735808479
 21
-62.500000000000021
 31
0.0
  0
LINE
  5
42C0
  8
240
  6
CONTINUOUS
 10
29.000000000000139
 20
-62.49999999999995
 30
0.0
 11
29.000000000000171
 21
-52.500000000000021
 31
0.0
  0
TEXT
  5
42C1
  8
250
  6
CONTINUOUS
 10
-63.868023432732109
 20
-59.283382249222221
 30
0.0
 40
2.799999999999998
  1
HSK-A125
  7
YOKO
1001
ITEMNAME
1000
LNSP3
  0
POLYLINE
  5
42C2
  8
250
  6
CONTINUOUS
 66
     1
 10
0.0
 20
0.0
 30
0.0
1001
ACAD
1000
DSTYLE
1002
{
1070
    41
1040
2.0
1002
}
  0
VERTEX
  5
42C3
  8
250
  6
CONTINUOUS
 10
-32.282204286245992
 20
-48.299058608858793
 30
0.0
  0
VERTEX
  5
42C4
  8
250
  6
CONTINUOUS
 10
-39.20135676606543
 20
-60.283382249222207
 30
0.0
  0
SEQEND
  5
42C5
  8
250
  6
CONTINUOUS
  0
LINE
  5
42C6
  8
250
  6
CONTINUOUS
 10
-32.570879420840797
 20
-48.1323919421921
 30
0.0
 11
-31.282204286245989
 21
-46.567007801289897
 31
0.0
  0
LINE
  5
42C7
  8
250
  6
CONTINUOUS
 10
-31.993529151651181
 20
-48.46572527552545
 30
0.0
 11
-31.282204286245989
 21
-46.567007801289897
 31
0.0
  0
LINE
  5
42C8
  8
250
  6
CONTINUOUS
 10
-31.282204286245989
 20
-46.567007801289897
 30
0.0
 11
-32.282204286245992
 21
-48.299058608858793
 31
0.0
  0
LINE
  5
42C9
  8
247
  6
CONTINUOUS
 10
12.0
 20
-28.250000000070049
 30
0.0
 11
12.0
 21
-21.557692308030042
 31
0.0
  0
ARC
  5
42CA
  8
247
  6
CONTINUOUS
 10
10.25000000006998
 20
-28.250000000070049
 30
0.0
 40
1.7499999999299991
 50
180.0
 51
0.0
  0
ARC
  5
42CB
  8
247
  6
CONTINUOUS
 10
10.25000000007004
 20
-21.557692308030042
 30
0.0
 40
1.7499999999299991
 50
0.0
 51
180.0
  0
LINE
  5
42CC
  8
247
  6
CONTINUOUS
 10
8.5000000001400693
 20
-27.384615384720021
 30
0.0
 11
11.500000000020011
 21
-28.244851541962031
 31
0.0
  0
LINE
  5
42CD
  8
247
  6
CONTINUOUS
 10
9.9230769231600142
 20
-26.484983818335831
 30
0.0
 11
9.9230769231600142
 21
-27.792676125975859
 31
0.0
  0
ARC
  5
42CE
  8
247
  6
CONTINUOUS
 10
9.049598667702984
 20
-26.14514381608981
 30
0.0
 40
0.5538165441895349
 50
72.997889675292413
 51
172.92416621851351
  0
ARC
  5
42CF
  8
247
  6
CONTINUOUS
 10
8.9360330444658338
 20
-26.56687832302881
 30
0.0
 40
0.9904354236226808
 50
4.7429368522022131
 51
73.849226273266424
1001
GENIUS_GENOBJ-N-FIL_13
1002
{
1000
OWNER
1000
GEN
1002
}
1001
GENIUS_GENODEF_13
1002
{
1000
HIER
1070
     0
1002
}
1002
{
1000
MANEDIT
1070
     0
1002
}
1002
{
1000
NOSEL
1070
     0
1002
}
1002
{
1000
BEHIND
1070
     0
1002
}
1002
{
1000
OTHER
1070
     0
1002
}
1002
{
1000
REACTOR
1002
}
  0
LINE
  5
42D0
  8
247
  6
CONTINUOUS
 10
11.500000000020011
 20
-26.93715923432201
 30
0.0
 11
11.500000000020011
 21
-28.244851541962031
 31
0.0
  0
LINE
  5
42D1
  8
247
  6
CONTINUOUS
 10
8.5000000001400693
 20
-27.384615384720021
 30
0.0
 11
8.5000000001400693
 21
-26.07692307708
 31
0.0
  0
ARC
  5
42D2
  8
247
  6
CONTINUOUS
 10
10.4820242326656
 20
-26.560919636546959
 30
0.0
 40
0.5640818586791229
 50
65.990941652528889
 51
172.26344345906909
  0
ARC
  5
42D3
  8
247
  6
CONTINUOUS
 10
10.48742903918663
 20
-27.0382626853471
 30
0.0
 40
1.0176059446230981
 50
5.701985164256504
 51
77.277338436822205
1001
GENIUS_GENOBJ-N-FIL_13
1002
{
1000
OWNER
1000
GEN
1002
}
1001
GENIUS_GENODEF_13
1002
{
1000
HIER
1070
     0
1002
}
1002
{
1000
MANEDIT
1070
     0
1002
}
1002
{
1000
NOSEL
1070
     0
1002
}
1002
{
1000
BEHIND
1070
     0
1002
}
1002
{
1000
OTHER
1070
     0
1002
}
1002
{
1000
REACTOR
1002
}
  0
LINE
  5
42D4
  8
247
  6
CONTINUOUS
 10
11.500000000020011
 20
-25.28331308054204
 30
0.0
 11
8.5000000001400693
 21
-24.42307692330003
 31
0.0
  0
LINE
  5
42D5
  8
247
  6
CONTINUOUS
 10
8.5000000001400693
 20
-22.000000000319979
 30
0.0
 11
8.5000000001400693
 21
-22.565736619456569
 31
0.0
  0
LINE
  5
42D6
  8
247
  6
CONTINUOUS
 10
11.500000000020011
 20
-23.4615384618
 30
0.0
 11
11.500000000020011
 21
-22.846153846440028
 31
0.0
  0
ARC
  5
42D7
  8
247
  6
CONTINUOUS
 10
10.58328513597337
 20
-21.708791209122872
 30
0.0
 40
2.2526500823422122
 50
202.3594881415263
 51
254.99324854284609
  0
ARC
  5
42D8
  8
247
  6
CONTINUOUS
 10
9.3083126551945341
 20
-22.37406947921324
 30
0.0
 40
0.8906723995727782
 50
94.994589319075374
 51
155.1663289573041
1001
GENIUS_GENOBJ-N-FIL_13
1002
{
1000
OWNER
1000
GEN
1002
}
1001
GENIUS_GENODEF_13
1002
{
1000
HIER
1070
     0
1002
}
1002
{
1000
MANEDIT
1070
     0
1002
}
1002
{
1000
NOSEL
1070
     0
1002
}
1002
{
1000
BEHIND
1070
     0
1002
}
1002
{
1000
OTHER
1070
     0
1002
}
1002
{
1000
REACTOR
1002
}
  0
ARC
  5
42D9
  8
247
  6
CONTINUOUS
 10
10.16014588866779
 20
-23.226458886212569
 30
0.0
 40
1.392781735586712
 50
15.846096555780679
 51
82.325137004169122
  0
ARC
  5
42DA
  8
247
  6
CONTINUOUS
 10
10.45924343152728
 20
-22.642212725840359
 30
0.0
 40
1.324563662670287
 50
249.7136016704969
 51
321.78874565640581
1001
GENIUS_GENOBJ-N-FIL_13
1002
{
1000
OWNER
1000
GEN
1002
}
1001
GENIUS_GENODEF_13
1002
{
1000
HIER
1070
     0
1002
}
1002
{
1000
MANEDIT
1070
     0
1002
}
1002
{
1000
NOSEL
1070
     0
1002
}
1002
{
1000
BEHIND
1070
     0
1002
}
1002
{
1000
OTHER
1070
     0
1002
}
1002
{
1000
REACTOR
1002
}
  0
LINE
  5
42DB
  8
247
  6
CONTINUOUS
 10
10.34615384621998
 20
-22.538461538759972
 30
0.0
 11
10.34615384621998
 21
-21.846153846479972
 31
0.0
  0
LINE
  5
42DC
  8
247
  6
CONTINUOUS
 10
8.500000000139952
 20
-28.250000000070049
 30
0.0
 11
8.500000000139952
 21
-27.576923077020052
 31
0.0
  0
LINE
  5
42DD
  8
241
  6
CONTINUOUS
 10
29.000000000000249
 20
-52.5
 30
0.0
 11
29.000000000000039
 21
52.500000000000391
 31
0.0
  0
TEXT
  5
42DE
  8
241
  6
CONTINUOUS
 10
-71.999999999999687
 20
91.0
 30
0.0
 40
5.0
  1
HSK-A125-SMC1.250-4
  7
YOKO
 11
-71.999999999999687
 21
91.0
 31
0.0
 73
     1
  0
LINE
  5
42DF
  8
245
  6
CENTER2
 10
-66.010679551616363
 20
0.0
 30
0.0
 11
143.98816112880081
 21
0.0
 31
0.0
  0
LINE
  5
42E0
  8
243
  6
HIDDEN2
 10
4.999999999999571
 20
-55.0
 30
0.0
 11
4.999999999999571
 21
-62.500000000000313
 31
0.0
  0
LINE
  5
42E1
  8
243
  6
HIDDEN2
 10
4.999999999999571
 20
55.0
 30
0.0
 11
29.00000000000006
 21
55.0
 31
0.0
  0
LINE
  5
42E2
  8
243
  6
HIDDEN2
 10
4.999999999999571
 20
-55.0
 30
0.0
 11
29.00000000000016
 21
-55.0
 31
0.0
  0
LINE
  5
42E3
  8
243
  6
HIDDEN2
 10
-62.999999999999901
 20
33.499999999999872
 30
0.0
 11
-38.00205080756875
 21
33.50000000000005
 31
0.0
  0
LINE
  5
42E4
  8
243
  6
HIDDEN2
 10
-12.87439318958363
 20
40.000000000000071
 30
0.0
 11
-34.249274057836203
 21
40.000000000000149
 31
0.0
  0
LINE
  5
42E5
  8
243
  6
HIDDEN2
 10
-34.249274057836203
 20
40.000000000000149
 30
0.0
 11
-38.00205080756875
 21
33.50000000000005
 31
0.0
  0
ARC
  5
42E6
  8
243
  6
HIDDEN2
 10
-12.87439318958369
 20
24.00000000000006
 30
0.0
 40
16.0
 50
36.423573642332038
 51
90.0
  0
LINE
  5
42E7
  8
243
  6
HIDDEN2
 10
4.999999999999571
 20
55.0
 30
0.0
 11
4.999999999999571
 21
62.500000000000171
 31
0.0
  0
LINE
  5
42E8
  8
243
  6
HIDDEN2
 10
-62.999999999999901
 20
-33.499999999999872
 30
0.0
 11
-38.00205080756875
 21
-33.50000000000005
 31
0.0
  0
LINE
  5
42E9
  8
243
  6
HIDDEN2
 10
-12.87439318958363
 20
-40.000000000000071
 30
0.0
 11
-34.249274057836203
 21
-40.000000000000149
 31
0.0
  0
LINE
  5
42EA
  8
243
  6
HIDDEN2
 10
-34.249274057836203
 20
-40.000000000000149
 30
0.0
 11
-38.00205080756875
 21
-33.50000000000005
 31
0.0
  0
ARC
  5
42EB
  8
243
  6
HIDDEN2
 10
-12.87439318958369
 20
-24.00000000000006
 30
0.0
 40
16.0
 50
270.0
 51
323.57642635766808
  0
LINE
  5
430C
  8
240
  6
CONTINUOUS
 10
37.000000000000078
 20
52.499999999999751
 30
0.0
 11
29.00000000000006
 21
52.500000000000341
 31
0.0
  0
LINE
  5
430D
  8
240
  6
CONTINUOUS
 10
37.000000000000092
 20
-52.499999999999851
 30
0.0
 11
37.000000000000092
 21
-39.924999999999983
 31
0.0
  0
ARC
  5
430E
  8
240
  6
CONTINUOUS
 10
41.999999999999829
 20
-39.924999999999997
 30
0.0
 40
5.0
 50
90.0
 51
180.0
  0
LINE
  5
430F
  8
240
  6
CONTINUOUS
 10
29.000000000000171
 20
-52.500000000000021
 30
0.0
 11
37.000000000000092
 21
-52.499999999999851
 31
0.0
  0
LINE
  5
4310
  8
240
  6
CONTINUOUS
 10
37.000000000000213
 20
39.924999999999898
 30
0.0
 11
37.000000000000078
 21
52.499999999999751
 31
0.0
  0
ARC
  5
4311
  8
240
  6
CONTINUOUS
 10
41.999999999999872
 20
39.924999999999912
 30
0.0
 40
5.0
 50
180.0
 51
270.0
  0
LINE
  5
4312
  8
240
  6
CONTINUOUS
 10
119.0999999999997
 20
-15.87499999999967
 30
0.0
 11
119.0999999999997
 21
-7.8999999999999773
 31
0.0
  0
LINE
  5
4313
  8
240
  6
CONTINUOUS
 10
101.5999999999997
 20
-34.924999999999891
 30
0.0
 11
41.999999999999829
 21
-34.924999999999997
 31
0.0
  0
LINE
  5
4314
  8
240
  6
CONTINUOUS
 10
101.5999999999997
 20
-34.924999999999891
 30
0.0
 11
101.5999999999996
 21
-15.874999999999901
 31
0.0
  0
LINE
  5
4315
  8
240
  6
CONTINUOUS
 10
101.5999999999996
 20
-15.87499999999986
 30
0.0
 11
119.0999999999997
 21
-15.87499999999967
 31
0.0
  0
LINE
  5
4316
  8
240
  6
CONTINUOUS
 10
101.5999999999995
 20
34.924999999999912
 30
0.0
 11
41.999999999999872
 21
34.924999999999912
 31
0.0
  0
LINE
  5
4317
  8
240
  6
CONTINUOUS
 10
101.5999999999995
 20
34.924999999999912
 30
0.0
 11
101.5999999999998
 21
15.87499999999986
 31
0.0
  0
LINE
  5
4332
  8
240
  6
CONTINUOUS
 10
101.5999999999998
 20
15.874999999999901
 30
0.0
 11
119.0999999999995
 21
15.87499999999973
 31
0.0
  0
LINE
  5
433A
  8
241
  6
CONTINUOUS
 10
37.000000000000092
 20
-39.924999999999983
 30
0.0
 11
37.000000000000213
 21
39.924999999999891
 31
0.0
  0
LINE
  5
438B
  8
241
  6
CONTINUOUS
 10
101.5999999999998
 20
15.874999999999909
 30
0.0
 11
101.5999999999998
 21
6.299999999999911
 31
0.0
  0
LINE
  5
438C
  8
241
  6
CONTINUOUS
 10
94.899999999999778
 20
-6.3000000000000806
 30
0.0
 11
108.5999999999998
 21
-6.3000000000000806
 31
0.0
  0
LINE
  5
438D
  8
241
  6
CONTINUOUS
 10
94.899999999999778
 20
6.299999999999911
 30
0.0
 11
108.5999999999998
 21
6.299999999999911
 31
0.0
  0
LINE
  5
438E
  8
241
  6
CONTINUOUS
 10
101.5999999999998
 20
-15.87500000000008
 30
0.0
 11
101.5999999999998
 21
-6.3000000000000806
 31
0.0
  0
CIRCLE
  5
438F
  8
241
  6
CONTINUOUS
 10
95.599999999999795
 20
-0.0000000000000853
 30
0.0
 40
3.5
  0
LINE
  5
4390
  8
241
  6
CONTINUOUS
 10
95.599999999999795
 20
1.732050809999917
 30
0.0
 11
94.099999999999795
 21
0.8660253999999126
 31
0.0
  0
LINE
  5
4391
  8
241
  6
CONTINUOUS
 10
97.099999999999795
 20
0.8660253999999126
 30
0.0
 11
95.599999999999795
 21
1.732050809999917
 31
0.0
  0
LINE
  5
4392
  8
241
  6
CONTINUOUS
 10
95.599999999999795
 20
-1.7320508100000891
 30
0.0
 11
97.099999999999795
 21
-0.8660254000000833
 31
0.0
  0
ARC
  5
4393
  8
241
  6
CONTINUOUS
 10
94.899999999999778
 20
-0.0000000000000853
 30
0.0
 40
6.3000000000000131
 50
90.0
 51
270.0
  0
LINE
  5
4394
  8
241
  6
CONTINUOUS
 10
94.099999999999795
 20
-0.8660254000000833
 30
0.0
 11
95.599999999999795
 21
-1.7320508100000891
 31
0.0
  0
LINE
  5
4395
  8
241
  6
CONTINUOUS
 10
94.099999999999795
 20
0.8660253999999126
 30
0.0
 11
94.099999999999795
 21
-0.8660254000000833
 31
0.0
  0
LINE
  5
4396
  8
241
  6
CONTINUOUS
 10
97.099999999999795
 20
-0.8660254000000833
 30
0.0
 11
97.099999999999795
 21
0.8660253999999126
 31
0.0
  0
LINE
  5
4397
  8
241
  6
CONTINUOUS
 10
108.5999999999998
 20
-6.3000000000000806
 30
0.0
 11
108.5999999999998
 21
6.299999999999911
 31
0.0
  0
LINE
  5
43F2
  8
240
  6
CONTINUOUS
 10
119.0999999999996
 20
-7.8999999999999631
 30
0.0
 11
127.0999999999996
 21
-7.8999999999999631
 31
0.0
  0
LINE
  5
43F3
  8
240
  6
CONTINUOUS
 10
119.0999999999996
 20
7.9000000000000483
 30
0.0
 11
127.0999999999995
 21
7.9000000000000483
 31
0.0
  0
LINE
  5
43F6
  8
240
  6
CONTINUOUS
 10
127.0999999999996
 20
-19.050000000000001
 30
0.0
 11
138.79999999999961
 21
-19.050000000000001
 31
0.0
  0
LINE
  5
43F7
  8
240
  6
CONTINUOUS
 10
127.0999999999995
 20
19.050000000000001
 30
0.0
 11
138.79999999999939
 21
19.050000000000001
 31
0.0
  0
LINE
  5
43F8
  8
240
  6
CONTINUOUS
 10
127.0999999999996
 20
-19.050000000000001
 30
0.0
 11
127.0999999999996
 21
-7.8999999999999631
 31
0.0
  0
LINE
  5
43F9
  8
240
  6
CONTINUOUS
 10
139.79999999999961
 20
-18.050000000000001
 30
0.0
 11
139.79999999999939
 21
18.050000000000001
 31
0.0
  0
LINE
  5
43FA
  8
240
  6
CONTINUOUS
 10
127.0999999999995
 20
7.9000000000000483
 30
0.0
 11
127.0999999999995
 21
19.050000000000001
 31
0.0
  0
LINE
  5
43FB
  8
240
  6
CONTINUOUS
 10
119.0999999999995
 20
7.9000000000000332
 30
0.0
 11
119.0999999999995
 21
15.87499999999973
 31
0.0
  0
LINE
  5
43FD
  8
240
  6
CONTINUOUS
 10
139.79999999999939
 20
18.050000000000001
 30
0.0
 11
138.79999999999939
 21
19.050000000000001
 31
0.0
1001
GENIUS_GENFIL_13
1070
     0
1040
1.0
1040
1.0
1040
0.2
1040
45.0
1002
{
1002
}
1001
GENIUS_GENOBJ-N-CHA_13
1002
{
1000
OWNER
1000
GEN
1002
}
1001
GENIUS_GENODEF_13
1002
{
1000
HIER
1070
     0
1002
}
1002
{
1000
MANEDIT
1070
     0
1002
}
1002
{
1000
NOSEL
1070
     0
1002
}
1002
{
1000
BEHIND
1070
     0
1002
}
1002
{
1000
OTHER
1070
     0
1002
}
1002
{
1000
REACTOR
1002
}
  0
LINE
  5
43FE
  8
240
  6
CONTINUOUS
 10
139.79999999999961
 20
-18.050000000000001
 30
0.0
 11
138.79999999999961
 21
-19.050000000000001
 31
0.0
1001
GENIUS_GENFIL_13
1070
     0
1040
1.0
1040
1.0
1040
0.2
1040
45.0
1002
{
1002
}
1001
GENIUS_GENOBJ-N-CHA_13
1002
{
1000
OWNER
1000
GEN
1002
}
1001
GENIUS_GENODEF_13
1002
{
1000
HIER
1070
     0
1002
}
1002
{
1000
MANEDIT
1070
     0
1002
}
1002
{
1000
NOSEL
1070
     0
1002
}
1002
{
1000
BEHIND
1070
     0
1002
}
1002
{
1000
OTHER
1070
     0
1002
}
1002
{
1000
REACTOR
1002
}
  0
LINE
  5
43FF
  8
241
  6
CONTINUOUS
 10
119.0999999999995
 20
7.899999999999932
 30
0.0
 11
119.0999999999997
 21
-7.9000000000000759
 31
0.0
  0
LINE
  5
4401
  8
241
  6
CONTINUOUS
 10
127.0999999999995
 20
7.9000000000000483
 30
0.0
 11
127.0999999999996
 21
-7.8999999999999631
 31
0.0
  0
LINE
  5
44D1
  8
250
  6
CONTINUOUS
 10
-0.0000000000000787
 20
63.000000000000242
 30
0.0
 11
-0.0000000000000778
 21
78.0
 31
0.0
  0
LINE
  5
44D2
  8
250
  6
CONTINUOUS
 10
101.5999999999998
 20
35.424999999999933
 30
0.0
 11
101.5999999999998
 21
78.0
 31
0.0
  0
LINE
  5
44D3
  8
250
  6
CONTINUOUS
 10
2.22999999999992
 20
77.0
 30
0.0
 11
99.369999999999862
 21
77.0
 31
0.0
  0
LINE
  5
44D7
  8
250
  6
CONTINUOUS
 10
102.0999999999995
 20
34.924999999999848
 30
0.0
 11
161.99999999999969
 21
34.924999999999827
 31
0.0
  0
LINE
  5
44D8
  8
250
  6
CONTINUOUS
 10
102.0999999999997
 20
-34.92499999999994
 30
0.0
 11
161.99999999999969
 21
-34.924999999999969
 31
0.0
  0
LINE
  5
44D9
  8
250
  6
CONTINUOUS
 10
160.99999999999969
 20
32.694999999999837
 30
0.0
 11
160.99999999999969
 21
-32.694999999999979
 31
0.0
  0
LINE
  5
44DD
  8
250
  6
CONTINUOUS
 10
119.5999999999995
 20
15.874999999999631
 30
0.0
 11
154.99999999999969
 21
15.874999999999609
 31
0.0
  0
LINE
  5
44DE
  8
250
  6
CONTINUOUS
 10
119.5999999999997
 20
-15.874999999999771
 30
0.0
 11
154.99999999999969
 21
-15.87499999999979
 31
0.0
  0
LINE
  5
44DF
  8
250
  6
CONTINUOUS
 10
153.99999999999969
 20
13.644999999999619
 30
0.0
 11
153.99999999999969
 21
-13.644999999999779
 31
0.0
  0
TEXT
  5
44E3
  8
250
  6
CONTINUOUS
 10
44.599999999999888
 20
78.000000000000014
 30
0.0
 40
2.799999999999998
  1
4.00
  0
LINE
  5
44E4
  8
250
  6
CONTINUOUS
 10
99.369999999999862
 20
77.371666666666655
 30
0.0
 11
101.5999999999998
 21
77.0
 31
0.0
  0
LINE
  5
44E5
  8
250
  6
CONTINUOUS
 10
99.369999999999862
 20
76.62833333333333
 30
0.0
 11
101.5999999999998
 21
77.0
 31
0.0
  0
LINE
  5
44E6
  8
250
  6
CONTINUOUS
 10
101.5999999999998
 20
77.0
 30
0.0
 11
99.369999999999862
 21
77.0
 31
0.0
  0
LINE
  5
44E7
  8
250
  6
CONTINUOUS
 10
2.22999999999992
 20
76.62833333333333
 30
0.0
 11
-0.0000000000000778
 21
77.0
 31
0.0
  0
LINE
  5
44E8
  8
250
  6
CONTINUOUS
 10
2.22999999999992
 20
77.371666666666655
 30
0.0
 11
-0.0000000000000778
 21
77.0
 31
0.0
  0
LINE
  5
44E9
  8
250
  6
CONTINUOUS
 10
-0.0000000000000778
 20
77.0
 30
0.0
 11
2.22999999999992
 21
77.0
 31
0.0
  0
TEXT
  5
44EA
  8
250
  6
CONTINUOUS
 10
159.99999999999969
 20
-7.2666666666666941
 30
0.0
 40
2.799999999999998
  1
\U+22052.750
 50
90.0
  0
LINE
  5
44EB
  8
250
  6
CONTINUOUS
 10
161.3716666666663
 20
-32.694999999999979
 30
0.0
 11
160.99999999999969
 21
-34.924999999999969
 31
0.0
  0
LINE
  5
44EC
  8
250
  6
CONTINUOUS
 10
160.62833333333299
 20
-32.694999999999979
 30
0.0
 11
160.99999999999969
 21
-34.924999999999969
 31
0.0
  0
LINE
  5
44ED
  8
250
  6
CONTINUOUS
 10
160.99999999999969
 20
-34.924999999999969
 30
0.0
 11
160.99999999999969
 21
-32.694999999999979
 31
0.0
  0
LINE
  5
44EE
  8
250
  6
CONTINUOUS
 10
160.62833333333299
 20
32.694999999999837
 30
0.0
 11
160.99999999999969
 21
34.924999999999827
 31
0.0
  0
LINE
  5
44EF
  8
250
  6
CONTINUOUS
 10
161.3716666666663
 20
32.694999999999837
 30
0.0
 11
160.99999999999969
 21
34.924999999999827
 31
0.0
  0
LINE
  5
44F0
  8
250
  6
CONTINUOUS
 10
160.99999999999969
 20
34.924999999999827
 30
0.0
 11
160.99999999999969
 21
32.694999999999837
 31
0.0
  0
TEXT
  5
44F1
  8
250
  6
CONTINUOUS
 10
152.99999999999969
 20
-7.2666666666667208
 30
0.0
 40
2.799999999999998
  1
\U+22051.250
 50
90.0
  0
LINE
  5
44F2
  8
250
  6
CONTINUOUS
 10
154.3716666666663
 20
-13.644999999999779
 30
0.0
 11
153.99999999999969
 21
-15.87499999999979
 31
0.0
  0
LINE
  5
44F3
  8
250
  6
CONTINUOUS
 10
153.62833333333299
 20
-13.644999999999779
 30
0.0
 11
153.99999999999969
 21
-15.87499999999979
 31
0.0
  0
LINE
  5
44F4
  8
250
  6
CONTINUOUS
 10
153.99999999999969
 20
-15.87499999999979
 30
0.0
 11
153.99999999999969
 21
-13.644999999999779
 31
0.0
  0
LINE
  5
44F5
  8
250
  6
CONTINUOUS
 10
153.62833333333299
 20
13.644999999999619
 30
0.0
 11
153.99999999999969
 21
15.874999999999609
 31
0.0
  0
LINE
  5
44F6
  8
250
  6
CONTINUOUS
 10
154.3716666666663
 20
13.644999999999619
 30
0.0
 11
153.99999999999969
 21
15.874999999999609
 31
0.0
  0
LINE
  5
44F7
  8
250
  6
CONTINUOUS
 10
153.99999999999969
 20
15.874999999999609
 30
0.0
 11
153.99999999999969
 21
13.644999999999619
 31
0.0
  0
VIEWPORT
  5
22
 67
     1
  8
0
 10
261.51769911504419
 20
148.5
 30
0.0
 40
523.0353982300885
 41
297.0
 68
     1
 69
     1
1001
ACAD
1000
MVIEW
1002
{
1070
    16
1010
0.0
1020
0.0
1030
0.0
1010
0.0
1020
0.0
1030
1.0
1040
0.0
1040
297.0
1040
261.51769911504419
1040
148.5
1040
50.0
1040
0.0
1040
0.0
1070
     0
1070
   100
1070
     1
1070
     1
1070
     0
1070
     0
1070
     0
1070
     0
1040
0.0
1040
0.0
1040
0.0
1040
1.0
1040
1.0
1040
10.0
1040
10.0
1070
     0
1002
{
1002
}
1002
}
1001
GENIUS_GENODEF_13
1002
{
1000
HIER
1070
     0
1002
}
1002
{
1000
MANEDIT
1070
     0
1002
}
1002
{
1000
NOSEL
1070
     0
1002
}
1002
{
1000
BEHIND
1070
     0
1002
}
1002
{
1000
OTHER
1070
     0
1002
}
1002
{
1000
REACTOR
1002
}
1001
GENIUS_GENOBJ-N-SDF_13
1002
{
1000
OWNER
1000
GEN
1002
}
1001
GENIUS_GENSCREG_15
1000
PF
1040
1.0
1000
DF
1040
1.0
1000
MIN
1011
0.0
1021
0.0
1031
0.0
1021
0.0
1031
0.0
1000
MAX
1011
523.0353982300885
1021
0.0
1031
0.0
1021
297.0
1031
0.0
1000
FLAGS
1070
     4
  0
ENDSEC
  0
EOF
