  0
SECTION
  2
HEADER
  9
$ACADVER
  1
AC1009
  9
$INSBASE
 10
0.0
 20
0.0
 30
0.0
  9
$EXTMIN
 10
-66.134690099398753
 20
-62.500000000001663
 30
0.0
  9
$EXTMAX
 10
175.00000000000011
 20
96.000000000000014
 30
0.0
  9
$LIMMIN
 10
0.0
 20
0.0
  9
$LIMMAX
 10
297.0
 20
210.0
  9
$ORTHOMODE
 70
     0
  9
$REGENMODE
 70
     1
  9
$FILLMODE
 70
     1
  9
$QTEXTMODE
 70
     0
  9
$MIRRTEXT
 70
     1
  9
$DRAGMODE
 70
     2
  9
$LTSCALE
 40
10.0
  9
$OSMODE
 70
    37
  9
$ATTMODE
 70
     1
  9
$TEXTSIZE
 40
3.0
  9
$TRACEWID
 40
1.0
  9
$TEXTSTYLE
  7
YOKO
  9
$CLAYER
  8
240
  9
$CELTYPE
  6
BYLAYER
  9
$CECOLOR
 62
   256
  9
$DIMSCALE
 40
1.0
  9
$DIMASZ
 40
2.2299999999999991
  9
$DIMEXO
 40
0.5
  9
$DIMDLI
 40
7.0
  9
$DIMRND
 40
0.0
  9
$DIMDLE
 40
0.0
  9
$DIMEXE
 40
1.0
  9
$DIMTP
 40
0.0
  9
$DIMTM
 40
0.01
  9
$DIMTXT
 40
2.799999999999998
  9
$DIMCEN
 40
0.0
  9
$DIMTSZ
 40
0.0
  9
$DIMTOL
 70
     0
  9
$DIMLIM
 70
     0
  9
$DIMTIH
 70
     0
  9
$DIMTOH
 70
     0
  9
$DIMSE1
 70
     0
  9
$DIMSE2
 70
     0
  9
$DIMTAD
 70
     3
  9
$DIMZIN
 70
     9
  9
$DIMBLK
  1
OPEN
  9
$DIMASO
 70
     1
  9
$DIMSHO
 70
     1
  9
$DIMPOST
  1

  9
$DIMAPOST
  1

  9
$DIMALT
 70
     0
  9
$DIMALTD
 70
     2
  9
$DIMALTF
 40
25.399999999999999
  9
$DIMLFAC
 40
1.0
  9
$DIMTOFL
 70
     1
  9
$DIMTVP
 40
0.0
  9
$DIMTIX
 70
     1
  9
$DIMSOXD
 70
     0
  9
$DIMSAH
 70
     0
  9
$DIMBLK1
  1

  9
$DIMBLK2
  1

  9
$DIMSTYLE
  2
BIGT
  9
$DIMCLRD
 70
   256
  9
$DIMCLRE
 70
   256
  9
$DIMCLRT
 70
    40
  9
$DIMTFAC
 40
1.0
  9
$DIMGAP
 40
1.0
  9
$LUNITS
 70
     2
  9
$LUPREC
 70
     6
  9
$SKETCHINC
 40
1.0
  9
$FILLETRAD
 40
0.0
  9
$AUNITS
 70
     0
  9
$AUPREC
 70
     6
  9
$MENU
  1
.
  9
$ELEVATION
 40
0.0
  9
$PELEVATION
 40
0.0
  9
$THICKNESS
 40
0.0
  9
$LIMCHECK
 70
     0
  9
$BLIPMODE
 70
     0
  9
$CHAMFERA
 40
0.2
  9
$CHAMFERB
 40
0.2
  9
$SKPOLY
 70
     0
  9
$TDCREATE
 40
2457560.5913373842
  9
$TDUPDATE
 40
2458142.7954970491
  9
$TDINDWG
 40
0.0623105671
  9
$TDUSRTIMER
 40
0.0623105208
  9
$USRTIMER
 70
     1
  9
$ANGBASE
 50
0.0
  9
$ANGDIR
 70
     0
  9
$PDMODE
 70
     1
  9
$PDSIZE
 40
0.0
  9
$PLINEWID
 40
0.0
  9
$COORDS
 70
     1
  9
$SPLFRAME
 70
     0
  9
$SPLINETYPE
 70
     6
  9
$SPLINESEGS
 70
     4
  9
$ATTDIA
 70
     1
  9
$ATTREQ
 70
     1
  9
$HANDLING
 70
     1
  9
$HANDSEED
  5
4CAE
  9
$SURFTAB1
 70
     6
  9
$SURFTAB2
 70
     6
  9
$SURFTYPE
 70
     6
  9
$SURFU
 70
     6
  9
$SURFV
 70
     6
  9
$UCSNAME
  2

  9
$UCSORG
 10
0.0
 20
0.0
 30
0.0
  9
$UCSXDIR
 10
1.0
 20
0.0
 30
0.0
  9
$UCSYDIR
 10
0.0
 20
1.0
 30
0.0
  9
$PUCSNAME
  2

  9
$PUCSORG
 10
0.0
 20
0.0
 30
0.0
  9
$PUCSXDIR
 10
1.0
 20
0.0
 30
0.0
  9
$PUCSYDIR
 10
0.0
 20
1.0
 30
0.0
  9
$USERI1
 70
     1
  9
$USERI2
 70
     0
  9
$USERI3
 70
     0
  9
$USERI4
 70
     0
  9
$USERI5
 70
     0
  9
$USERR1
 40
0.0
  9
$USERR2
 40
0.0
  9
$USERR3
 40
0.0
  9
$USERR4
 40
0.0
  9
$USERR5
 40
0.0
  9
$WORLDVIEW
 70
     1
  9
$SHADEDGE
 70
     3
  9
$SHADEDIF
 70
    70
  9
$TILEMODE
 70
     1
  9
$MAXACTVP
 70
    16
  9
$PLIMCHECK
 70
     0
  9
$PEXTMIN
 10
1.0000000000000000E+020
 20
1.0000000000000000E+020
 30
1.0000000000000000E+020
  9
$PEXTMAX
 10
-1.0000000000000000E+020
 20
-1.0000000000000000E+020
 30
-1.0000000000000000E+020
  9
$PLIMMIN
 10
0.0
 20
0.0
  9
$PLIMMAX
 10
420.0
 20
297.0
  9
$UNITMODE
 70
     0
  9
$VISRETAIN
 70
     1
  9
$PLINEGEN
 70
     0
  9
$PSLTSCALE
 70
     1
  0
ENDSEC
  0
SECTION
  2
TABLES
  0
TABLE
  2
VPORT
 70
     1
  0
VPORT
  2
*ACTIVE
 70
     0
 10
0.0
 20
0.0
 11
1.0
 21
1.0
 12
58.785675015730646
 22
15.07917583338695
 13
0.0
 23
0.0
 14
7.0
 24
7.0
 15
7.0
 25
7.0
 16
0.0
 26
0.0
 36
1.0
 17
0.0
 27
0.0
 37
0.0
 40
281.36406409043713
 41
1.515499425947187
 42
50.0
 43
0.0
 44
0.0
 50
0.0
 51
0.0
 71
     0
 72
  2000
 73
     1
 74
     0
 75
     0
 76
     1
 77
     0
 78
     0
  0
ENDTAB
  0
TABLE
  2
LTYPE
 70
    16
  0
LTYPE
  2
CONTINUOUS
 70
     0
  3
Solid line
 72
    65
 73
     0
 40
0.0
  0
LTYPE
  2
CENTER2
 70
     0
  3
___ _ ___ _ ___ _ ___ _ ___ _ ___ _ ___ _ ___ _
 72
    65
 73
     4
 40
1.125
 49
0.75
 49
-0.125
 49
0.125
 49
-0.125
  0
LTYPE
  2
HIDDEN2
 70
     0
  3
_ _ _ _ _ _ _ _ _ _ _ _ _ _ _ _ _ _ _ _ _ _ _ _
 72
    65
 73
     2
 40
0.1875
 49
0.125
 49
-0.0625
  0
LTYPE
  2
PHANTOM2
 70
     0
  3
___ _ _ ___ _ _ ___ _ _ ___ _ _ ___ _ _ ___ _ _
 72
    65
 73
     6
 40
1.25
 49
0.625
 49
-0.125
 49
0.125
 49
-0.125
 49
0.125
 49
-0.125
  0
LTYPE
  2
AMCONSTR
 70
     0
  3
_______________________
 72
    65
 73
     2
 40
9999.0
 49
9999.0
 49
0.0
  0
LTYPE
  2
HIDDEN
 70
     0
  3
Hidden __ __ __ __ __ __ __ __ __ __ __ __ __ _
 72
    65
 73
     2
 40
0.375
 49
0.25
 49
-0.125
  0
LTYPE
  2
CENTER
 70
     0
  3
Center ____ _ ____ _ ____ _ ____ _ ____ _ ____
 72
    65
 73
     4
 40
2.0
 49
1.25
 49
-0.25
 49
0.25
 49
-0.25
  0
LTYPE
  2
AMZIGZAG2
 70
     0
  3
/\/-/\/-/\/-/\/-/\/-/\/
 72
    65
 73
     2
 40
0.4401
 49
0.0001
 49
-0.4400000000000001
  0
LTYPE
  2
ACANSTGB
 70
     0
  3
__ . . __ . .
 72
    65
 73
     6
 40
0.35433070866
 49
0.15748031496
 49
-0.03937007874
 49
0.03937007874
 49
-0.03937007874
 49
0.03937007874
 49
-0.03937007874
  0
LTYPE
  2
ACANSTGL
 70
     0
  3
_ _ _ _ _
 72
    65
 73
     2
 40
0.11811023622
 49
0.07874015748
 49
-0.03937007874
  0
ENDTAB
  0
TABLE
  2
LAYER
 70
    10
  0
LAYER
  2
0
 70
     0
 62
     7
  6
CONTINUOUS
  0
LAYER
  2
241
 70
     0
 62
   211
  6
CONTINUOUS
  0
LAYER
  2
DEFPOINTS
 70
     0
 62
     7
  6
CONTINUOUS
  0
LAYER
  2
245
 70
     0
 62
     2
  6
CENTER2
  0
LAYER
  2
240
 70
     0
 62
     4
  6
CONTINUOUS
  0
LAYER
  2
242
 70
     0
 62
     3
  6
CONTINUOUS
  0
LAYER
  2
243
 70
     0
 62
   211
  6
HIDDEN2
  0
LAYER
  2
246
 70
     0
 62
     3
  6
PHANTOM2
  0
LAYER
  2
247
 70
     0
 62
    60
  6
CONTINUOUS
  0
LAYER
  2
250
 70
     0
 62
     3
  6
CONTINUOUS
  0
ENDTAB
  0
TABLE
  2
STYLE
 70
     5
  0
STYLE
  2
STANDARD
 70
     0
 40
0.0
 41
1.0
 50
0.0
 71
     0
 42
3.0
  3
romans.shx
  4
extfont.shx
  0
STYLE
  2
YOKO
 70
     0
 40
0.0
 41
1.0
 50
0.0
 71
     0
 42
3.0
  3
romans.shx
  4
extfont.shx
  0
STYLE
  2

 70
     1
 40
0.0
 41
1.0
 50
0.0
 71
     0
 42
3.0
  3
genltshp.shx
  4

  0
STYLE
  2
ACANSGDT
 70
     0
 40
0.0
 41
1.0
 50
0.0
 71
     0
 42
3.0
  3
amgdt.shx
  4

  0
ENDTAB
  0
TABLE
  2
VIEW
 70
     0
  0
ENDTAB
  0
TABLE
  2
UCS
 70
     0
  0
ENDTAB
  0
TABLE
  2
APPID
 70
    42
  0
APPID
  2
ACAD
 70
     0
  0
APPID
  2
ACADANNOTATIVE
 70
     0
  0
APPID
  2
GLOBAL
 70
     0
  0
APPID
  2
DETAIL
 70
     0
  0
APPID
  2
GRPNAME
 70
     0
  0
APPID
  2
GPARA
 70
     0
  0
APPID
  2
MCAD_NO_VIS
 70
     0
  0
APPID
  2
ACAD_TEMP_GRAPHIC
 70
     0
  0
APPID
  2
ACATTRIBSERVICES
 70
     0
  0
APPID
  2
GENIUS_GENSCREG_15
 70
     0
  0
APPID
  2
GENIUS_GENODEF_13
 70
     0
  0
APPID
  2
GENIUS_GENOBJ-N-SDF_13
 70
     0
  0
APPID
  2
GENIUS_GENREC_14
 70
     0
  0
APPID
  2
GENIUS_GENOBJ-N-REC_13
 70
     0
  0
APPID
  2
GENIUS_GENDIMSH_14
 70
     0
  0
APPID
  2
GENIUS_GENOBJ-N-DIM_13
 70
     0
  0
APPID
  2
GENIUS_GENDIM_13
 70
     0
  0
APPID
  2
GENIUS_GENDTOL_13
 70
     0
  0
APPID
  2
GENIUS_GENOLIS_13
 70
     0
  0
APPID
  2
GENIUS_GENOENT_13
 70
     0
  0
APPID
  2
GENIUS_GENOBJ-F-FEM_13
 70
     0
  0
APPID
  2
GENIUS_GENOREF_13
 70
     0
  0
APPID
  2
GENIUS_GEFFEM_13
 70
     0
  0
APPID
  2
GENIUS_GEFFEMP_13
 70
     0
  0
APPID
  2
AD_DRAW
 70
     0
  0
APPID
  2
DESIGNERASSEMBLIES
 70
     0
  0
APPID
  2
ACADM_DIM_EDIT
 70
     0
  0
APPID
  2
AMDT_DM_ADJ
 70
     0
  0
APPID
  2
ITEMNAME
 70
     0
  0
APPID
  2
GENIUS_GENOBJ-N-FIL_13
 70
     0
  0
APPID
  2
GENIUS_GENFIL_13
 70
     0
  0
APPID
  2
GENIUS_GENOBJ-N-CHA_13
 70
     0
  0
APPID
  2
ACAD_NAV_VCDISPLAY
 70
     0
  0
APPID
  2
ACAD_PSEXT
 70
     0
  0
APPID
  2
ACAD_DSTYLE_DIMJAG
 70
     0
  0
APPID
  2
ACAD_DSTYLE_DIMBREAK
 70
     0
  0
APPID
  2
ACAD_EXEMPT_FROM_CAD_STANDARDS
 70
     0
  0
APPID
  2
ACAD_MLEADERVER
 70
     0
  0
APPID
  2
ACAD_DSTYLE_DIMARC_LENGTH_
 70
     0
  0
APPID
  2
ACAD_DSTYLE_DIM_LINETYPE
 70
     0
  0
APPID
  2
ACAD_DSTYLE_DIM_EXT1_LINETYPE
 70
     0
  0
APPID
  2
ACAD_DSTYLE_DIM_EXT2_LINETYPE
 70
     0
  0
ENDTAB
  0
TABLE
  2
DIMSTYLE
 70
     8
  0
DIMSTYLE
  2
STANDARD
 70
     0
  3

  4

  5

  6

  7

 40
1.0
 41
0.18
 42
0.0625
 43
0.38
 44
0.18
 45
0.0
 46
0.0
 47
0.0
 48
0.0
140
0.18
141
0.09
142
0.0
143
25.399999999999999
144
1.0
145
0.0
146
1.0
147
0.09
 71
     0
 72
     0
 73
     1
 74
     1
 75
     0
 76
     0
 77
     0
 78
     0
170
     0
171
     2
172
     0
173
     0
174
     0
175
     0
176
     0
177
     0
178
     0
  0
DIMSTYLE
  2
BIGT
 70
     0
  3

  4

  5

  6

  7

 40
1.0
 41
2.2299999999999991
 42
0.5
 43
7.0
 44
1.0
 45
0.0
 46
0.0
 47
0.0
 48
0.01
140
2.799999999999998
141
0.0
142
0.0
143
25.399999999999999
144
1.0
145
0.0
146
1.0
147
1.0
 71
     0
 72
     0
 73
     0
 74
     0
 75
     0
 76
     0
 77
     3
 78
     9
170
     0
171
     2
172
     1
173
     0
174
     1
175
     0
176
   256
177
   256
178
    40
  0
DIMSTYLE
  2
AM_ANSI
 70
     0
  3

  4
mm
  5

  6

  7

 40
1.0
 41
0.12
 42
0.05
 43
0.5
 44
0.1
 45
0.0
 46
0.0
 47
0.1
 48
0.1
140
0.12
141
0.0
142
0.0
143
25.399999999999999
144
1.0
145
0.0
146
0.71
147
0.06
 71
     0
 72
     0
 73
     1
 74
     1
 75
     0
 76
     0
 77
     0
 78
     7
170
     0
171
     2
172
     0
173
     0
174
     0
175
     0
176
   256
177
   256
178
     2
  0
DIMSTYLE
  2
AM_ANSI$3
 70
     0
  3

  4
mm
  5

  6

  7

 40
1.0
 41
0.12
 42
0.05
 43
0.5
 44
0.1
 45
0.0
 46
0.0
 47
0.1
 48
0.1
140
0.12
141
0.0
142
0.0
143
25.399999999999999
144
1.0
145
0.0
146
0.71
147
0.06
 71
     0
 72
     0
 73
     1
 74
     1
 75
     0
 76
     0
 77
     0
 78
     7
170
     0
171
     2
172
     0
173
     0
174
     0
175
     0
176
   256
177
   256
178
     2
  0
DIMSTYLE
  2
AM_ANSI$4
 70
     0
  3

  4
mm
  5

  6

  7

 40
1.0
 41
0.12
 42
0.05
 43
0.5
 44
0.1
 45
0.0
 46
0.0
 47
0.1
 48
0.1
140
0.12
141
0.0
142
0.0
143
25.399999999999999
144
1.0
145
0.0
146
0.71
147
0.06
 71
     0
 72
     0
 73
     1
 74
     1
 75
     0
 76
     0
 77
     0
 78
     7
170
     0
171
     2
172
     0
173
     0
174
     0
175
     0
176
   256
177
   256
178
     2
  0
DIMSTYLE
  2
AM_ANSI$7
 70
     0
  3

  4
mm
  5

  6

  7

 40
1.0
 41
0.12
 42
0.05
 43
0.5
 44
0.1
 45
0.0
 46
0.0
 47
0.1
 48
0.1
140
0.12
141
0.0
142
0.0
143
25.399999999999999
144
1.0
145
0.0
146
0.71
147
0.06
 71
     0
 72
     0
 73
     1
 74
     1
 75
     0
 76
     0
 77
     0
 78
     7
170
     0
171
     2
172
     0
173
     0
174
     0
175
     0
176
   256
177
   256
178
     2
  0
DIMSTYLE
  2
AM_ANSI$SF
 70
     0
  3

  4
mm
  5

  6

  7

 40
1.0
 41
0.12
 42
0.05
 43
0.5
 44
0.1
 45
0.0
 46
0.0
 47
0.1
 48
0.1
140
0.12
141
0.0
142
0.0
143
25.399999999999999
144
1.0
145
0.0
146
0.71
147
0.06
 71
     0
 72
     0
 73
     1
 74
     1
 75
     1
 76
     1
 77
     0
 78
     7
170
     0
171
     2
172
     0
173
     0
174
     0
175
     0
176
   256
177
   256
178
     2
  0
DIMSTYLE
  2
AM_ANSI$SH
 70
     0
  3

  4
mm
  5

  6
GENAXEH
  7

 40
1.0
 41
0.12
 42
0.05
 43
0.5
 44
0.1
 45
0.0
 46
0.0
 47
0.1
 48
0.1
140
0.12
141
0.0
142
0.0
143
25.399999999999999
144
1.0
145
0.0
146
0.71
147
0.06
 71
     0
 72
     0
 73
     1
 74
     1
 75
     1
 76
     1
 77
     0
 78
     7
170
     0
171
     2
172
     0
173
     1
174
     0
175
     0
176
   256
177
   256
178
     2
  0
ENDTAB
  0
ENDSEC
  0
SECTION
  2
BLOCKS
  0
BLOCK
  8
0
  2
$MODEL_SPACE
 70
     0
 10
0.0
 20
0.0
 30
0.0
  3
$MODEL_SPACE
  1

  0
ENDBLK
  5
4ABA
  8
0
  0
BLOCK
 67
     1
  8
0
  2
$PAPER_SPACE
 70
     0
 10
0.0
 20
0.0
 30
0.0
  3
$PAPER_SPACE
  1

  0
ENDBLK
  5
4AB6
 67
     1
  8
0
  0
BLOCK
  8
0
  2
_OPEN
 70
     0
 10
0.0
 20
0.0
 30
0.0
  3
_OPEN
  1

  0
LINE
  5
482F
  8
0
  6
BYBLOCK
 62
     0
 10
-1.0
 20
0.1666666666666666
 30
0.0
 11
0.0
 21
0.0
 31
0.0
  0
LINE
  5
4830
  8
0
  6
BYBLOCK
 62
     0
 10
-1.0
 20
-0.1666666666666666
 30
0.0
 11
0.0
 21
0.0
 31
0.0
  0
LINE
  5
4831
  8
0
  6
BYBLOCK
 62
     0
 10
0.0
 20
0.0
 30
0.0
 11
-1.0
 21
0.0
 31
0.0
  0
ENDBLK
  5
4832
  8
0
  0
BLOCK
  8
0
  2
GENAXEH
 70
     0
 10
0.0
 20
0.0
 30
0.0
  3
GENAXEH
  1

  0
LINE
  5
486A
  8
0
 10
-1.0
 20
0.0
 30
0.0
 11
1.0
 21
0.0
 31
0.0
  0
ENDBLK
  5
486B
  8
0
  0
BLOCK
  8
0
  2
*U2
 70
     1
 10
0.0
 20
0.0
 30
0.0
  3
*U2
  1

  0
TEXT
  5
4A3F
  8
250
 10
-63.868023432732109
 20
-59.283382249222221
 30
0.0
 40
2.799999999999998
  1
HSK-A125
  7
YOKO
  0
ENDBLK
  5
4A41
  8
0
  0
BLOCK
  8
0
  2
_ACMFILLEDHALF
 70
     0
 10
0.0
 20
0.0
 30
0.0
  3
_ACMFILLEDHALF
  1

  0
TRACE
  5
4B80
  8
241
 62
     0
 10
-0.8
 20
0.0
 30
0.0
 11
-1.0
 21
0.166666666
 31
0.0
 12
0.0
 22
0.0
 32
0.0
 13
0.0
 23
0.0
 33
0.0
  0
LINE
  5
4B81
  8
241
 62
     0
 10
-1.0
 20
0.0
 30
0.0
 11
-0.8
 21
0.0
 31
0.0
  0
ENDBLK
  5
4B7F
  8
0
  0
ENDSEC
  0
SECTION
  2
ENTITIES
  0
TEXT
  5
453F
  8
241
  6
CONTINUOUS
 10
-62.999999999999901
 20
91.0
 30
0.0
 40
5.0
  1
HSK-A125-MEGAER32-160NL
  7
YOKO
 11
-62.999999999999901
 21
91.0
 31
0.0
 73
     1
  0
LINE
  5
4540
  8
250
  6
CONTINUOUS
 10
-32.570879420840797
 20
-48.1323919421921
 30
0.0
 11
-31.282204286245989
 21
-46.567007801289897
 31
0.0
  0
LINE
  5
4541
  8
250
  6
CONTINUOUS
 10
-31.993529151651181
 20
-48.46572527552545
 30
0.0
 11
-31.282204286245989
 21
-46.567007801289897
 31
0.0
  0
LINE
  5
4542
  8
250
  6
CONTINUOUS
 10
-31.282204286245989
 20
-46.567007801289897
 30
0.0
 11
-32.282204286245992
 21
-48.299058608858793
 31
0.0
  0
LINE
  5
4543
  8
250
  6
CONTINUOUS
 10
-32.282204286245992
 20
-48.299058608858793
 30
0.0
 11
-39.20135676606543
 21
-60.283382249222207
 31
0.0
1001
ACAD
1000
DSTYLE
1002
{
1070
    41
1040
2.0
1002
}
  0
INSERT
  5
4544
  8
241
  2
*U2
 10
0.0
 20
0.0
 30
0.0
  0
LINE
  5
4545
  8
250
  6
CONTINUOUS
 10
-39.20135676606543
 20
-60.283382249222207
 30
0.0
 11
-66.134690099398753
 21
-60.283382249222207
 31
0.0
1001
ITEMNAME
1000
LNSP2
  0
LINE
  5
4548
  8
250
  6
CONTINUOUS
 10
-0.0000000000000283
 20
63.000000000000249
 30
0.0
 11
-0.0000000000000274
 21
78.0
 31
0.0
  0
LINE
  5
4549
  8
250
  6
CONTINUOUS
 10
160.0
 20
25.5
 30
0.0
 11
160.0
 21
78.0
 31
0.0
  0
LINE
  5
454A
  8
250
  6
CONTINUOUS
 10
1.99999999999997
 20
77.0
 30
0.0
 11
158.0
 21
77.0
 31
0.0
  0
LINE
  5
454B
  8
250
  6
CONTINUOUS
 10
1.9999999999999709
 20
76.666666666666671
 30
0.0
 11
-0.0000000000000275
 21
77.0
 31
0.0
  0
LINE
  5
454C
  8
250
  6
CONTINUOUS
 10
1.9999999999999709
 20
77.333333333333329
 30
0.0
 11
-0.0000000000000275
 21
77.0
 31
0.0
  0
LINE
  5
454D
  8
250
  6
CONTINUOUS
 10
-0.0000000000000275
 20
77.0
 30
0.0
 11
1.9999999999999709
 21
77.0
 31
0.0
  0
LINE
  5
454E
  8
250
  6
CONTINUOUS
 10
158.0
 20
77.333333333333329
 30
0.0
 11
160.0
 21
77.0
 31
0.0
  0
LINE
  5
454F
  8
250
  6
CONTINUOUS
 10
158.0
 20
76.666666666666671
 30
0.0
 11
160.0
 21
77.0
 31
0.0
  0
LINE
  5
4550
  8
250
  6
CONTINUOUS
 10
160.0
 20
77.0
 30
0.0
 11
158.0
 21
77.0
 31
0.0
  0
TEXT
  5
4551
  8
250
  6
CONTINUOUS
 10
75.799999999999983
 20
78.000000000000028
 30
0.0
 40
2.799999999999998
  1
6.299
1001
ACAD
1000
MTEXTBEGIN
1070
    73
1070
     1
1070
    44
1040
1.0
1070
    74
1070
     0
1000
MTEXTEND
  0
LINE
  5
4552
  8
250
  6
CONTINUOUS
 10
49.0
 20
10.64999999999838
 30
0.0
 11
49.000000000000007
 21
71.0
 31
0.0
  0
LINE
  5
4553
  8
250
  6
CONTINUOUS
 10
160.0
 20
25.5
 30
0.0
 11
160.0
 21
71.0
 31
0.0
  0
LINE
  5
4554
  8
250
  6
CONTINUOUS
 10
51.000000000000007
 20
70.0
 30
0.0
 11
158.0
 21
70.0
 31
0.0
  0
LINE
  5
4555
  8
250
  6
CONTINUOUS
 10
51.000000000000007
 20
69.666666666666671
 30
0.0
 11
49.000000000000007
 21
70.0
 31
0.0
  0
LINE
  5
4556
  8
250
  6
CONTINUOUS
 10
51.000000000000007
 20
70.333333333333329
 30
0.0
 11
49.000000000000007
 21
70.0
 31
0.0
  0
LINE
  5
4557
  8
250
  6
CONTINUOUS
 10
49.000000000000007
 20
70.0
 30
0.0
 11
51.000000000000007
 21
70.0
 31
0.0
  0
LINE
  5
4558
  8
250
  6
CONTINUOUS
 10
158.0
 20
70.333333333333329
 30
0.0
 11
160.0
 21
70.0
 31
0.0
  0
LINE
  5
4559
  8
250
  6
CONTINUOUS
 10
158.0
 20
69.666666666666671
 30
0.0
 11
160.0
 21
70.0
 31
0.0
  0
LINE
  5
455A
  8
250
  6
CONTINUOUS
 10
160.0
 20
70.0
 30
0.0
 11
158.0
 21
70.0
 31
0.0
  0
TEXT
  5
455B
  8
250
  6
CONTINUOUS
 10
92.540000000000006
 20
71.000000000000014
 30
0.0
 40
2.799999999999998
  1
(max.4.37)
1001
ACAD
1000
MTEXTBEGIN
1070
    73
1070
     1
1070
    44
1040
1.0
1070
    74
1070
     0
1000
MTEXTEND
  0
LINE
  5
455C
  8
245
  6
CENTER2
 10
-62.999999999999737
 20
0.0000000000000568
 30
0.0
 11
161.0
 21
-0.0000000000001279
 31
0.0
  0
LINE
  5
455E
  8
240
  6
CONTINUOUS
 10
29.000000000000171
 20
-52.500000000000021
 30
0.0
 11
37.0
 21
-52.5
 31
0.0
  0
LINE
  5
455F
  8
240
  6
CONTINUOUS
 10
127.0001575694037
 20
25.000000000000121
 30
0.0
 11
44.06464066762242
 21
24.99999999999952
 31
0.0
  0
LINE
  5
4561
  8
240
  6
CONTINUOUS
 10
44.064640667622278
 20
-24.999999999999901
 30
0.0
 11
127.0001575694036
 21
-25.000000000000419
 31
0.0
  0
ARC
  5
4566
  8
240
  6
CONTINUOUS
 10
44.064640667622172
 20
-29.999999999999972
 30
0.0
 40
5.0
 50
89.99999999999838
 51
160.0000000000006
  0
LINE
  5
4567
  8
240
  6
CONTINUOUS
 10
37.0
 20
-52.5
 30
0.0
 11
37.000000000000043
 21
-35.14357267145467
 31
0.0
  0
LINE
  5
4568
  8
240
  6
CONTINUOUS
 10
0.0000000000000021
 20
-62.500000000000412
 30
0.0
 11
-0.0000000000000284
 21
-48.134252505009783
 31
0.0
  0
LINE
  5
456A
  8
240
  6
CONTINUOUS
 10
-0.0000000000000787
 20
62.500000000000242
 30
0.0
 11
16.752404735808302
 21
62.500000000000021
 31
0.0
  0
LINE
  5
456C
  8
241
  6
CONTINUOUS
 10
21.875000000000199
 20
-58.499999999999801
 30
0.0
 11
21.874999999999801
 21
-43.150898020782613
 31
0.0
  0
LINE
  5
456D
  8
240
  6
CONTINUOUS
 10
23.24759526419157
 20
62.499999999999972
 30
0.0
 11
29.000000000000021
 21
62.499999999999972
 31
0.0
  0
LINE
  5
456F
  8
240
  6
CONTINUOUS
 10
0.0000000000000021
 20
-62.500000000000412
 30
0.0
 11
16.752404735808302
 21
-62.500000000000071
 31
0.0
  0
LINE
  5
4570
  8
240
  6
CONTINUOUS
 10
23.24759526419157
 20
-62.500000000000021
 30
0.0
 11
21.875000000000831
 21
-60.122595264193897
 31
0.0
  0
LINE
  5
4571
  8
240
  6
CONTINUOUS
 10
18.124999999999911
 20
-60.122595264191361
 30
0.0
 11
16.752404735808302
 21
-62.500000000000071
 31
0.0
  0
LINE
  5
4572
  8
240
  6
CONTINUOUS
 10
21.875000000000199
 20
-58.499999999999801
 30
0.0
 11
18.12500000000162
 21
-58.500000000000043
 31
0.0
  0
LINE
  5
4573
  8
240
  6
CONTINUOUS
 10
23.24759526419157
 20
-62.500000000000021
 30
0.0
 11
29.000000000000139
 21
-62.49999999999995
 31
0.0
  0
LINE
  5
4575
  8
240
  6
CONTINUOUS
 10
-62.999999999999901
 20
-44.97793987975902
 30
0.0
 11
-62.999999999999979
 21
-12.50999999999997
 31
0.0
  0
LINE
  5
4577
  8
240
  6
CONTINUOUS
 10
0.0000000000006436
 20
48.134252505009748
 30
0.0
 11
-62.999999999999901
 21
44.977939879759091
 31
0.0
  0
LINE
  5
4578
  8
240
  6
CONTINUOUS
 10
-62.999999999999901
 20
12.51
 30
0.0
 11
-53.499999999999972
 21
12.51
 31
0.0
  0
ARC
  5
4579
  8
240
  6
CONTINUOUS
 10
-53.499999999999972
 20
-10.00999999999995
 30
0.0
 40
2.5
 50
270.0
 51
0.0
  0
ARC
  5
457A
  8
243
  6
HIDDEN2
 10
-46.499999999999879
 20
-10.009999999999961
 30
0.0
 40
2.5
 50
270.0
 51
0.0
  0
LINE
  5
457C
  8
240
  6
CONTINUOUS
 10
-62.999999999999901
 20
12.51
 30
0.0
 11
-62.999999999999901
 21
44.977939879759091
 31
0.0
  0
LINE
  5
4581
  8
240
  6
CONTINUOUS
 10
-62.999999999999979
 20
-12.50999999999997
 30
0.0
 11
-53.499999999999972
 21
-12.50999999999997
 31
0.0
  0
LINE
  5
4582
  8
243
  6
HIDDEN2
 10
-46.499999999999879
 20
-12.50999999999997
 30
0.0
 11
-53.499999999999879
 21
-12.510000000000099
 31
0.0
  0
LINE
  5
4583
  8
240
  6
CONTINUOUS
 10
0.0000000000006436
 20
48.134252505009748
 30
0.0
 11
-0.0000000000000787
 21
62.500000000000242
 31
0.0
  0
LINE
  5
4585
  8
240
  6
CONTINUOUS
 10
29.000000000000021
 20
62.499999999999972
 30
0.0
 11
29.00000000000011
 21
52.5
 31
0.0
  0
LINE
  5
4586
  8
240
  6
CONTINUOUS
 10
-0.0000000000000284
 20
-48.134252505009783
 30
0.0
 11
-62.999999999999901
 21
-44.97793987975902
 31
0.0
  0
LINE
  5
4587
  8
241
  6
CONTINUOUS
 10
10.00000000000008
 20
-12.500000000000011
 30
0.0
 11
29.000000000000089
 21
-12.50000000000008
 31
0.0
  0
ARC
  5
4589
  8
241
  6
CONTINUOUS
 10
10.00000000000008
 20
-7.5000000000000249
 30
0.0
 40
5.0
 50
180.0
 51
270.0
  0
LINE
  5
458A
  8
241
  6
CONTINUOUS
 10
10.00000000000008
 20
-39.499999999999922
 30
0.0
 11
29.000000000000139
 21
-39.499999999999972
 31
0.0
  0
LINE
  5
458B
  8
241
  6
CONTINUOUS
 10
4.9999999999999698
 20
-48.435524153249141
 30
0.0
 11
16.7524047358066
 21
-48.435524153249361
 31
0.0
  0
LINE
  5
458C
  8
241
  6
CONTINUOUS
 10
4.9999999999999698
 20
-48.435524153249141
 30
0.0
 11
5.0000000000000284
 21
-44.499999999999908
 31
0.0
  0
ARC
  5
458D
  8
241
  6
CONTINUOUS
 10
10.00000000000008
 20
-44.499999999999908
 30
0.0
 40
5.0
 50
90.0
 51
180.0
  0
LINE
  5
458E
  8
241
  6
CONTINUOUS
 10
21.875000000000028
 20
-39.500000000000171
 30
0.0
 11
21.87500000000006
 21
-12.499999999999909
 31
0.0
  0
LINE
  5
458F
  8
241
  6
CONTINUOUS
 10
18.125000000000082
 20
-39.500000000000128
 30
0.0
 11
18.125000000000131
 21
-12.499999999999879
 31
0.0
  0
LINE
  5
4590
  8
241
  6
CONTINUOUS
 10
16.752404735808302
 20
-62.500000000001663
 30
0.0
 11
16.752404735808302
 21
-48.435524153249361
 31
0.0
  0
LINE
  5
4591
  8
241
  6
CONTINUOUS
 10
23.24759526419157
 20
-62.500000000001613
 30
0.0
 11
23.24759526419157
 21
-48.435524153249361
 31
0.0
  0
LINE
  5
4592
  8
241
  6
CONTINUOUS
 10
23.24759526419157
 20
-39.500000000000171
 30
0.0
 11
23.24759526419157
 21
-12.499999999999909
 31
0.0
  0
LINE
  5
4593
  8
241
  6
CONTINUOUS
 10
16.752404735808302
 20
-39.500000000000128
 30
0.0
 11
16.752404735808302
 21
-12.499999999999879
 31
0.0
  0
LINE
  5
4594
  8
241
  6
CONTINUOUS
 10
18.12499999999946
 20
-43.15089802078289
 30
0.0
 11
21.874999999999801
 21
-43.150898020782613
 31
0.0
  0
LINE
  5
4595
  8
241
  6
CONTINUOUS
 10
16.752404735808302
 20
-48.435524153249361
 30
0.0
 11
18.1249999999994
 21
-45.326332978763638
 31
0.0
  0
LINE
  5
4596
  8
241
  6
CONTINUOUS
 10
21.874999999999801
 20
-45.326332978763638
 30
0.0
 11
23.24759526419157
 21
-48.435524153249183
 31
0.0
  0
LINE
  5
4597
  8
241
  6
CONTINUOUS
 10
23.247595264196061
 20
-48.435524153249361
 30
0.0
 11
29.000000000000028
 21
-48.435524153249197
 31
0.0
  0
LINE
  5
459A
  8
240
  6
CONTINUOUS
 10
18.125000000000021
 20
-60.122595264191759
 30
0.0
 11
18.12500000000162
 21
-58.500000000000043
 31
0.0
  0
LINE
  5
459B
  8
241
  6
CONTINUOUS
 10
18.125000000000021
 20
-58.499999999999943
 30
0.0
 11
18.12499999999946
 21
-43.15089802078289
 31
0.0
  0
LINE
  5
459C
  8
240
  6
CONTINUOUS
 10
21.875000000000831
 20
-60.122595264193897
 30
0.0
 11
21.87499999999833
 21
-58.500000000000043
 31
0.0
  0
LINE
  5
459F
  8
241
  6
CONTINUOUS
 10
0.0000000000000285
 20
48.134252505009719
 30
0.0
 11
-0.0000000000000285
 21
-48.134252505009783
 31
0.0
  0
LINE
  5
45A1
  8
240
  6
CONTINUOUS
 10
23.247595264191631
 20
62.500000000000021
 30
0.0
 11
21.875000000000881
 21
60.122595264193961
 31
0.0
  0
LINE
  5
45A2
  8
240
  6
CONTINUOUS
 10
18.124999999999972
 20
60.122595264191361
 30
0.0
 11
16.752404735808369
 21
62.500000000000071
 31
0.0
  0
LINE
  5
45A3
  8
240
  6
CONTINUOUS
 10
21.875000000000309
 20
58.499999999999801
 30
0.0
 11
18.12500000000168
 21
58.500000000000043
 31
0.0
  0
LINE
  5
45A4
  8
240
  6
CONTINUOUS
 10
18.125000000000082
 20
60.122595264191801
 30
0.0
 11
18.12500000000168
 21
58.500000000000043
 31
0.0
  0
LINE
  5
45A5
  8
240
  6
CONTINUOUS
 10
21.875000000000881
 20
60.122595264193961
 30
0.0
 11
21.87499999999838
 21
58.500000000000021
 31
0.0
  0
LINE
  5
45A6
  8
241
  6
CONTINUOUS
 10
10.00000000000011
 20
12.50000000000005
 30
0.0
 11
29.000000000000089
 21
12.50000000000008
 31
0.0
  0
LINE
  5
45A7
  8
241
  6
CONTINUOUS
 10
5.0000000000000844
 20
7.500000000000056
 30
0.0
 11
4.9999999999990621
 21
-7.5000000000000284
 31
0.0
  0
ARC
  5
45A8
  8
241
  6
CONTINUOUS
 10
10.00000000000008
 20
7.500000000000056
 30
0.0
 40
5.0
 50
90.0
 51
180.0
  0
LINE
  5
45A9
  8
241
  6
CONTINUOUS
 10
21.87500000000006
 20
12.49999999999984
 30
0.0
 11
21.875000000000139
 21
58.499999999999801
 31
0.0
  0
LINE
  5
45AA
  8
241
  6
CONTINUOUS
 10
23.24759526419157
 20
12.49999999999984
 30
0.0
 11
23.247595264191752
 21
62.499999999999972
 31
0.0
  0
LINE
  5
45AB
  8
241
  6
CONTINUOUS
 10
18.125000000000131
 20
12.49999999999981
 30
0.0
 11
18.125000000000199
 21
58.500000000000043
 31
0.0
  0
LINE
  5
45AC
  8
241
  6
CONTINUOUS
 10
16.752404735808302
 20
12.49999999999981
 30
0.0
 11
16.752404735808479
 21
62.500000000000021
 31
0.0
  0
ARC
  5
45AD
  8
240
  6
CONTINUOUS
 10
-53.499999999999972
 20
10.010000000000071
 30
0.0
 40
2.5
 50
0.0
 51
90.0
  0
LINE
  5
45AE
  8
240
  6
CONTINUOUS
 10
-50.999999999999972
 20
10.01000000000003
 30
0.0
 11
-51.000000000000078
 21
-10.00999999999995
 31
0.0
  0
ARC
  5
45AF
  8
243
  6
HIDDEN2
 10
-46.499999999999879
 20
10.010000000000071
 30
0.0
 40
2.5
 50
0.0
 51
90.0
  0
LINE
  5
45B0
  8
243
  6
HIDDEN2
 10
-43.999999999999879
 20
10.01000000000003
 30
0.0
 11
-44.000000000001108
 21
-10.00999999999995
 31
0.0
  0
LINE
  5
45B1
  8
243
  6
HIDDEN2
 10
-46.499999999999879
 20
12.510000000000071
 30
0.0
 11
-53.499999999999879
 21
12.510000000000201
 31
0.0
  0
LINE
  5
45B2
  8
240
  6
CONTINUOUS
 10
29.000000000000139
 20
-62.49999999999995
 30
0.0
 11
29.000000000000171
 21
-52.500000000000021
 31
0.0
  0
LINE
  5
45B4
  8
241
  6
CONTINUOUS
 10
28.999999999999911
 20
-52.50000000000005
 30
0.0
 11
29.000000000000199
 21
52.500000000000071
 31
0.0
  0
LINE
  5
45B6
  8
240
  6
CONTINUOUS
 10
29.00000000000011
 20
52.5
 30
0.0
 11
37.000000000000121
 21
52.499999999999893
 31
0.0
  0
LINE
  5
45B7
  8
240
  6
CONTINUOUS
 10
37.000000000000121
 20
52.499999999999893
 30
0.0
 11
37.000000000000121
 21
35.143572671454393
 31
0.0
  0
ARC
  5
45BB
  8
240
  6
CONTINUOUS
 10
44.064640667622278
 20
29.999999999999631
 30
0.0
 40
5.0
 50
199.9999999999973
 51
270.00000000000171
  0
LINE
  5
45BC
  8
241
  6
CONTINUOUS
 10
40.563602976573577
 20
26.430303222140878
 30
0.0
 11
40.563602976573442
 21
-26.430303222140989
 31
0.0
  0
LINE
  5
45BD
  8
241
  6
CONTINUOUS
 10
37.000000000000121
 20
35.143572671454372
 30
0.0
 11
36.99999999999995
 21
-35.143572671454912
 31
0.0
  0
LINE
  5
4692
  8
240
  6
CONTINUOUS
 10
149.00000000000011
 20
18.8999999999997
 30
0.0
 11
148.9999999999994
 21
-18.90000000000007
 31
0.0
  0
LINE
  5
4693
  8
240
  6
CONTINUOUS
 10
147.09474411167341
 20
-20.000000000000071
 30
0.0
 11
133.7310976770699
 21
-20.00000000000005
 31
0.0
  0
LINE
  5
4694
  8
240
  6
CONTINUOUS
 10
127.0001575694036
 20
-25.000000000000419
 30
0.0
 11
127.00015756940419
 21
-20.4999999999911
 31
0.0
  0
LINE
  5
4695
  8
240
  6
CONTINUOUS
 10
127.00015756940419
 20
-20.4999999999911
 30
0.0
 11
133.21148243480101
 21
-20.50000000000119
 31
0.0
  0
LINE
  5
4696
  8
241
  6
CONTINUOUS
 10
132.50015756940459
 20
-20.500000000000021
 30
0.0
 11
132.50015756940721
 21
20.5
 31
0.0
1001
GRPNAME
1000
PASTMD0T
  0
LINE
  5
4697
  8
241
  6
CONTINUOUS
 10
131.4001575694046
 20
-20.499999999998241
 30
0.0
 11
131.40015756940741
 21
20.49999999999822
 31
0.0
1001
GRPNAME
1000
PASTMD0T
  0
LINE
  5
4698
  8
242
  6
CONTINUOUS
 10
135.50015756940351
 20
-19.999999999999918
 30
0.0
 11
135.50015756940579
 21
20.000000000000021
 31
0.0
  0
LINE
  5
4699
  8
240
  6
CONTINUOUS
 10
133.38468751555621
 20
-20.199999999999971
 30
0.0
 11
133.21148243480101
 21
-20.50000000000119
 31
0.0
  0
ARC
  5
469A
  8
240
  6
CONTINUOUS
 10
133.7310976770699
 20
-20.399999999999999
 30
0.0
 40
0.4
 50
90.0
 51
150.0000000000004
  0
LINE
  5
469B
  8
241
  6
CONTINUOUS
 10
133.5001575693943
 20
-20.073401367628879
 30
0.0
 11
133.5001575693943
 21
20.07340136763041
 31
0.0
  0
LINE
  5
469C
  8
241
  6
CONTINUOUS
 10
133.21148243479919
 20
-20.50000000000119
 30
0.0
 11
133.21148243479999
 21
20.500000000001162
 31
0.0
  0
LINE
  5
469D
  8
242
  6
CONTINUOUS
 10
135.5001575694011
 20
-19.249999999999972
 30
0.0
 11
148.39378221735191
 21
-19.24999999999984
 31
0.0
  0
LINE
  5
469E
  8
240
  6
CONTINUOUS
 10
148.9999999999994
 20
-18.90000000000007
 30
0.0
 11
147.09474411167341
 21
-20.000000000000071
 31
0.0
  0
LINE
  5
469F
  8
241
  6
CONTINUOUS
 10
147.0947441116742
 20
-20.000000000000231
 30
0.0
 11
147.0947441116744
 21
20.000000000000028
 31
0.0
  0
LINE
  5
46A0
  8
241
  6
CONTINUOUS
 10
127.00015756940419
 20
-20.4999999999911
 30
0.0
 11
127.00015756940419
 21
20.499999999991079
 31
0.0
  0
LINE
  5
46A1
  8
240
  6
CONTINUOUS
 10
147.09474411167341
 20
20.00000000000005
 30
0.0
 11
133.7310976770699
 21
20.000000000000021
 31
0.0
  0
LINE
  5
46A2
  8
240
  6
CONTINUOUS
 10
127.00015756940419
 20
20.499999999991079
 30
0.0
 11
127.0001575694037
 21
25.000000000000121
 31
0.0
  0
LINE
  5
46A3
  8
240
  6
CONTINUOUS
 10
127.00015756940419
 20
20.499999999991079
 30
0.0
 11
133.21148243480101
 21
20.500000000001162
 31
0.0
  0
LINE
  5
46A4
  8
240
  6
CONTINUOUS
 10
133.38468751555621
 20
20.19999999999995
 30
0.0
 11
133.21148243480101
 21
20.500000000001162
 31
0.0
  0
ARC
  5
46A5
  8
240
  6
CONTINUOUS
 10
133.7310976770699
 20
20.399999999999991
 30
0.0
 40
0.4
 50
209.9999999999996
 51
270.0
  0
LINE
  5
46A6
  8
242
  6
CONTINUOUS
 10
135.5001575694011
 20
19.24999999999995
 30
0.0
 11
148.39378221735191
 21
19.249999999999812
 31
0.0
  0
LINE
  5
46A7
  8
240
  6
CONTINUOUS
 10
149.00000000000011
 20
18.8999999999997
 30
0.0
 11
147.09474411167341
 21
20.00000000000005
 31
0.0
  0
LINE
  5
46A8
  8
246
  6
PHANTOM2
 10
160.0
 20
-25.0
 30
0.0
 11
160.0
 21
25.0
 31
0.0
1001
GRPNAME
1000
PASTMD01
  0
LINE
  5
46A9
  8
246
  6
PHANTOM2
 10
160.0
 20
25.0
 30
0.0
 11
129.80000000000001
 21
25.0
 31
0.0
  0
LINE
  5
46AA
  8
250
  6
CONTINUOUS
 10
160.5
 20
-25.0
 30
0.0
 11
175.0
 21
-25.0
 31
0.0
  0
LINE
  5
46AB
  8
250
  6
CONTINUOUS
 10
160.5
 20
25.0
 30
0.0
 11
175.00000000000011
 21
25.0
 31
0.0
  0
LINE
  5
46AC
  8
250
  6
CONTINUOUS
 10
174.0
 20
-23.0
 30
0.0
 11
174.00000000000011
 21
23.0
 31
0.0
  0
INSERT
  5
46AD
  8
250
  6
CONTINUOUS
  2
_OPEN
 10
174.0
 20
-25.0
 30
0.0
 41
2.0
 42
2.0
 43
2.0
 50
270.0
  0
INSERT
  5
46AE
  8
250
  6
CONTINUOUS
  2
_OPEN
 10
174.00000000000011
 20
25.0
 30
0.0
 41
2.0
 42
2.0
 43
2.0
 50
90.0
  0
LINE
  5
46B0
  8
246
  6
PHANTOM2
 10
160.0
 20
-25.0
 30
0.0
 11
129.80000000000001
 21
-25.0
 31
0.0
  0
LINE
  5
46B1
  8
243
  6
HIDDEN2
 10
120.0
 20
12.174337938566079
 30
0.0
 11
149.0
 21
16.250022144935539
 31
0.0
  0
LINE
  5
46B2
  8
243
  6
HIDDEN2
 10
120.0
 20
-12.174337938566079
 30
0.0
 11
149.0
 21
-16.250022144935539
 31
0.0
  0
LINE
  5
4748
  8
247
  6
CONTINUOUS
 10
11.99999999999997
 20
-28.250000000070049
 30
0.0
 11
11.99999999999997
 21
-21.557692308030042
 31
0.0
  0
ARC
  5
4749
  8
247
  6
CONTINUOUS
 10
10.25000000006994
 20
-28.250000000070049
 30
0.0
 40
1.7499999999299991
 50
180.0
 51
0.0
  0
ARC
  5
474A
  8
247
  6
CONTINUOUS
 10
10.25000000007001
 20
-21.557692308030042
 30
0.0
 40
1.7499999999299991
 50
0.0
 51
180.0
  0
LINE
  5
474B
  8
247
  6
CONTINUOUS
 10
8.5000000001400409
 20
-27.384615384720021
 30
0.0
 11
11.50000000001998
 21
-28.244851541962031
 31
0.0
  0
LINE
  5
474C
  8
247
  6
CONTINUOUS
 10
9.9230769231599876
 20
-26.484983818335831
 30
0.0
 11
9.9230769231599876
 21
-27.792676125975859
 31
0.0
  0
ARC
  5
474D
  8
247
  6
CONTINUOUS
 10
9.0495986677029574
 20
-26.14514381608981
 30
0.0
 40
0.5538165441895349
 50
72.997889675292413
 51
172.92416621851351
  0
ARC
  5
474E
  8
247
  6
CONTINUOUS
 10
8.9360330444658054
 20
-26.56687832302881
 30
0.0
 40
0.9904354236226808
 50
4.7429368522022131
 51
73.849226273266424
1001
GENIUS_GENOBJ-N-FIL_13
1002
{
1000
OWNER
1000
GEN
1002
}
1001
GENIUS_GENODEF_13
1002
{
1000
HIER
1070
     0
1002
}
1002
{
1000
MANEDIT
1070
     0
1002
}
1002
{
1000
NOSEL
1070
     0
1002
}
1002
{
1000
BEHIND
1070
     0
1002
}
1002
{
1000
OTHER
1070
     0
1002
}
1002
{
1000
REACTOR
1002
}
  0
LINE
  5
474F
  8
247
  6
CONTINUOUS
 10
11.50000000001998
 20
-26.93715923432201
 30
0.0
 11
11.50000000001998
 21
-28.244851541962031
 31
0.0
  0
LINE
  5
4750
  8
247
  6
CONTINUOUS
 10
8.5000000001400409
 20
-27.384615384720021
 30
0.0
 11
8.5000000001400409
 21
-26.07692307708
 31
0.0
  0
ARC
  5
4751
  8
247
  6
CONTINUOUS
 10
10.482024232665561
 20
-26.560919636546959
 30
0.0
 40
0.5640818586791229
 50
65.990941652528889
 51
172.26344345906909
  0
ARC
  5
4752
  8
247
  6
CONTINUOUS
 10
10.487429039186599
 20
-27.0382626853471
 30
0.0
 40
1.0176059446230981
 50
5.701985164256504
 51
77.277338436822205
1001
GENIUS_GENOBJ-N-FIL_13
1002
{
1000
OWNER
1000
GEN
1002
}
1001
GENIUS_GENODEF_13
1002
{
1000
HIER
1070
     0
1002
}
1002
{
1000
MANEDIT
1070
     0
1002
}
1002
{
1000
NOSEL
1070
     0
1002
}
1002
{
1000
BEHIND
1070
     0
1002
}
1002
{
1000
OTHER
1070
     0
1002
}
1002
{
1000
REACTOR
1002
}
  0
LINE
  5
4753
  8
247
  6
CONTINUOUS
 10
11.50000000001998
 20
-25.28331308054204
 30
0.0
 11
8.5000000001400409
 21
-24.42307692330003
 31
0.0
  0
LINE
  5
4754
  8
247
  6
CONTINUOUS
 10
8.5000000001400409
 20
-22.000000000319979
 30
0.0
 11
8.5000000001400409
 21
-22.565736619456569
 31
0.0
  0
LINE
  5
4755
  8
247
  6
CONTINUOUS
 10
11.50000000001998
 20
-23.4615384618
 30
0.0
 11
11.50000000001998
 21
-22.846153846440028
 31
0.0
  0
ARC
  5
4756
  8
247
  6
CONTINUOUS
 10
10.58328513597335
 20
-21.708791209122872
 30
0.0
 40
2.2526500823422122
 50
202.35948814152621
 51
254.99324854284609
  0
ARC
  5
4757
  8
247
  6
CONTINUOUS
 10
9.3083126551945021
 20
-22.37406947921324
 30
0.0
 40
0.8906723995727782
 50
94.994589319075374
 51
155.1663289573041
1001
GENIUS_GENOBJ-N-FIL_13
1002
{
1000
OWNER
1000
GEN
1002
}
1001
GENIUS_GENODEF_13
1002
{
1000
HIER
1070
     0
1002
}
1002
{
1000
MANEDIT
1070
     0
1002
}
1002
{
1000
NOSEL
1070
     0
1002
}
1002
{
1000
BEHIND
1070
     0
1002
}
1002
{
1000
OTHER
1070
     0
1002
}
1002
{
1000
REACTOR
1002
}
  0
ARC
  5
4758
  8
247
  6
CONTINUOUS
 10
10.16014588866776
 20
-23.226458886212569
 30
0.0
 40
1.392781735586712
 50
15.846096555780679
 51
82.325137004169122
  0
ARC
  5
4759
  8
247
  6
CONTINUOUS
 10
10.459243431527261
 20
-22.642212725840359
 30
0.0
 40
1.324563662670287
 50
249.7136016704969
 51
321.78874565640581
1001
GENIUS_GENOBJ-N-FIL_13
1002
{
1000
OWNER
1000
GEN
1002
}
1001
GENIUS_GENODEF_13
1002
{
1000
HIER
1070
     0
1002
}
1002
{
1000
MANEDIT
1070
     0
1002
}
1002
{
1000
NOSEL
1070
     0
1002
}
1002
{
1000
BEHIND
1070
     0
1002
}
1002
{
1000
OTHER
1070
     0
1002
}
1002
{
1000
REACTOR
1002
}
  0
LINE
  5
475A
  8
247
  6
CONTINUOUS
 10
10.34615384621995
 20
-22.538461538759972
 30
0.0
 11
10.34615384621995
 21
-21.846153846479972
 31
0.0
  0
LINE
  5
475B
  8
247
  6
CONTINUOUS
 10
8.5000000001399236
 20
-28.250000000070049
 30
0.0
 11
8.5000000001399236
 21
-27.576923077020052
 31
0.0
  0
LINE
  5
49F1
  8
240
  6
CONTINUOUS
 10
37.000000000000121
 20
35.143572671454393
 30
0.0
 11
39.366177563692567
 21
28.289899283371771
 31
0.0
  0
LINE
  5
49F2
  8
240
  6
CONTINUOUS
 10
37.000000000000043
 20
-35.14357267145467
 30
0.0
 11
39.366177563692567
 21
-28.28989928337181
 31
0.0
  0
TEXT
  5
4B9F
  8
250
 10
172.621743070637
 20
-8.3446087581263484
 30
0.0
 40
2.799999999999998
  1
\U+2205
 50
90.0
  0
TEXT
  5
4BA0
  8
250
 10
172.621743070637
 20
-5.8112754247930161
 30
0.0
 40
2.799999999999998
  1
19.69
 50
90.0
  0
VIEWPORT
  5
22
 67
     1
  8
0
 10
261.51769911504419
 20
148.5
 30
0.0
 40
523.0353982300885
 41
297.0
 68
     1
 69
     1
1001
ACAD
1000
MVIEW
1002
{
1070
    16
1010
0.0
1020
0.0
1030
0.0
1010
0.0
1020
0.0
1030
1.0
1040
0.0
1040
297.0
1040
261.51769911504419
1040
148.5
1040
50.0
1040
0.0
1040
0.0
1070
     0
1070
   100
1070
     1
1070
     1
1070
     0
1070
     0
1070
     0
1070
     0
1040
0.0
1040
0.0
1040
0.0
1040
1.0
1040
1.0
1040
10.0
1040
10.0
1070
     0
1002
{
1002
}
1002
}
1001
GENIUS_GENODEF_13
1002
{
1000
HIER
1070
     0
1002
}
1002
{
1000
MANEDIT
1070
     0
1002
}
1002
{
1000
NOSEL
1070
     0
1002
}
1002
{
1000
BEHIND
1070
     0
1002
}
1002
{
1000
OTHER
1070
     0
1002
}
1002
{
1000
REACTOR
1002
}
1001
GENIUS_GENOBJ-N-SDF_13
1002
{
1000
OWNER
1000
GEN
1002
}
1001
GENIUS_GENSCREG_15
1000
PF
1040
1.0
1000
DF
1040
1.0
1000
MIN
1011
0.0
1021
0.0
1031
0.0
1021
0.0
1031
0.0
1000
MAX
1011
523.0353982300885
1021
0.0
1031
0.0
1021
297.0
1031
0.0
1000
FLAGS
1070
     4
  0
ENDSEC
  0
EOF
