  0
SECTION
  2
HEADER
  9
$ACADVER
  1
AC1009
  9
$INSBASE
 10
0.0
 20
0.0
 30
0.0
  9
$EXTMIN
 10
-71.047619047618738
 20
-62.500000000000412
 30
0.0
  9
$EXTMAX
 10
155.90959678488369
 20
96.000000000000028
 30
0.0
  9
$LIMMIN
 10
0.0
 20
0.0
  9
$LIMMAX
 10
297.0
 20
210.0
  9
$ORTHOMODE
 70
     0
  9
$REGENMODE
 70
     1
  9
$FILLMODE
 70
     1
  9
$QTEXTMODE
 70
     0
  9
$MIRRTEXT
 70
     1
  9
$DRAGMODE
 70
     2
  9
$LTSCALE
 40
10.0
  9
$OSMODE
 70
    37
  9
$ATTMODE
 70
     1
  9
$TEXTSIZE
 40
3.0
  9
$TRACEWID
 40
1.0
  9
$TEXTSTYLE
  7
YOKO
  9
$CLAYER
  8
240
  9
$CELTYPE
  6
BYLAYER
  9
$CECOLOR
 62
   256
  9
$DIMSCALE
 40
1.0
  9
$DIMASZ
 40
2.2299999999999991
  9
$DIMEXO
 40
0.5
  9
$DIMDLI
 40
7.0
  9
$DIMRND
 40
0.0
  9
$DIMDLE
 40
0.0
  9
$DIMEXE
 40
1.0
  9
$DIMTP
 40
0.0
  9
$DIMTM
 40
0.01
  9
$DIMTXT
 40
2.7999999999999989
  9
$DIMCEN
 40
0.0
  9
$DIMTSZ
 40
0.0
  9
$DIMTOL
 70
     0
  9
$DIMLIM
 70
     0
  9
$DIMTIH
 70
     0
  9
$DIMTOH
 70
     0
  9
$DIMSE1
 70
     0
  9
$DIMSE2
 70
     0
  9
$DIMTAD
 70
     3
  9
$DIMZIN
 70
     9
  9
$DIMBLK
  1
OPEN
  9
$DIMASO
 70
     1
  9
$DIMSHO
 70
     1
  9
$DIMPOST
  1

  9
$DIMAPOST
  1

  9
$DIMALT
 70
     0
  9
$DIMALTD
 70
     2
  9
$DIMALTF
 40
25.399999999999999
  9
$DIMLFAC
 40
1.0
  9
$DIMTOFL
 70
     1
  9
$DIMTVP
 40
0.0
  9
$DIMTIX
 70
     1
  9
$DIMSOXD
 70
     0
  9
$DIMSAH
 70
     0
  9
$DIMBLK1
  1

  9
$DIMBLK2
  1

  9
$DIMSTYLE
  2
BIGT
  9
$DIMCLRD
 70
   256
  9
$DIMCLRE
 70
   256
  9
$DIMCLRT
 70
    40
  9
$DIMTFAC
 40
1.0
  9
$DIMGAP
 40
1.0
  9
$LUNITS
 70
     2
  9
$LUPREC
 70
     6
  9
$SKETCHINC
 40
1.0
  9
$FILLETRAD
 40
3.0
  9
$AUNITS
 70
     0
  9
$AUPREC
 70
     6
  9
$MENU
  1
.
  9
$ELEVATION
 40
0.0
  9
$PELEVATION
 40
0.0
  9
$THICKNESS
 40
0.0
  9
$LIMCHECK
 70
     0
  9
$BLIPMODE
 70
     0
  9
$CHAMFERA
 40
0.2
  9
$CHAMFERB
 40
0.2
  9
$SKPOLY
 70
     0
  9
$TDCREATE
 40
2458141.674095822
  9
$TDUPDATE
 40
2458142.552440023
  9
$TDINDWG
 40
0.005740544
  9
$TDUSRTIMER
 40
0.0057405093
  9
$USRTIMER
 70
     1
  9
$ANGBASE
 50
0.0
  9
$ANGDIR
 70
     0
  9
$PDMODE
 70
     1
  9
$PDSIZE
 40
0.0
  9
$PLINEWID
 40
0.0
  9
$COORDS
 70
     1
  9
$SPLFRAME
 70
     0
  9
$SPLINETYPE
 70
     6
  9
$SPLINESEGS
 70
     4
  9
$ATTDIA
 70
     1
  9
$ATTREQ
 70
     1
  9
$HANDLING
 70
     1
  9
$HANDSEED
  5
455F
  9
$SURFTAB1
 70
     6
  9
$SURFTAB2
 70
     6
  9
$SURFTYPE
 70
     6
  9
$SURFU
 70
     6
  9
$SURFV
 70
     6
  9
$UCSNAME
  2

  9
$UCSORG
 10
0.0
 20
0.0
 30
0.0
  9
$UCSXDIR
 10
1.0
 20
0.0
 30
0.0
  9
$UCSYDIR
 10
0.0
 20
1.0
 30
0.0
  9
$PUCSNAME
  2

  9
$PUCSORG
 10
0.0
 20
0.0
 30
0.0
  9
$PUCSXDIR
 10
1.0
 20
0.0
 30
0.0
  9
$PUCSYDIR
 10
0.0
 20
1.0
 30
0.0
  9
$USERI1
 70
     1
  9
$USERI2
 70
     0
  9
$USERI3
 70
     0
  9
$USERI4
 70
     0
  9
$USERI5
 70
     0
  9
$USERR1
 40
0.0
  9
$USERR2
 40
0.0
  9
$USERR3
 40
0.0
  9
$USERR4
 40
0.0
  9
$USERR5
 40
0.0
  9
$WORLDVIEW
 70
     1
  9
$SHADEDGE
 70
     3
  9
$SHADEDIF
 70
    70
  9
$TILEMODE
 70
     1
  9
$MAXACTVP
 70
    16
  9
$PLIMCHECK
 70
     0
  9
$PEXTMIN
 10
1.0000000000000000E+020
 20
1.0000000000000000E+020
 30
1.0000000000000000E+020
  9
$PEXTMAX
 10
-1.0000000000000000E+020
 20
-1.0000000000000000E+020
 30
-1.0000000000000000E+020
  9
$PLIMMIN
 10
0.0
 20
0.0
  9
$PLIMMAX
 10
420.0
 20
297.0
  9
$UNITMODE
 70
     0
  9
$VISRETAIN
 70
     1
  9
$PLINEGEN
 70
     0
  9
$PSLTSCALE
 70
     1
  0
ENDSEC
  0
SECTION
  2
TABLES
  0
TABLE
  2
VPORT
 70
     1
  0
VPORT
  2
*ACTIVE
 70
     0
 10
0.0
 20
0.0
 11
1.0
 21
1.0
 12
69.349569959340727
 22
20.615697624933318
 13
0.0
 23
0.0
 14
7.0
 24
7.0
 15
7.0
 25
7.0
 16
0.0
 26
0.0
 36
1.0
 17
0.0
 27
0.0
 37
0.0
 40
305.75118905887302
 41
1.4533622559652919
 42
50.0
 43
0.0
 44
0.0
 50
0.0
 51
0.0
 71
     0
 72
  2000
 73
     1
 74
     0
 75
     0
 76
     1
 77
     0
 78
     0
  0
ENDTAB
  0
TABLE
  2
LTYPE
 70
    21
  0
LTYPE
  2
CONTINUOUS
 70
     0
  3
Solid line
 72
    65
 73
     0
 40
0.0
  0
LTYPE
  2
CENTER2
 70
     0
  3
___ _ ___ _ ___ _ ___ _ ___ _ ___ _ ___ _ ___ _
 72
    65
 73
     4
 40
1.125
 49
0.75
 49
-0.125
 49
0.125
 49
-0.125
  0
LTYPE
  2
HIDDEN2
 70
     0
  3
_ _ _ _ _ _ _ _ _ _ _ _ _ _ _ _ _ _ _ _ _ _ _ _
 72
    65
 73
     2
 40
0.1875
 49
0.125
 49
-0.0625
  0
LTYPE
  2
AM_ISO02W050
 70
     0
  3
__ __ __ __ __ __ __ __ __ __ __ __ __ __ __
 72
    65
 73
     2
 40
7.5
 49
6.0
 49
-1.5
  0
LTYPE
  2
AMCONSTR
 70
     0
  3
_______________________
 72
    65
 73
     2
 40
9999.0
 49
9999.0
 49
0.0
  0
LTYPE
  2
ACISOWELD
 70
     0
  3
_ _ _ _ _
 72
    65
 73
     2
 40
2.0
 49
2.0
 49
-1.0
  0
LTYPE
  2
ACISOTGB
 70
     0
  3
__ . . __ . .
 72
    65
 73
     6
 40
9.0
 49
4.0
 49
-1.0
 49
1.0
 49
-1.0
 49
1.0
 49
-1.0
  0
LTYPE
  2
ACISOTGL
 70
     0
  3
_ _ _ _ _
 72
    65
 73
     2
 40
3.0
 49
2.0
 49
-1.0
  0
LTYPE
  2
AM_ISO08W050
 70
     0
  3
____ . ____ . ____ . ____ . ____ . ____ . ____
 72
    65
 73
     4
 40
18.0
 49
12.0
 49
-1.5
 49
3.0
 49
-1.5
  0
LTYPE
  2
AM_ISO09W050
 70
     0
  3
_____ . . _____ . . _____ . . ____ .. ____
 72
    65
 73
     6
 40
22.5
 49
12.0
 49
-1.5
 49
3.0
 49
-1.5
 49
3.0
 49
-1.5
  0
LTYPE
  2
AM_ISO08W050X2
 70
     0
  3
__ . __ . __ . __ . __ . __
 72
    65
 73
     4
 40
9.0
 49
6.0
 49
-0.75
 49
1.5
 49
-0.75
  0
LTYPE
  2
AM_ISO02W050X2
 70
     0
  3
 _ _ _ _ _ _ _ _ _ _ _ _
 72
    65
 73
     2
 40
3.75
 49
3.0
 49
-0.75
  0
LTYPE
  2
AMZIGZAG
 70
     0
  3
/\/-/\/-/\/-/\/-/\/-/\/
 72
    65
 73
     2
 40
11.0001
 49
0.0001
 49
-11.0
  0
ENDTAB
  0
TABLE
  2
LAYER
 70
     8
  0
LAYER
  2
0
 70
     0
 62
     7
  6
CONTINUOUS
  0
LAYER
  2
DEFPOINTS
 70
     0
 62
     7
  6
CONTINUOUS
  0
LAYER
  2
245
 70
     0
 62
     2
  6
CENTER2
  0
LAYER
  2
240
 70
     0
 62
     4
  6
CONTINUOUS
  0
LAYER
  2
241
 70
     0
 62
   211
  6
CONTINUOUS
  0
LAYER
  2
243
 70
     0
 62
   211
  6
HIDDEN2
  0
LAYER
  2
247
 70
     0
 62
    60
  6
CONTINUOUS
  0
LAYER
  2
250
 70
     0
 62
     3
  6
CONTINUOUS
  0
ENDTAB
  0
TABLE
  2
STYLE
 70
     8
  0
STYLE
  2
STANDARD
 70
     0
 40
0.0
 41
1.0
 50
0.0
 71
     0
 42
3.0
  3
romans.shx
  4
extfont.shx
  0
STYLE
  2
ACISOGDT
 70
     0
 40
0.0
 41
1.0
 50
0.0
 71
     0
 42
3.0
  3
amgdt.shx
  4
extfont.shx
  0
STYLE
  2
YOKO
 70
     0
 40
0.0
 41
1.0
 50
0.0
 71
     0
 42
3.0
  3
romans.shx
  4
extfont.shx
  0
STYLE
  2

 70
     1
 40
0.0
 41
1.0
 50
0.0
 71
     0
 42
2.799999999999998
  3
genltshp.shx
  4

  0
ENDTAB
  0
TABLE
  2
VIEW
 70
     0
  0
ENDTAB
  0
TABLE
  2
UCS
 70
     0
  0
ENDTAB
  0
TABLE
  2
APPID
 70
    43
  0
APPID
  2
ACAD
 70
     0
  0
APPID
  2
GLOBAL
 70
     0
  0
APPID
  2
DETAIL
 70
     0
  0
APPID
  2
GRPNAME
 70
     0
  0
APPID
  2
GPARA
 70
     0
  0
APPID
  2
MCAD_NO_VIS
 70
     0
  0
APPID
  2
ACAD_TEMP_GRAPHIC
 70
     0
  0
APPID
  2
ACATTRIBSERVICES
 70
     0
  0
APPID
  2
GENIUS_GENSCREG_15
 70
     0
  0
APPID
  2
GENIUS_GENODEF_13
 70
     0
  0
APPID
  2
GENIUS_GENOBJ-N-SDF_13
 70
     0
  0
APPID
  2
GENIUS_GENREC_14
 70
     0
  0
APPID
  2
GENIUS_GENOBJ-N-REC_13
 70
     0
  0
APPID
  2
GENIUS_GENDIMSH_14
 70
     0
  0
APPID
  2
GENIUS_GENOBJ-N-DIM_13
 70
     0
  0
APPID
  2
GENIUS_GENDIM_13
 70
     0
  0
APPID
  2
GENIUS_GENDTOL_13
 70
     0
  0
APPID
  2
GENIUS_GENOLIS_13
 70
     0
  0
APPID
  2
GENIUS_GENOENT_13
 70
     0
  0
APPID
  2
GENIUS_GENOBJ-F-FEM_13
 70
     0
  0
APPID
  2
GENIUS_GENOREF_13
 70
     0
  0
APPID
  2
GENIUS_GEFFEM_13
 70
     0
  0
APPID
  2
GENIUS_GEFFEMP_13
 70
     0
  0
APPID
  2
AD_DRAW
 70
     0
  0
APPID
  2
DESIGNERASSEMBLIES
 70
     0
  0
APPID
  2
ACADM_DIM_EDIT
 70
     0
  0
APPID
  2
AMDT_DM_ADJ
 70
     0
  0
APPID
  2
ITEMNAME
 70
     0
  0
APPID
  2
GENIUS_GENOBJ-N-FIL_13
 70
     0
  0
APPID
  2
GENIUS_GENFIL_13
 70
     0
  0
APPID
  2
GENIUS_GENOBJ-N-CHA_13
 70
     0
  0
APPID
  2
ACAECLAYERSTANDARD
 70
     0
  0
APPID
  2
ACAD_NAV_VCDISPLAY
 70
     0
  0
APPID
  2
ACAD_DSTYLE_DIMJAG
 70
     0
  0
APPID
  2
ACAD_DSTYLE_DIMBREAK
 70
     0
  0
APPID
  2
ACAD_PSEXT
 70
     0
  0
APPID
  2
ACAD_DSTYLE_DIMINSPECT
 70
     0
  0
APPID
  2
ACAD_EXEMPT_FROM_CAD_STANDARDS
 70
     0
  0
APPID
  2
ACAD_MLEADERVER
 70
     0
  0
APPID
  2
ACAD_DSTYLE_DIMARC_LENGTH_
 70
     0
  0
APPID
  2
ACAD_DSTYLE_DIM_LINETYPE
 70
     0
  0
APPID
  2
ACAD_DSTYLE_DIM_EXT1_LINETYPE
 70
     0
  0
APPID
  2
ACAD_DSTYLE_DIM_EXT2_LINETYPE
 70
     0
  0
ENDTAB
  0
TABLE
  2
DIMSTYLE
 70
    29
  0
DIMSTYLE
  2
BIGT
 70
     0
  3

  4

  5
OPEN
  6

  7

 40
1.0
 41
2.2299999999999991
 42
0.5
 43
7.0
 44
1.0
 45
0.0
 46
0.0
 47
0.0
 48
0.01
140
2.7999999999999989
141
0.0
142
0.0
143
25.399999999999999
144
1.0
145
0.0
146
1.0
147
1.0
 71
     0
 72
     0
 73
     0
 74
     0
 75
     0
 76
     0
 77
     3
 78
     9
170
     0
171
     2
172
     1
173
     0
174
     1
175
     0
176
   256
177
   256
178
    40
  0
DIMSTYLE
  2
AM_ISO
 70
     0
  3

  4
"
  5

  6

  7

 40
1.0
 41
2.5
 42
1.0
 43
10.0
 44
1.0
 45
0.0
 46
0.0
 47
0.1
 48
0.1
140
3.5
141
0.0
142
0.0
143
0.0393701
144
1.0
145
0.0
146
0.71
147
1.5
 71
     0
 72
     0
 73
     0
 74
     0
 75
     0
 76
     0
 77
     1
 78
     8
170
     0
171
     2
172
     1
173
     0
174
     0
175
     0
176
   256
177
   256
178
     2
  0
DIMSTYLE
  2
AM_ISO$3
 70
     0
  3

  4
"
  5

  6

  7

 40
1.0
 41
2.5
 42
1.0
 43
10.0
 44
1.0
 45
0.0
 46
0.0
 47
0.1
 48
0.1
140
3.5
141
0.0
142
0.0
143
0.0393701
144
1.0
145
0.0
146
0.71
147
1.5
 71
     0
 72
     0
 73
     0
 74
     1
 75
     0
 76
     0
 77
     1
 78
     8
170
     0
171
     2
172
     0
173
     0
174
     0
175
     0
176
   256
177
   256
178
     2
  0
DIMSTYLE
  2
AM_ISO$4
 70
     0
  3

  4
"
  5

  6

  7

 40
1.0
 41
2.5
 42
1.0
 43
10.0
 44
1.0
 45
0.0
 46
0.0
 47
0.1
 48
0.1
140
3.5
141
0.0
142
0.0
143
0.0393701
144
1.0
145
0.0
146
0.71
147
1.5
 71
     0
 72
     0
 73
     0
 74
     1
 75
     0
 76
     0
 77
     1
 78
     8
170
     0
171
     2
172
     0
173
     0
174
     0
175
     0
176
   256
177
   256
178
     2
  0
DIMSTYLE
  2
AM_ISO$6
 70
     0
  3

  4
"
  5

  6

  7

 40
1.0
 41
2.5
 42
1.0
 43
10.0
 44
1.0
 45
0.0
 46
0.0
 47
0.1
 48
0.1
140
3.5
141
0.0
142
0.0
143
0.0393701
144
1.0
145
0.0
146
0.71
147
1.5
 71
     0
 72
     0
 73
     0
 74
     0
 75
     0
 76
     0
 77
     0
 78
     8
170
     0
171
     2
172
     1
173
     0
174
     0
175
     0
176
   256
177
   256
178
     2
  0
DIMSTYLE
  2
AM_ISO$7
 70
     0
  3

  4
"
  5

  6

  7

 40
1.0
 41
2.5
 42
1.0
 43
10.0
 44
1.0
 45
0.0
 46
0.0
 47
0.1
 48
0.1
140
5.0
141
0.0
142
0.0
143
0.0393701
144
1.0
145
0.0
146
0.71
147
1.5
 71
     0
 72
     0
 73
     0
 74
     0
 75
     0
 76
     0
 77
     1
 78
     8
170
     0
171
     2
172
     1
173
     0
174
     0
175
     0
176
   256
177
   256
178
     2
  0
DIMSTYLE
  2
AM_ISO$SF
 70
     0
  3

  4
"
  5

  6

  7

 40
1.0
 41
2.5
 42
1.0
 43
10.0
 44
1.0
 45
0.0
 46
0.0
 47
0.1
 48
0.1
140
3.5
141
0.0
142
0.0
143
0.0393701
144
1.0
145
0.0
146
0.71
147
1.5
 71
     0
 72
     0
 73
     0
 74
     0
 75
     1
 76
     1
 77
     1
 78
     8
170
     0
171
     2
172
     1
173
     0
174
     0
175
     0
176
   256
177
   256
178
     2
  0
DIMSTYLE
  2
AM_ISO$SH
 70
     0
  3

  4
"
  5

  6
GENAXEH
  7

 40
1.0
 41
2.5
 42
1.0
 43
10.0
 44
1.0
 45
0.0
 46
0.0
 47
0.1
 48
0.1
140
3.5
141
0.0
142
0.0
143
0.0393701
144
2.0
145
0.0
146
0.71
147
1.5
 71
     0
 72
     0
 73
     0
 74
     0
 75
     1
 76
     1
 77
     1
 78
     8
170
     0
171
     2
172
     1
173
     1
174
     0
175
     0
176
   256
177
   256
178
     2
  0
ENDTAB
  0
ENDSEC
  0
SECTION
  2
BLOCKS
  0
BLOCK
  8
0
  2
$MODEL_SPACE
 70
     0
 10
0.0
 20
0.0
 30
0.0
  3
$MODEL_SPACE
  1

  0
ENDBLK
  5
1C
  8
0
  0
BLOCK
 67
     1
  8
0
  2
$PAPER_SPACE
 70
     0
 10
0.0
 20
0.0
 30
0.0
  3
$PAPER_SPACE
  1

  0
ENDBLK
  5
19
 67
     1
  8
0
  0
BLOCK
  8
0
  2
_OPEN
 70
     0
 10
0.0
 20
0.0
 30
0.0
  3
_OPEN
  1

  0
LINE
  5
3E1A
  8
0
  6
BYBLOCK
 62
     0
 10
-1.0
 20
0.1666666666666666
 30
0.0
 11
0.0
 21
0.0
 31
0.0
  0
LINE
  5
3E1B
  8
0
  6
BYBLOCK
 62
     0
 10
-1.0
 20
-0.1666666666666666
 30
0.0
 11
0.0
 21
0.0
 31
0.0
  0
LINE
  5
3E1C
  8
0
  6
BYBLOCK
 62
     0
 10
0.0
 20
0.0
 30
0.0
 11
-1.0
 21
0.0
 31
0.0
  0
ENDBLK
  5
3E1D
  8
0
  0
BLOCK
  8
0
  2
GENAXEH
 70
     0
 10
0.0
 20
0.0
 30
0.0
  3
GENAXEH
  1

  0
LINE
  5
3E45
  8
0
 10
-1.0
 20
0.0
 30
0.0
 11
1.0
 21
0.0
 31
0.0
  0
ENDBLK
  5
3E46
  8
0
  0
ENDSEC
  0
SECTION
  2
ENTITIES
  0
LINE
  5
42E0
  8
240
  6
CONTINUOUS
 10
29.000000000000171
 20
-52.499999999999922
 30
0.0
 11
37.000000000000057
 21
-52.499999999999851
 31
0.0
  0
LINE
  5
42E1
  8
240
  6
CONTINUOUS
 10
37.000000000000057
 20
-52.499999999999851
 30
0.0
 11
37.000000000000057
 21
-50.091089460724341
 31
0.0
  0
LINE
  5
42E5
  8
240
  6
CONTINUOUS
 10
39.563518028515603
 20
-47.123012054629783
 30
0.0
 11
70.999999999999091
 21
-42.50000000000022
 31
0.0
  0
LINE
  5
42E6
  8
241
  6
CONTINUOUS
 10
43.289989326384443
 20
-46.57500156964911
 30
0.0
 11
43.289989326391478
 21
46.57500156964808
 31
0.0
  0
LINE
  5
42E7
  8
241
  6
CONTINUOUS
 10
44.477220288823098
 20
-46.400408781055198
 30
0.0
 11
44.47722028882761
 21
46.400408781054537
 31
0.0
  0
LINE
  5
4352
  8
250
  6
CONTINUOUS
 10
150.78309398684689
 20
52.661026697164353
 30
0.0
 11
129.487259472788
 21
52.661026697164353
 31
0.0
  0
LINE
  5
4353
  8
250
  6
CONTINUOUS
 10
129.487259472788
 20
52.661026697164353
 30
0.0
 11
100.4730799769693
 21
20.811594878530371
 31
0.0
  0
LINE
  5
4354
  8
250
  6
CONTINUOUS
 10
100.4730799769693
 20
20.811594878530371
 30
0.0
 11
98.999999999999986
 21
19.13739794224966
 31
0.0
  0
LINE
  5
4355
  8
250
  6
CONTINUOUS
 10
100.2526677698383
 20
21.0055295357791
 30
0.0
 11
98.999999999999986
 21
19.13739794224966
 31
0.0
  0
LINE
  5
4356
  8
250
  6
CONTINUOUS
 10
98.999999999999986
 20
19.13739794224966
 30
0.0
 11
100.69349218410051
 21
20.617660221281639
 31
0.0
  0
LINE
  5
4357
  8
250
  6
CONTINUOUS
 10
127.4999999999999
 20
15.875000000001309
 30
0.0
 11
148.34221838791871
 21
15.875000000001309
 31
0.0
  0
LINE
  5
4358
  8
250
  6
CONTINUOUS
 10
127.4999999999999
 20
-15.875000000001309
 30
0.0
 11
148.34221838791871
 21
-15.875000000001309
 31
0.0
  0
LINE
  5
4359
  8
250
  6
CONTINUOUS
 10
147.34221838791871
 20
13.77000000000046
 30
0.0
 11
147.34221838791871
 21
-13.77000000000044
 31
0.0
  0
TEXT
  5
435A
  8
250
  6
CONTINUOUS
 10
146.22388974879701
 20
-6.6538428338339202
 30
0.0
 40
2.799999999999998
  1
\U+22051.250
 50
90.0
  0
LINE
  5
435B
  8
250
  6
CONTINUOUS
 10
147.71388505458549
 20
-13.6450000000013
 30
0.0
 11
147.34221838791871
 21
-15.875000000001309
 31
0.0
  0
LINE
  5
435C
  8
250
  6
CONTINUOUS
 10
146.97055172125209
 20
-13.6450000000013
 30
0.0
 11
147.34221838791871
 21
-15.875000000001309
 31
0.0
  0
LINE
  5
435D
  8
250
  6
CONTINUOUS
 10
147.34221838791871
 20
-15.875000000001309
 30
0.0
 11
147.34221838791871
 21
-13.6450000000013
 31
0.0
  0
LINE
  5
435E
  8
250
  6
CONTINUOUS
 10
146.97055172125209
 20
13.645000000001311
 30
0.0
 11
147.34221838791871
 21
15.875000000001309
 31
0.0
  0
LINE
  5
435F
  8
250
  6
CONTINUOUS
 10
147.71388505458549
 20
13.645000000001311
 30
0.0
 11
147.34221838791871
 21
15.875000000001309
 31
0.0
  0
LINE
  5
4360
  8
250
  6
CONTINUOUS
 10
147.34221838791871
 20
15.875000000001309
 30
0.0
 11
147.34221838791871
 21
13.645000000001311
 31
0.0
  0
LINE
  5
4361
  8
243
  6
HIDDEN2
 10
127.0
 20
15.875000000001309
 30
0.0
 11
69.999999999999972
 21
15.875000000001309
 31
0.0
1001
GRPNAME
1000
PASTMD15
  0
LINE
  5
4362
  8
240
  6
CONTINUOUS
 10
125.99999999999901
 20
27.550213562374442
 30
0.0
 11
125.99999999999901
 21
31.628412793826111
 31
0.0
  0
LINE
  5
4363
  8
240
  6
CONTINUOUS
 10
93.29999999999923
 20
39.999999557034272
 30
0.0
 11
115.36834750241179
 21
39.999999557034272
 31
0.0
1001
GRPNAME
1000
PASTMD11
  0
LINE
  5
4364
  8
240
  6
CONTINUOUS
 10
86.478427124747853
 20
40.349999557034153
 30
0.0
 11
91.79999999999923
 21
40.349999557034153
 31
0.0
1001
GRPNAME
1000
PASTMD11
  0
LINE
  5
4365
  8
240
  6
CONTINUOUS
 10
70.999999999999048
 20
42.999999781518511
 30
0.0
 11
82.171572875253304
 21
42.999999557034243
 31
0.0
  0
ARC
  5
4366
  8
240
  6
CONTINUOUS
 10
82.171572875253304
 20
40.999999557034251
 30
0.0
 40
1.999999999999992
 50
45.000000000008782
 51
90.0
  0
LINE
  5
4367
  8
240
  6
CONTINUOUS
 10
85.064213562375755
 20
40.935785994660037
 30
0.0
 11
83.585786437626624
 21
42.41421311940708
 31
0.0
1001
GRPNAME
1000
PASTMD0Z
  0
ARC
  5
4368
  8
240
  6
CONTINUOUS
 10
86.478427124747853
 20
42.34999955703416
 30
0.0
 40
2.0
 50
225.00000000003979
 51
270.0
1001
GRPNAME
1000
PASTMD0Z
1001
GENIUS_GENODEF_13
1002
{
1000
HIER
1070
     0
1002
}
1002
{
1000
MANEDIT
1070
     0
1002
}
1002
{
1000
NOSEL
1070
     0
1002
}
1002
{
1000
BEHIND
1070
     0
1002
}
1002
{
1000
OTHER
1070
     0
1002
}
1002
{
1000
REACTOR
1002
}
1001
GENIUS_GENOBJ-N-FIL_13
1002
{
1000
OWNER
1000
GEN
1002
}
  0
LINE
  5
4369
  8
240
  6
CONTINUOUS
 10
123.49999999999901
 20
35.958539812748327
 30
0.0
 11
117.4800144073815
 21
39.434180115164047
 31
0.0
  0
ARC
  5
436A
  8
240
  6
CONTINUOUS
 10
120.99999999999891
 20
31.628412793826111
 30
0.0
 40
5.0
 50
0.0
 51
59.999999999999069
  0
LINE
  5
436B
  8
240
  6
CONTINUOUS
 10
117.2388334524839
 20
39.534080537668629
 30
0.0
 11
115.62716654751409
 21
39.965925383323352
 31
0.0
  0
ARC
  5
436C
  8
240
  6
CONTINUOUS
 10
115.36834750241179
 20
38.999999557034272
 30
0.0
 40
0.9999999999999882
 50
75.000000000005542
 51
90.0
  0
ARC
  5
436D
  8
240
  6
CONTINUOUS
 10
116.9800144073815
 20
38.568154711379528
 30
0.0
 40
1.0000000000000071
 50
59.999999999999069
 51
75.000000000005542
  0
LINE
  5
436E
  8
240
  6
CONTINUOUS
 10
126.99870880218251
 20
23.213397459621319
 30
0.0
 11
127.0
 21
23.208578643763769
 31
0.0
  0
LINE
  5
436F
  8
241
  6
CONTINUOUS
 10
70.999999999999091
 20
-42.50000000000022
 30
0.0
 11
70.999999999999091
 21
42.50000000000022
 31
0.0
  0
LINE
  5
4370
  8
243
  6
HIDDEN2
 10
127.0
 20
-15.875000000001309
 30
0.0
 11
69.999999999999972
 21
-15.875000000001309
 31
0.0
1001
GRPNAME
1000
PASTMD15
  0
LINE
  5
4371
  8
241
  6
CONTINUOUS
 10
125.99999999999901
 20
27.550213562374442
 30
0.0
 11
125.99999999999901
 21
-27.550213562374431
 31
0.0
  0
LINE
  5
4372
  8
240
  6
CONTINUOUS
 10
125.99999999999901
 20
-27.550213562374431
 30
0.0
 11
125.99999999999901
 21
-31.628412793826119
 31
0.0
  0
LINE
  5
4373
  8
240
  6
CONTINUOUS
 10
93.29999999999923
 20
-39.999999557034243
 30
0.0
 11
115.36834750241179
 21
-39.999999557034243
 31
0.0
1001
GRPNAME
1000
PASTMD11
  0
LINE
  5
4374
  8
240
  6
CONTINUOUS
 10
86.478427124747853
 20
-40.34999955703411
 30
0.0
 11
91.79999999999923
 21
-40.34999955703411
 31
0.0
1001
GRPNAME
1000
PASTMD11
  0
ARC
  5
4375
  8
240
  6
CONTINUOUS
 10
86.478427124747853
 20
-42.349999557034138
 30
0.0
 40
2.0
 50
90.0
 51
134.9999999999601
1001
GRPNAME
1000
PASTMD11
1001
GENIUS_GENOBJ-N-FIL_13
1002
{
1000
OWNER
1000
GEN
1002
}
1001
GENIUS_GENODEF_13
1002
{
1000
HIER
1070
     0
1002
}
1002
{
1000
MANEDIT
1070
     0
1002
}
1002
{
1000
NOSEL
1070
     0
1002
}
1002
{
1000
BEHIND
1070
     0
1002
}
1002
{
1000
OTHER
1070
     0
1002
}
1002
{
1000
REACTOR
1002
}
  0
LINE
  5
4376
  8
240
  6
CONTINUOUS
 10
70.999999999999048
 20
-42.999999781518937
 30
0.0
 11
82.171572875253304
 21
-42.999999557034229
 31
0.0
  0
ARC
  5
4377
  8
240
  6
CONTINUOUS
 10
82.171572875253304
 20
-40.999999557034229
 30
0.0
 40
1.999999999999992
 50
270.0
 51
314.99999999999119
  0
LINE
  5
4378
  8
240
  6
CONTINUOUS
 10
85.064213562375755
 20
-40.935785994660037
 30
0.0
 11
83.585786437626624
 21
-42.414213119407101
 31
0.0
1001
GRPNAME
1000
PASTMD0Z
  0
LINE
  5
4379
  8
240
  6
CONTINUOUS
 10
123.49999999999901
 20
-35.958539812748327
 30
0.0
 11
117.4800144073815
 21
-39.434180115164047
 31
0.0
  0
ARC
  5
437A
  8
240
  6
CONTINUOUS
 10
120.99999999999891
 20
-31.628412793826119
 30
0.0
 40
5.0
 50
299.99999999998778
 51
0.0
  0
LINE
  5
437B
  8
240
  6
CONTINUOUS
 10
117.2388334524839
 20
-39.534080537668622
 30
0.0
 11
115.62716654751409
 21
-39.965925383323331
 31
0.0
  0
ARC
  5
437C
  8
240
  6
CONTINUOUS
 10
115.36834750241179
 20
-38.999999557034251
 30
0.0
 40
0.9999999999999882
 50
270.0
 51
284.99999999999449
  0
ARC
  5
437D
  8
240
  6
CONTINUOUS
 10
116.9800144073815
 20
-38.56815471137952
 30
0.0
 40
1.0000000000000071
 50
284.99999999999449
 51
299.99999999998778
  0
LINE
  5
437E
  8
240
  6
CONTINUOUS
 10
127.0
 20
27.550213562374442
 30
0.0
 11
127.0
 21
-27.550213562374431
 31
0.0
1001
GRPNAME
1000
PASTMD0T
  0
LINE
  5
437F
  8
241
  6
CONTINUOUS
 10
82.999999999998593
 20
-42.320358999283577
 30
0.0
 11
82.999999999998593
 21
42.320358999283599
 31
0.0
  0
LINE
  5
4380
  8
241
  6
CONTINUOUS
 10
85.800000000002868
 20
-40.199999557034047
 30
0.0
 11
85.800000000002868
 21
40.199999557034033
 31
0.0
  0
LINE
  5
4381
  8
241
  6
CONTINUOUS
 10
91.79999999999923
 20
-40.34999955703411
 30
0.0
 11
91.79999999999923
 21
40.349999557034153
 31
0.0
  0
LINE
  5
4382
  8
241
  6
CONTINUOUS
 10
116.4999863861521
 20
-39.232054012422402
 30
0.0
 11
116.4999863861521
 21
39.232054012422402
 31
0.0
  0
LINE
  5
4383
  8
245
  6
CENTER2
 10
98.999999999999986
 20
12.0
 30
0.0
 11
98.999999999999986
 21
21.13739794224966
 31
0.0
  0
LINE
  5
4384
  8
240
  6
CONTINUOUS
 10
91.79999999999923
 20
-40.34999955703411
 30
0.0
 11
93.29999999999923
 21
-39.999999557034243
 31
0.0
  0
LINE
  5
4385
  8
240
  6
CONTINUOUS
 10
91.79999999999923
 20
40.349999557034153
 30
0.0
 11
93.299999999757304
 21
39.99999955691657
 31
0.0
1001
GENIUS_GENOREF_13
1005
43B0
  0
LINE
  5
4386
  8
240
  6
CONTINUOUS
 10
125.99999999999901
 20
27.550213562374442
 30
0.0
 11
127.0
 21
27.550213562374442
 31
0.0
  0
LINE
  5
4387
  8
240
  6
CONTINUOUS
 10
125.99999999999901
 20
-27.550213562374431
 30
0.0
 11
127.0
 21
-27.550213562374431
 31
0.0
  0
TEXT
  5
4388
  8
250
  6
CONTINUOUS
 10
129.74927117593501
 20
19.613517841677549
 30
0.0
 40
2.799999999999998
  1
Coolant
  7
YOKO
 11
129.74927117593501
 21
19.613517841677549
 31
0.0
 73
     1
  0
LINE
  5
4389
  8
250
  6
CONTINUOUS
 10
143.2785622841547
 20
18.37166666666668
 30
0.0
 11
145.50856228415481
 21
18.0
 31
0.0
  0
LINE
  5
438A
  8
250
  6
CONTINUOUS
 10
143.2785622841547
 20
17.62833333333332
 30
0.0
 11
145.50856228415481
 21
18.0
 31
0.0
  0
LINE
  5
438B
  8
250
  6
CONTINUOUS
 10
145.50856228415481
 20
18.0
 30
0.0
 11
143.2785622841547
 21
18.0
 31
0.0
  0
LINE
  5
438C
  8
250
  6
CONTINUOUS
 10
143.2785622841547
 20
18.0
 30
0.0
 11
129.99999999999901
 21
18.0
 31
0.0
  0
LINE
  5
438D
  8
250
  6
CONTINUOUS
 10
143.27856228415499
 20
-17.628333333333231
 30
0.0
 11
145.50856228415509
 21
-17.999999999999911
 31
0.0
  0
LINE
  5
438E
  8
250
  6
CONTINUOUS
 10
143.27856228415499
 20
-18.37166666666657
 30
0.0
 11
145.50856228415509
 21
-17.999999999999911
 31
0.0
  0
LINE
  5
438F
  8
250
  6
CONTINUOUS
 10
145.50856228415509
 20
-17.999999999999911
 30
0.0
 11
143.27856228415499
 21
-17.999999999999911
 31
0.0
  0
LINE
  5
4390
  8
250
  6
CONTINUOUS
 10
143.27856228415499
 20
-17.999999999999911
 30
0.0
 11
129.9999999999994
 21
-17.999999999999911
 31
0.0
  0
TEXT
  5
4391
  8
250
  6
CONTINUOUS
 10
129.58690084179199
 20
-22.815545675999289
 30
0.0
 40
2.799999999999998
  1
Coolant
  7
YOKO
 11
129.58690084179199
 21
-22.815545675999289
 31
0.0
 73
     1
  0
TEXT
  5
4392
  8
250
  6
CONTINUOUS
 10
131.04196394026599
 20
53.924904829739219
 30
0.0
 40
3.0
  1
Key Grip
  7
YOKO
  0
LINE
  5
4393
  8
243
  6
HIDDEN2
 10
107.1500000000012
 20
15.094500000001791
 30
0.0
 11
105.5405000000016
 21
13.48500000000061
 31
0.0
  0
LINE
  5
4394
  8
243
  6
HIDDEN2
 10
90.850000000001117
 20
15.094499999997019
 30
0.0
 11
90.850000000001017
 21
15.524999999996959
 31
0.0
  0
LINE
  5
4395
  8
243
  6
HIDDEN2
 10
105.5405000000016
 20
13.48500000000061
 30
0.0
 11
92.459500000001512
 21
13.484999999996759
 31
0.0
  0
LINE
  5
4396
  8
243
  6
HIDDEN2
 10
92.459500000001512
 20
13.484999999996759
 30
0.0
 11
90.850000000001117
 21
15.094499999997019
 31
0.0
  0
LINE
  5
4397
  8
243
  6
HIDDEN2
 10
107.1500000000009
 20
15.52500000000172
 30
0.0
 11
107.1500000000012
 21
15.094500000001791
 31
0.0
  0
LINE
  5
4398
  8
243
  6
HIDDEN2
 10
90.850000000001017
 20
15.524999999996959
 30
0.0
 11
107.1500000000009
 21
15.52500000000172
 31
0.0
  0
LINE
  5
4399
  8
243
  6
HIDDEN2
 10
93.999999999999986
 20
19.009328859391239
 30
0.0
 11
104.0
 21
19.009328859394181
 31
0.0
  0
LINE
  5
439A
  8
243
  6
HIDDEN2
 10
93.999999999999986
 20
19.009328859391239
 30
0.0
 11
94.000000000000981
 21
15.52499999999786
 31
0.0
  0
LINE
  5
439B
  8
243
  6
HIDDEN2
 10
104.00000000000099
 20
15.52500000000081
 30
0.0
 11
104.0
 21
19.009328859394181
 31
0.0
  0
LINE
  5
439C
  8
250
  6
CONTINUOUS
 10
127.0
 20
28.050213562374431
 30
0.0
 11
127.0
 21
70.999999999999943
 31
0.0
  0
LINE
  5
439D
  8
250
  6
CONTINUOUS
 10
69.999999999999972
 20
16.375000000001311
 30
0.0
 11
69.999999999999972
 21
70.999999999999943
 31
0.0
  0
LINE
  5
439E
  8
250
  6
CONTINUOUS
 10
124.77
 20
69.999999999999943
 30
0.0
 11
69.999999999999972
 21
69.999999999999943
 31
0.0
  0
LINE
  5
439F
  8
250
  6
CONTINUOUS
 10
115.86834750241169
 20
39.999999557034251
 30
0.0
 11
155.90959678488369
 21
39.999999557034243
 31
0.0
  0
LINE
  5
43A0
  8
250
  6
CONTINUOUS
 10
115.86834750241169
 20
-39.999999557034243
 30
0.0
 11
155.90959678488369
 21
-39.999999557034251
 31
0.0
  0
LINE
  5
43A1
  8
250
  6
CONTINUOUS
 10
154.90959678488369
 20
37.76999955703424
 30
0.0
 11
154.90959678488369
 21
-37.769999557034261
 31
0.0
  0
TEXT
  5
43A2
  8
250
  6
CONTINUOUS
 10
153.90959678488369
 20
-5.9333333333333167
 30
0.0
 40
2.799999999999998
  1
\U+22053.150
 50
90.0
  0
LINE
  5
43A3
  8
250
  6
CONTINUOUS
 10
155.28126345155039
 20
-37.769999557034261
 30
0.0
 11
154.90959678488369
 21
-39.999999557034251
 31
0.0
  0
LINE
  5
43A4
  8
250
  6
CONTINUOUS
 10
154.53793011821691
 20
-37.769999557034261
 30
0.0
 11
154.90959678488369
 21
-39.999999557034251
 31
0.0
  0
LINE
  5
43A5
  8
250
  6
CONTINUOUS
 10
154.90959678488369
 20
-39.999999557034251
 30
0.0
 11
154.90959678488369
 21
-37.769999557034261
 31
0.0
  0
LINE
  5
43A6
  8
250
  6
CONTINUOUS
 10
154.53793011821691
 20
37.76999955703424
 30
0.0
 11
154.90959678488369
 21
39.999999557034243
 31
0.0
  0
LINE
  5
43A7
  8
250
  6
CONTINUOUS
 10
155.28126345155039
 20
37.76999955703424
 30
0.0
 11
154.90959678488369
 21
39.999999557034243
 31
0.0
  0
LINE
  5
43A8
  8
250
  6
CONTINUOUS
 10
154.90959678488369
 20
39.999999557034243
 30
0.0
 11
154.90959678488369
 21
37.76999955703424
 31
0.0
  0
TEXT
  5
43A9
  8
250
  6
CONTINUOUS
 10
92.184082963150402
 20
71.106429005717317
 30
0.0
 40
2.799999999999998
  1
2.244
  0
LINE
  5
43AA
  8
250
  6
CONTINUOUS
 10
72.229999999999976
 20
69.628333333333273
 30
0.0
 11
69.999999999999972
 21
69.999999999999943
 31
0.0
  0
LINE
  5
43AB
  8
250
  6
CONTINUOUS
 10
72.229999999999976
 20
70.371666666666613
 30
0.0
 11
69.999999999999972
 21
69.999999999999943
 31
0.0
  0
LINE
  5
43AC
  8
250
  6
CONTINUOUS
 10
69.999999999999972
 20
69.999999999999943
 30
0.0
 11
72.229999999999976
 21
69.999999999999943
 31
0.0
  0
LINE
  5
43AD
  8
250
  6
CONTINUOUS
 10
124.77
 20
70.371666666666613
 30
0.0
 11
127.0
 21
69.999999999999943
 31
0.0
  0
LINE
  5
43AE
  8
250
  6
CONTINUOUS
 10
124.77
 20
69.628333333333273
 30
0.0
 11
127.0
 21
69.999999999999943
 31
0.0
  0
LINE
  5
43AF
  8
250
  6
CONTINUOUS
 10
127.0
 20
69.999999999999943
 30
0.0
 11
124.77
 21
69.999999999999943
 31
0.0
  0
POINT
  5
43B0
  8
0
 10
21.999999999999972
 20
0.000000000000005
 30
0.0
1001
GENIUS_GENOBJ-N-FIL_13
1002
{
1000
OWNER
1000
GEN
1002
}
1001
GENIUS_GENOENT_13
1002
{
1000
MYREF
1005
43B0
1002
}
1002
{
1000
GRP
1005
0
1002
}
1001
GENIUS_GENOLIS_13
1002
{
1000
ENT
1005
4385
1005
0
1002
}
1001
GENIUS_GENODEF_13
1002
{
1000
HIER
1070
     1
1002
}
1002
{
1000
MANEDIT
1070
     1
1002
}
1002
{
1000
NOSEL
1070
     0
1002
}
1002
{
1000
BEHIND
1070
     0
1002
}
1002
{
1000
OTHER
1070
     0
1002
}
1002
{
1000
REACTOR
1002
}
  0
LINE
  5
43B7
  8
240
  6
CONTINUOUS
 10
70.999999999999091
 20
-42.50000000000022
 30
0.0
 11
70.999999999999048
 21
-42.999999781518937
 31
0.0
  0
LINE
  5
43B8
  8
240
  6
CONTINUOUS
 10
29.00000000000006
 20
52.50000000000032
 30
0.0
 11
29.00000000000006
 21
62.499999999999972
 31
0.0
  0
LINE
  5
43B9
  8
250
  6
CONTINUOUS
 10
-39.20135676606543
 20
-60.283382249222207
 30
0.0
 11
-66.134690099398753
 21
-60.283382249222207
 31
0.0
1001
ITEMNAME
1000
LNSP2
  0
LINE
  5
43BA
  8
240
  6
CONTINUOUS
 10
0.0000000000000021
 20
-62.500000000000412
 30
0.0
 11
-0.000000000000028
 21
-48.134252505009783
 31
0.0
  0
LINE
  5
43BB
  8
240
  6
CONTINUOUS
 10
-0.0000000000000787
 20
62.500000000000242
 30
0.0
 11
16.752404735808302
 21
62.500000000000021
 31
0.0
  0
LINE
  5
43BC
  8
241
  6
CONTINUOUS
 10
21.875000000000199
 20
58.499999999999801
 30
0.0
 11
21.874999999999801
 21
43.150898020782613
 31
0.0
  0
LINE
  5
43BD
  8
240
  6
CONTINUOUS
 10
23.24759526419157
 20
62.499999999999972
 30
0.0
 11
29.00000000000006
 21
62.499999999999972
 31
0.0
  0
LINE
  5
43BE
  8
240
  6
CONTINUOUS
 10
0.0000000000000021
 20
-62.500000000000412
 30
0.0
 11
16.752404735808302
 21
-62.500000000000071
 31
0.0
  0
LINE
  5
43BF
  8
240
  6
CONTINUOUS
 10
23.24759526419157
 20
-62.500000000000021
 30
0.0
 11
21.875000000000831
 21
-60.122595264193897
 31
0.0
  0
LINE
  5
43C0
  8
240
  6
CONTINUOUS
 10
18.124999999999911
 20
-60.122595264191361
 30
0.0
 11
16.752404735808302
 21
-62.500000000000071
 31
0.0
  0
LINE
  5
43C1
  8
240
  6
CONTINUOUS
 10
21.875000000000199
 20
-58.499999999999801
 30
0.0
 11
18.12500000000162
 21
-58.500000000000043
 31
0.0
  0
LINE
  5
43C2
  8
240
  6
CONTINUOUS
 10
23.24759526419157
 20
-62.500000000000021
 30
0.0
 11
29.000000000000139
 21
-62.49999999999995
 31
0.0
  0
LINE
  5
43C3
  8
240
  6
CONTINUOUS
 10
-62.999999999999901
 20
-44.97793987975902
 30
0.0
 11
-62.999999999999901
 21
44.977939879759091
 31
0.0
  0
LINE
  5
43C4
  8
240
  6
CONTINUOUS
 10
0.0000000000006439
 20
48.134252505009748
 30
0.0
 11
-62.999999999999901
 21
44.977939879759091
 31
0.0
  0
LINE
  5
43C5
  8
243
  6
HIDDEN2
 10
-51.000000000000192
 20
33.499999999999957
 30
0.0
 11
-51.000000000000263
 21
45.579142284568718
 31
0.0
  0
LINE
  5
43C6
  8
243
  6
HIDDEN2
 10
-43.999999999997797
 20
-45.929843687374422
 30
0.0
 11
-43.999999999998522
 21
-33.500000000000007
 31
0.0
  0
LINE
  5
43C7
  8
240
  6
CONTINUOUS
 10
0.0000000000006439
 20
48.134252505009748
 30
0.0
 11
-0.0000000000000787
 21
62.500000000000242
 31
0.0
  0
LINE
  5
43C8
  8
240
  6
CONTINUOUS
 10
-0.000000000000028
 20
-48.134252505009783
 30
0.0
 11
-62.999999999999901
 21
-44.97793987975902
 31
0.0
  0
LINE
  5
43C9
  8
241
  6
CONTINUOUS
 10
10.00000000000008
 20
39.499999999999922
 30
0.0
 11
29.000000000000139
 21
39.499999999999972
 31
0.0
  0
LINE
  5
43CA
  8
241
  6
CONTINUOUS
 10
4.999999999999968
 20
48.435524153249141
 30
0.0
 11
16.7524047358066
 21
48.435524153249361
 31
0.0
  0
LINE
  5
43CB
  8
241
  6
CONTINUOUS
 10
4.999999999999968
 20
48.435524153249141
 30
0.0
 11
5.0000000000000284
 21
44.499999999999908
 31
0.0
  0
ARC
  5
43CC
  8
241
  6
CONTINUOUS
 10
10.00000000000008
 20
44.499999999999908
 30
0.0
 40
5.0
 50
180.0
 51
270.0
  0
LINE
  5
43CD
  8
241
  6
CONTINUOUS
 10
16.752404735808302
 20
62.500000000001663
 30
0.0
 11
16.752404735808302
 21
48.435524153249361
 31
0.0
  0
LINE
  5
43CE
  8
241
  6
CONTINUOUS
 10
23.24759526419157
 20
62.500000000001613
 30
0.0
 11
23.24759526419157
 21
48.435524153249361
 31
0.0
  0
LINE
  5
43CF
  8
241
  6
CONTINUOUS
 10
23.24759526419157
 20
39.500000000000171
 30
0.0
 11
23.247595264191752
 21
-62.499999999999972
 31
0.0
  0
LINE
  5
43D0
  8
241
  6
CONTINUOUS
 10
18.12499999999946
 20
43.15089802078289
 30
0.0
 11
21.874999999999801
 21
43.150898020782613
 31
0.0
  0
LINE
  5
43D1
  8
241
  6
CONTINUOUS
 10
16.752404735808302
 20
48.435524153249361
 30
0.0
 11
18.1249999999994
 21
45.326332978763638
 31
0.0
  0
LINE
  5
43D2
  8
241
  6
CONTINUOUS
 10
21.874999999999801
 20
45.326332978763638
 30
0.0
 11
23.24759526419157
 21
48.435524153249183
 31
0.0
  0
LINE
  5
43D3
  8
241
  6
CONTINUOUS
 10
23.247595264196061
 20
48.435524153249361
 30
0.0
 11
29.000000000000028
 21
48.435524153249197
 31
0.0
  0
LINE
  5
43D4
  8
240
  6
CONTINUOUS
 10
18.125000000000011
 20
-60.122595264191759
 30
0.0
 11
18.12500000000162
 21
-58.500000000000043
 31
0.0
  0
LINE
  5
43D5
  8
241
  6
CONTINUOUS
 10
18.125000000000011
 20
58.499999999999943
 30
0.0
 11
18.12499999999946
 21
43.15089802078289
 31
0.0
  0
LINE
  5
43D6
  8
240
  6
CONTINUOUS
 10
21.875000000000831
 20
-60.122595264193897
 30
0.0
 11
21.87499999999833
 21
-58.500000000000043
 31
0.0
  0
LINE
  5
43D7
  8
241
  6
CONTINUOUS
 10
-0.0000000000000284
 20
-47.933851703406383
 30
0.0
 11
-0.0000000000000284
 21
48.134252505009719
 31
0.0
  0
LINE
  5
43D8
  8
240
  6
CONTINUOUS
 10
23.247595264191631
 20
62.500000000000021
 30
0.0
 11
21.875000000000881
 21
60.122595264193961
 31
0.0
  0
LINE
  5
43D9
  8
240
  6
CONTINUOUS
 10
18.124999999999972
 20
60.122595264191361
 30
0.0
 11
16.752404735808369
 21
62.500000000000071
 31
0.0
  0
LINE
  5
43DA
  8
240
  6
CONTINUOUS
 10
21.875000000000309
 20
58.499999999999801
 30
0.0
 11
18.12500000000168
 21
58.500000000000043
 31
0.0
  0
LINE
  5
43DB
  8
240
  6
CONTINUOUS
 10
18.125000000000082
 20
60.122595264191801
 30
0.0
 11
18.12500000000168
 21
58.500000000000043
 31
0.0
  0
LINE
  5
43DC
  8
240
  6
CONTINUOUS
 10
21.875000000000881
 20
60.122595264193961
 30
0.0
 11
21.87499999999838
 21
58.500000000000021
 31
0.0
  0
LINE
  5
43DD
  8
241
  6
CONTINUOUS
 10
21.875000000000028
 20
39.500000000000171
 30
0.0
 11
21.875000000000139
 21
-58.499999999999801
 31
0.0
  0
LINE
  5
43DE
  8
241
  6
CONTINUOUS
 10
18.125000000000082
 20
39.500000000000128
 30
0.0
 11
18.125000000000199
 21
-58.500000000000043
 31
0.0
  0
LINE
  5
43DF
  8
241
  6
CONTINUOUS
 10
16.752404735808302
 20
39.500000000000128
 30
0.0
 11
16.752404735808479
 21
-62.500000000000021
 31
0.0
  0
LINE
  5
43E0
  8
240
  6
CONTINUOUS
 10
29.000000000000139
 20
-62.49999999999995
 30
0.0
 11
29.000000000000171
 21
-52.499999999999922
 31
0.0
  0
TEXT
  5
43E1
  8
250
  6
CONTINUOUS
 10
-63.868023432732109
 20
-59.283382249222221
 30
0.0
 40
2.799999999999998
  1
HSK-A125
  7
YOKO
1001
ITEMNAME
1000
LNSP3
  0
POLYLINE
  5
43E2
  8
250
  6
CONTINUOUS
 66
     1
 10
0.0
 20
0.0
 30
0.0
1001
ACAD
1000
DSTYLE
1002
{
1070
    41
1040
2.0
1002
}
  0
VERTEX
  5
43E3
  8
250
  6
CONTINUOUS
 10
-32.282204286245992
 20
-48.299058608858793
 30
0.0
  0
VERTEX
  5
43E4
  8
250
  6
CONTINUOUS
 10
-39.20135676606543
 20
-60.283382249222207
 30
0.0
  0
SEQEND
  5
43E5
  8
250
  6
CONTINUOUS
  0
LINE
  5
43E6
  8
250
  6
CONTINUOUS
 10
-32.570879420840797
 20
-48.1323919421921
 30
0.0
 11
-31.282204286245989
 21
-46.567007801289897
 31
0.0
  0
LINE
  5
43E7
  8
250
  6
CONTINUOUS
 10
-31.993529151651181
 20
-48.46572527552545
 30
0.0
 11
-31.282204286245989
 21
-46.567007801289897
 31
0.0
  0
LINE
  5
43E8
  8
250
  6
CONTINUOUS
 10
-31.282204286245989
 20
-46.567007801289897
 30
0.0
 11
-32.282204286245992
 21
-48.299058608858793
 31
0.0
  0
LINE
  5
43E9
  8
247
  6
CONTINUOUS
 10
12.0
 20
-28.250000000070049
 30
0.0
 11
12.0
 21
-21.557692308030042
 31
0.0
  0
ARC
  5
43EA
  8
247
  6
CONTINUOUS
 10
10.25000000006998
 20
-28.250000000070049
 30
0.0
 40
1.7499999999299991
 50
180.0
 51
0.0
  0
ARC
  5
43EB
  8
247
  6
CONTINUOUS
 10
10.25000000007004
 20
-21.557692308030042
 30
0.0
 40
1.7499999999299991
 50
0.0
 51
180.0
  0
LINE
  5
43EC
  8
247
  6
CONTINUOUS
 10
8.5000000001400693
 20
-27.384615384720021
 30
0.0
 11
11.500000000020011
 21
-28.244851541962031
 31
0.0
  0
LINE
  5
43ED
  8
247
  6
CONTINUOUS
 10
9.9230769231600142
 20
-26.484983818335831
 30
0.0
 11
9.9230769231600142
 21
-27.792676125975859
 31
0.0
  0
ARC
  5
43EE
  8
247
  6
CONTINUOUS
 10
9.049598667702984
 20
-26.14514381608981
 30
0.0
 40
0.5538165441895349
 50
72.997889675292413
 51
172.92416621851351
  0
ARC
  5
43EF
  8
247
  6
CONTINUOUS
 10
8.9360330444658338
 20
-26.56687832302881
 30
0.0
 40
0.9904354236226808
 50
4.7429368522022131
 51
73.849226273266424
1001
GENIUS_GENOBJ-N-FIL_13
1002
{
1000
OWNER
1000
GEN
1002
}
1001
GENIUS_GENODEF_13
1002
{
1000
HIER
1070
     0
1002
}
1002
{
1000
MANEDIT
1070
     0
1002
}
1002
{
1000
NOSEL
1070
     0
1002
}
1002
{
1000
BEHIND
1070
     0
1002
}
1002
{
1000
OTHER
1070
     0
1002
}
1002
{
1000
REACTOR
1002
}
  0
LINE
  5
43F0
  8
247
  6
CONTINUOUS
 10
11.500000000020011
 20
-26.93715923432201
 30
0.0
 11
11.500000000020011
 21
-28.244851541962031
 31
0.0
  0
LINE
  5
43F1
  8
247
  6
CONTINUOUS
 10
8.5000000001400693
 20
-27.384615384720021
 30
0.0
 11
8.5000000001400693
 21
-26.07692307708
 31
0.0
  0
ARC
  5
43F2
  8
247
  6
CONTINUOUS
 10
10.4820242326656
 20
-26.560919636546959
 30
0.0
 40
0.5640818586791229
 50
65.990941652528889
 51
172.26344345906909
  0
ARC
  5
43F3
  8
247
  6
CONTINUOUS
 10
10.48742903918663
 20
-27.0382626853471
 30
0.0
 40
1.0176059446230981
 50
5.701985164256504
 51
77.277338436822205
1001
GENIUS_GENOBJ-N-FIL_13
1002
{
1000
OWNER
1000
GEN
1002
}
1001
GENIUS_GENODEF_13
1002
{
1000
HIER
1070
     0
1002
}
1002
{
1000
MANEDIT
1070
     0
1002
}
1002
{
1000
NOSEL
1070
     0
1002
}
1002
{
1000
BEHIND
1070
     0
1002
}
1002
{
1000
OTHER
1070
     0
1002
}
1002
{
1000
REACTOR
1002
}
  0
LINE
  5
43F4
  8
247
  6
CONTINUOUS
 10
11.500000000020011
 20
-25.28331308054204
 30
0.0
 11
8.5000000001400693
 21
-24.42307692330003
 31
0.0
  0
LINE
  5
43F5
  8
247
  6
CONTINUOUS
 10
8.5000000001400693
 20
-22.000000000319979
 30
0.0
 11
8.5000000001400693
 21
-22.565736619456569
 31
0.0
  0
LINE
  5
43F6
  8
247
  6
CONTINUOUS
 10
11.500000000020011
 20
-23.4615384618
 30
0.0
 11
11.500000000020011
 21
-22.846153846440028
 31
0.0
  0
ARC
  5
43F7
  8
247
  6
CONTINUOUS
 10
10.58328513597337
 20
-21.708791209122872
 30
0.0
 40
2.2526500823422122
 50
202.3594881415263
 51
254.99324854284609
  0
ARC
  5
43F8
  8
247
  6
CONTINUOUS
 10
9.3083126551945341
 20
-22.37406947921324
 30
0.0
 40
0.8906723995727782
 50
94.994589319075374
 51
155.1663289573041
1001
GENIUS_GENOBJ-N-FIL_13
1002
{
1000
OWNER
1000
GEN
1002
}
1001
GENIUS_GENODEF_13
1002
{
1000
HIER
1070
     0
1002
}
1002
{
1000
MANEDIT
1070
     0
1002
}
1002
{
1000
NOSEL
1070
     0
1002
}
1002
{
1000
BEHIND
1070
     0
1002
}
1002
{
1000
OTHER
1070
     0
1002
}
1002
{
1000
REACTOR
1002
}
  0
ARC
  5
43F9
  8
247
  6
CONTINUOUS
 10
10.16014588866779
 20
-23.226458886212569
 30
0.0
 40
1.392781735586712
 50
15.846096555780679
 51
82.325137004169122
  0
ARC
  5
43FA
  8
247
  6
CONTINUOUS
 10
10.45924343152728
 20
-22.642212725840359
 30
0.0
 40
1.324563662670287
 50
249.7136016704969
 51
321.78874565640581
1001
GENIUS_GENOBJ-N-FIL_13
1002
{
1000
OWNER
1000
GEN
1002
}
1001
GENIUS_GENODEF_13
1002
{
1000
HIER
1070
     0
1002
}
1002
{
1000
MANEDIT
1070
     0
1002
}
1002
{
1000
NOSEL
1070
     0
1002
}
1002
{
1000
BEHIND
1070
     0
1002
}
1002
{
1000
OTHER
1070
     0
1002
}
1002
{
1000
REACTOR
1002
}
  0
LINE
  5
43FB
  8
247
  6
CONTINUOUS
 10
10.34615384621998
 20
-22.538461538759972
 30
0.0
 11
10.34615384621998
 21
-21.846153846479972
 31
0.0
  0
LINE
  5
43FC
  8
247
  6
CONTINUOUS
 10
8.500000000139952
 20
-28.250000000070049
 30
0.0
 11
8.500000000139952
 21
-27.576923077020052
 31
0.0
  0
LINE
  5
43FD
  8
241
  6
CONTINUOUS
 10
29.000000000000249
 20
-52.5
 30
0.0
 11
29.000000000000039
 21
52.500000000000391
 31
0.0
  0
TEXT
  5
43FE
  8
241
  6
CONTINUOUS
 10
-71.999999999999687
 20
91.0
 30
0.0
 40
5.0
  1
HSK-A125-MEGA1.250DPG-5
  7
YOKO
 11
-71.999999999999687
 21
91.0
 31
0.0
 73
     1
  0
LINE
  5
43FF
  8
245
  6
CENTER2
 10
-66.010679551616363
 20
0.0
 30
0.0
 11
136.74498542233161
 21
0.0
 31
0.0
  0
LINE
  5
4400
  8
243
  6
HIDDEN2
 10
4.999999999999571
 20
-55.0
 30
0.0
 11
4.999999999999571
 21
-62.500000000000313
 31
0.0
  0
LINE
  5
4401
  8
243
  6
HIDDEN2
 10
4.999999999999571
 20
55.0
 30
0.0
 11
29.00000000000006
 21
55.0
 31
0.0
  0
LINE
  5
4402
  8
243
  6
HIDDEN2
 10
4.999999999999571
 20
-55.0
 30
0.0
 11
29.00000000000016
 21
-55.0
 31
0.0
  0
LINE
  5
4403
  8
243
  6
HIDDEN2
 10
-62.999999999999901
 20
33.499999999999872
 30
0.0
 11
-38.00205080756875
 21
33.50000000000005
 31
0.0
  0
LINE
  5
4404
  8
243
  6
HIDDEN2
 10
-12.87439318958363
 20
40.000000000000071
 30
0.0
 11
-34.249274057836203
 21
40.000000000000149
 31
0.0
  0
LINE
  5
4405
  8
243
  6
HIDDEN2
 10
-34.249274057836203
 20
40.000000000000149
 30
0.0
 11
-38.00205080756875
 21
33.50000000000005
 31
0.0
  0
ARC
  5
4406
  8
243
  6
HIDDEN2
 10
-12.87439318958369
 20
24.00000000000006
 30
0.0
 40
16.0
 50
36.423573642332038
 51
90.0
  0
LINE
  5
4407
  8
243
  6
HIDDEN2
 10
4.999999999999571
 20
55.0
 30
0.0
 11
4.999999999999571
 21
62.500000000000171
 31
0.0
  0
LINE
  5
4408
  8
243
  6
HIDDEN2
 10
-62.999999999999901
 20
-33.499999999999872
 30
0.0
 11
-38.00205080756875
 21
-33.50000000000005
 31
0.0
  0
LINE
  5
4409
  8
243
  6
HIDDEN2
 10
-12.87439318958363
 20
-40.000000000000071
 30
0.0
 11
-34.249274057836203
 21
-40.000000000000149
 31
0.0
  0
LINE
  5
440A
  8
243
  6
HIDDEN2
 10
-34.249274057836203
 20
-40.000000000000149
 30
0.0
 11
-38.00205080756875
 21
-33.50000000000005
 31
0.0
  0
ARC
  5
440B
  8
243
  6
HIDDEN2
 10
-12.87439318958369
 20
-24.00000000000006
 30
0.0
 40
16.0
 50
270.0
 51
323.57642635766808
  0
ARC
  5
440C
  8
240
  6
CONTINUOUS
 10
40.000000000000057
 20
-50.091089460724341
 30
0.0
 40
3.0
 50
98.365886124031931
 51
179.99999999999989
1001
GENIUS_GENODEF_13
1002
{
1000
HIER
1070
     0
1002
}
1002
{
1000
MANEDIT
1070
     0
1002
}
1002
{
1000
NOSEL
1070
     0
1002
}
1002
{
1000
BEHIND
1070
     0
1002
}
1002
{
1000
OTHER
1070
     0
1002
}
1002
{
1000
REACTOR
1002
}
1001
GENIUS_GENOBJ-N-FIL_13
1002
{
1000
OWNER
1000
GEN
1002
}
  0
LINE
  5
440D
  8
240
  6
CONTINUOUS
 10
29.000000000000171
 20
52.499999999999922
 30
0.0
 11
37.000000000000057
 21
52.499999999999851
 31
0.0
  0
LINE
  5
440E
  8
240
  6
CONTINUOUS
 10
37.000000000000057
 20
52.499999999999851
 30
0.0
 11
37.000000000000057
 21
50.091089460724341
 31
0.0
  0
ARC
  5
440F
  8
240
  6
CONTINUOUS
 10
40.000000000000057
 20
50.091089460724341
 30
0.0
 40
3.0
 50
180.00000000000011
 51
261.63411387596813
1001
GENIUS_GENODEF_13
1002
{
1000
HIER
1070
     0
1002
}
1002
{
1000
MANEDIT
1070
     0
1002
}
1002
{
1000
NOSEL
1070
     0
1002
}
1002
{
1000
BEHIND
1070
     0
1002
}
1002
{
1000
OTHER
1070
     0
1002
}
1002
{
1000
REACTOR
1002
}
1001
GENIUS_GENOBJ-N-FIL_13
1002
{
1000
OWNER
1000
GEN
1002
}
  0
LINE
  5
4410
  8
240
  6
CONTINUOUS
 10
39.563518028515603
 20
47.123012054629783
 30
0.0
 11
70.999999999999091
 21
42.50000000000022
 31
0.0
  0
LINE
  5
4412
  8
240
  6
CONTINUOUS
 10
70.999999999999091
 20
42.50000000000022
 30
0.0
 11
70.999999999999091
 21
42.999999781518511
 31
0.0
  0
LINE
  5
4440
  8
241
  6
CONTINUOUS
 10
37.000000000000057
 20
-50.091089460724341
 30
0.0
 11
37.000000000000057
 21
50.091089460724341
 31
0.0
  0
LINE
  5
444C
  8
250
  6
CONTINUOUS
 10
-0.0000000000000787
 20
63.000000000000242
 30
0.0
 11
-0.0000000000000778
 21
78.0
 31
0.0
  0
LINE
  5
444D
  8
250
  6
CONTINUOUS
 10
127.0
 20
28.050213562374442
 30
0.0
 11
127.0
 21
78.0
 31
0.0
  0
LINE
  5
444E
  8
250
  6
CONTINUOUS
 10
2.2299999999999218
 20
77.0
 30
0.0
 11
124.77
 21
77.0
 31
0.0
  0
TEXT
  5
4452
  8
250
  6
CONTINUOUS
 10
62.166666666666607
 20
78.000000000000014
 30
0.0
 40
2.7999999999999989
  1
5.000
  0
LINE
  5
4453
  8
250
  6
CONTINUOUS
 10
124.77
 20
77.371666666666655
 30
0.0
 11
127.0
 21
77.0
 31
0.0
  0
LINE
  5
4454
  8
250
  6
CONTINUOUS
 10
124.77
 20
76.62833333333333
 30
0.0
 11
127.0
 21
77.0
 31
0.0
  0
LINE
  5
4455
  8
250
  6
CONTINUOUS
 10
127.0
 20
77.0
 30
0.0
 11
124.77
 21
77.0
 31
0.0
  0
LINE
  5
4456
  8
250
  6
CONTINUOUS
 10
2.2299999999999218
 20
76.62833333333333
 30
0.0
 11
-0.0000000000000778
 21
77.0
 31
0.0
  0
LINE
  5
4457
  8
250
  6
CONTINUOUS
 10
2.2299999999999218
 20
77.371666666666655
 30
0.0
 11
-0.0000000000000778
 21
77.0
 31
0.0
  0
LINE
  5
4458
  8
250
  6
CONTINUOUS
 10
-0.0000000000000778
 20
77.0
 30
0.0
 11
2.2299999999999218
 21
77.0
 31
0.0
  0
VIEWPORT
  5
22
 67
     1
  8
0
 10
261.51769911504419
 20
148.5
 30
0.0
 40
523.0353982300885
 41
297.0
 68
     1
 69
     1
1001
ACAD
1000
MVIEW
1002
{
1070
    16
1010
0.0
1020
0.0
1030
0.0
1010
0.0
1020
0.0
1030
1.0
1040
0.0
1040
297.0
1040
261.51769911504419
1040
148.5
1040
50.0
1040
0.0
1040
0.0
1070
     0
1070
   100
1070
     1
1070
     1
1070
     0
1070
     0
1070
     0
1070
     0
1040
0.0
1040
0.0
1040
0.0
1040
1.0
1040
1.0
1040
10.0
1040
10.0
1070
     0
1002
{
1002
}
1002
}
1001
GENIUS_GENODEF_13
1002
{
1000
HIER
1070
     0
1002
}
1002
{
1000
MANEDIT
1070
     0
1002
}
1002
{
1000
NOSEL
1070
     0
1002
}
1002
{
1000
BEHIND
1070
     0
1002
}
1002
{
1000
OTHER
1070
     0
1002
}
1002
{
1000
REACTOR
1002
}
1001
GENIUS_GENOBJ-N-SDF_13
1002
{
1000
OWNER
1000
GEN
1002
}
1001
GENIUS_GENSCREG_15
1000
PF
1040
1.0
1000
DF
1040
1.0
1000
MIN
1011
0.0
1021
0.0
1031
0.0
1021
0.0
1031
0.0
1000
MAX
1011
523.0353982300885
1021
0.0
1031
0.0
1021
297.0
1031
0.0
1000
FLAGS
1070
     4
  0
ENDSEC
  0
EOF
