  0
SECTION
  2
HEADER
  9
$ACADVER
  1
AC1009
  9
$INSBASE
 10
0.0
 20
0.0
 30
0.0
  9
$EXTMIN
 10
-69.047619047619051
 20
-62.500000000000412
 30
0.0
  9
$EXTMAX
 10
143.88613601808419
 20
96.000000000000014
 30
0.0
  9
$LIMMIN
 10
0.0
 20
0.0
  9
$LIMMAX
 10
297.0
 20
210.0
  9
$ORTHOMODE
 70
     0
  9
$REGENMODE
 70
     1
  9
$FILLMODE
 70
     1
  9
$QTEXTMODE
 70
     0
  9
$MIRRTEXT
 70
     1
  9
$DRAGMODE
 70
     2
  9
$LTSCALE
 40
10.0
  9
$OSMODE
 70
    37
  9
$ATTMODE
 70
     1
  9
$TEXTSIZE
 40
3.0
  9
$TRACEWID
 40
1.0
  9
$TEXTSTYLE
  7
YOKO
  9
$CLAYER
  8
240
  9
$CELTYPE
  6
BYLAYER
  9
$CECOLOR
 62
   256
  9
$DIMSCALE
 40
1.0
  9
$DIMASZ
 40
2.2299999999999991
  9
$DIMEXO
 40
0.5
  9
$DIMDLI
 40
7.0
  9
$DIMRND
 40
0.0
  9
$DIMDLE
 40
0.0
  9
$DIMEXE
 40
1.0
  9
$DIMTP
 40
0.0
  9
$DIMTM
 40
0.01
  9
$DIMTXT
 40
2.7999999999999989
  9
$DIMCEN
 40
0.0
  9
$DIMTSZ
 40
0.0
  9
$DIMTOL
 70
     0
  9
$DIMLIM
 70
     0
  9
$DIMTIH
 70
     0
  9
$DIMTOH
 70
     0
  9
$DIMSE1
 70
     0
  9
$DIMSE2
 70
     0
  9
$DIMTAD
 70
     3
  9
$DIMZIN
 70
     9
  9
$DIMBLK
  1
OPEN
  9
$DIMASO
 70
     1
  9
$DIMSHO
 70
     1
  9
$DIMPOST
  1

  9
$DIMAPOST
  1

  9
$DIMALT
 70
     0
  9
$DIMALTD
 70
     2
  9
$DIMALTF
 40
25.399999999999999
  9
$DIMLFAC
 40
1.0
  9
$DIMTOFL
 70
     1
  9
$DIMTVP
 40
0.0
  9
$DIMTIX
 70
     1
  9
$DIMSOXD
 70
     0
  9
$DIMSAH
 70
     0
  9
$DIMBLK1
  1

  9
$DIMBLK2
  1

  9
$DIMSTYLE
  2
BIGT
  9
$DIMCLRD
 70
   256
  9
$DIMCLRE
 70
   256
  9
$DIMCLRT
 70
    40
  9
$DIMTFAC
 40
1.0
  9
$DIMGAP
 40
1.0
  9
$LUNITS
 70
     2
  9
$LUPREC
 70
     6
  9
$SKETCHINC
 40
1.0
  9
$FILLETRAD
 40
5.0
  9
$AUNITS
 70
     0
  9
$AUPREC
 70
     6
  9
$MENU
  1
.
  9
$ELEVATION
 40
0.0
  9
$PELEVATION
 40
0.0
  9
$THICKNESS
 40
0.0
  9
$LIMCHECK
 70
     0
  9
$BLIPMODE
 70
     0
  9
$CHAMFERA
 40
0.2
  9
$CHAMFERB
 40
0.2
  9
$SKPOLY
 70
     0
  9
$TDCREATE
 40
2458141.6600590511
  9
$TDUPDATE
 40
2458142.5522167361
  9
$TDINDWG
 40
0.0138855324
  9
$TDUSRTIMER
 40
0.0138855093
  9
$USRTIMER
 70
     1
  9
$ANGBASE
 50
0.0
  9
$ANGDIR
 70
     0
  9
$PDMODE
 70
     1
  9
$PDSIZE
 40
0.0
  9
$PLINEWID
 40
0.0
  9
$COORDS
 70
     1
  9
$SPLFRAME
 70
     0
  9
$SPLINETYPE
 70
     6
  9
$SPLINESEGS
 70
     4
  9
$ATTDIA
 70
     1
  9
$ATTREQ
 70
     1
  9
$HANDLING
 70
     1
  9
$HANDSEED
  5
4652
  9
$SURFTAB1
 70
     6
  9
$SURFTAB2
 70
     6
  9
$SURFTYPE
 70
     6
  9
$SURFU
 70
     6
  9
$SURFV
 70
     6
  9
$UCSNAME
  2

  9
$UCSORG
 10
0.0
 20
0.0
 30
0.0
  9
$UCSXDIR
 10
1.0
 20
0.0
 30
0.0
  9
$UCSYDIR
 10
0.0
 20
1.0
 30
0.0
  9
$PUCSNAME
  2

  9
$PUCSORG
 10
0.0
 20
0.0
 30
0.0
  9
$PUCSXDIR
 10
1.0
 20
0.0
 30
0.0
  9
$PUCSYDIR
 10
0.0
 20
1.0
 30
0.0
  9
$USERI1
 70
     1
  9
$USERI2
 70
     0
  9
$USERI3
 70
     0
  9
$USERI4
 70
     0
  9
$USERI5
 70
     0
  9
$USERR1
 40
0.0
  9
$USERR2
 40
0.0
  9
$USERR3
 40
0.0
  9
$USERR4
 40
0.0
  9
$USERR5
 40
0.0
  9
$WORLDVIEW
 70
     1
  9
$SHADEDGE
 70
     3
  9
$SHADEDIF
 70
    70
  9
$TILEMODE
 70
     1
  9
$MAXACTVP
 70
    16
  9
$PLIMCHECK
 70
     0
  9
$PEXTMIN
 10
1.0000000000000000E+020
 20
1.0000000000000000E+020
 30
1.0000000000000000E+020
  9
$PEXTMAX
 10
-1.0000000000000000E+020
 20
-1.0000000000000000E+020
 30
-1.0000000000000000E+020
  9
$PLIMMIN
 10
0.0
 20
0.0
  9
$PLIMMAX
 10
420.0
 20
297.0
  9
$UNITMODE
 70
     0
  9
$VISRETAIN
 70
     1
  9
$PLINEGEN
 70
     0
  9
$PSLTSCALE
 70
     1
  0
ENDSEC
  0
SECTION
  2
TABLES
  0
TABLE
  2
VPORT
 70
     1
  0
VPORT
  2
*ACTIVE
 70
     0
 10
0.0
 20
0.0
 11
1.0
 21
1.0
 12
43.949771986452419
 22
15.79904723332143
 13
0.0
 23
0.0
 14
7.0
 24
7.0
 15
7.0
 25
7.0
 16
0.0
 26
0.0
 36
1.0
 17
0.0
 27
0.0
 37
0.0
 40
305.94568687090742
 41
1.4533622559652919
 42
50.0
 43
0.0
 44
0.0
 50
0.0
 51
0.0
 71
     0
 72
  2000
 73
     1
 74
     0
 75
     0
 76
     1
 77
     0
 78
     0
  0
ENDTAB
  0
TABLE
  2
LTYPE
 70
    21
  0
LTYPE
  2
CONTINUOUS
 70
     0
  3
Solid line
 72
    65
 73
     0
 40
0.0
  0
LTYPE
  2
CENTER2
 70
     0
  3
___ _ ___ _ ___ _ ___ _ ___ _ ___ _ ___ _ ___ _
 72
    65
 73
     4
 40
1.125
 49
0.75
 49
-0.125
 49
0.125
 49
-0.125
  0
LTYPE
  2
HIDDEN2
 70
     0
  3
_ _ _ _ _ _ _ _ _ _ _ _ _ _ _ _ _ _ _ _ _ _ _ _
 72
    65
 73
     2
 40
0.1875
 49
0.125
 49
-0.0625
  0
LTYPE
  2
AM_ISO02W050
 70
     0
  3
__ __ __ __ __ __ __ __ __ __ __ __ __ __ __
 72
    65
 73
     2
 40
7.5
 49
6.0
 49
-1.5
  0
LTYPE
  2
AMCONSTR
 70
     0
  3
_______________________
 72
    65
 73
     2
 40
9999.0
 49
9999.0
 49
0.0
  0
LTYPE
  2
ACISOWELD
 70
     0
  3
_ _ _ _ _
 72
    65
 73
     2
 40
2.0
 49
2.0
 49
-1.0
  0
LTYPE
  2
ACISOTGB
 70
     0
  3
__ . . __ . .
 72
    65
 73
     6
 40
9.0
 49
4.0
 49
-1.0
 49
1.0
 49
-1.0
 49
1.0
 49
-1.0
  0
LTYPE
  2
ACISOTGL
 70
     0
  3
_ _ _ _ _
 72
    65
 73
     2
 40
3.0
 49
2.0
 49
-1.0
  0
LTYPE
  2
AM_ISO08W050
 70
     0
  3
____ . ____ . ____ . ____ . ____ . ____ . ____
 72
    65
 73
     4
 40
18.0
 49
12.0
 49
-1.5
 49
3.0
 49
-1.5
  0
LTYPE
  2
AM_ISO09W050
 70
     0
  3
_____ . . _____ . . _____ . . ____ .. ____
 72
    65
 73
     6
 40
22.5
 49
12.0
 49
-1.5
 49
3.0
 49
-1.5
 49
3.0
 49
-1.5
  0
LTYPE
  2
AM_ISO08W050X2
 70
     0
  3
__ . __ . __ . __ . __ . __
 72
    65
 73
     4
 40
9.0
 49
6.0
 49
-0.75
 49
1.5
 49
-0.75
  0
LTYPE
  2
AM_ISO02W050X2
 70
     0
  3
 _ _ _ _ _ _ _ _ _ _ _ _
 72
    65
 73
     2
 40
3.75
 49
3.0
 49
-0.75
  0
LTYPE
  2
AMZIGZAG
 70
     0
  3
/\/-/\/-/\/-/\/-/\/-/\/
 72
    65
 73
     2
 40
11.0001
 49
0.0001
 49
-11.0
  0
ENDTAB
  0
TABLE
  2
LAYER
 70
     8
  0
LAYER
  2
0
 70
     0
 62
     7
  6
CONTINUOUS
  0
LAYER
  2
DEFPOINTS
 70
     0
 62
     7
  6
CONTINUOUS
  0
LAYER
  2
245
 70
     0
 62
     2
  6
CENTER2
  0
LAYER
  2
240
 70
     0
 62
     4
  6
CONTINUOUS
  0
LAYER
  2
241
 70
     0
 62
   211
  6
CONTINUOUS
  0
LAYER
  2
243
 70
     0
 62
   211
  6
HIDDEN2
  0
LAYER
  2
247
 70
     0
 62
    60
  6
CONTINUOUS
  0
LAYER
  2
250
 70
     0
 62
     3
  6
CONTINUOUS
  0
ENDTAB
  0
TABLE
  2
STYLE
 70
     8
  0
STYLE
  2
STANDARD
 70
     0
 40
0.0
 41
1.0
 50
0.0
 71
     0
 42
3.0
  3
romans.shx
  4
extfont.shx
  0
STYLE
  2
ACISOGDT
 70
     0
 40
0.0
 41
1.0
 50
0.0
 71
     0
 42
3.0
  3
amgdt.shx
  4
extfont.shx
  0
STYLE
  2
YOKO
 70
     0
 40
0.0
 41
1.0
 50
0.0
 71
     0
 42
3.0
  3
romans.shx
  4
extfont.shx
  0
STYLE
  2

 70
     1
 40
0.0
 41
1.0
 50
0.0
 71
     0
 42
2.799999999999998
  3
genltshp.shx
  4

  0
ENDTAB
  0
TABLE
  2
VIEW
 70
     0
  0
ENDTAB
  0
TABLE
  2
UCS
 70
     0
  0
ENDTAB
  0
TABLE
  2
APPID
 70
    43
  0
APPID
  2
ACAD
 70
     0
  0
APPID
  2
GLOBAL
 70
     0
  0
APPID
  2
DETAIL
 70
     0
  0
APPID
  2
GRPNAME
 70
     0
  0
APPID
  2
GPARA
 70
     0
  0
APPID
  2
MCAD_NO_VIS
 70
     0
  0
APPID
  2
ACAD_TEMP_GRAPHIC
 70
     0
  0
APPID
  2
ACATTRIBSERVICES
 70
     0
  0
APPID
  2
GENIUS_GENSCREG_15
 70
     0
  0
APPID
  2
GENIUS_GENODEF_13
 70
     0
  0
APPID
  2
GENIUS_GENOBJ-N-SDF_13
 70
     0
  0
APPID
  2
GENIUS_GENREC_14
 70
     0
  0
APPID
  2
GENIUS_GENOBJ-N-REC_13
 70
     0
  0
APPID
  2
GENIUS_GENDIMSH_14
 70
     0
  0
APPID
  2
GENIUS_GENOBJ-N-DIM_13
 70
     0
  0
APPID
  2
GENIUS_GENDIM_13
 70
     0
  0
APPID
  2
GENIUS_GENDTOL_13
 70
     0
  0
APPID
  2
GENIUS_GENOLIS_13
 70
     0
  0
APPID
  2
GENIUS_GENOENT_13
 70
     0
  0
APPID
  2
GENIUS_GENOBJ-F-FEM_13
 70
     0
  0
APPID
  2
GENIUS_GENOREF_13
 70
     0
  0
APPID
  2
GENIUS_GEFFEM_13
 70
     0
  0
APPID
  2
GENIUS_GEFFEMP_13
 70
     0
  0
APPID
  2
AD_DRAW
 70
     0
  0
APPID
  2
DESIGNERASSEMBLIES
 70
     0
  0
APPID
  2
ACADM_DIM_EDIT
 70
     0
  0
APPID
  2
AMDT_DM_ADJ
 70
     0
  0
APPID
  2
ITEMNAME
 70
     0
  0
APPID
  2
GENIUS_GENOBJ-N-FIL_13
 70
     0
  0
APPID
  2
GENIUS_GENFIL_13
 70
     0
  0
APPID
  2
GENIUS_GENOBJ-N-CHA_13
 70
     0
  0
APPID
  2
ACAECLAYERSTANDARD
 70
     0
  0
APPID
  2
ACAD_NAV_VCDISPLAY
 70
     0
  0
APPID
  2
ACAD_DSTYLE_DIMJAG
 70
     0
  0
APPID
  2
ACAD_DSTYLE_DIMBREAK
 70
     0
  0
APPID
  2
ACAD_PSEXT
 70
     0
  0
APPID
  2
ACAD_EXEMPT_FROM_CAD_STANDARDS
 70
     0
  0
APPID
  2
ACAD_DSTYLE_DIMINSPECT
 70
     0
  0
APPID
  2
ACAD_MLEADERVER
 70
     0
  0
APPID
  2
ACAD_DSTYLE_DIMARC_LENGTH_
 70
     0
  0
APPID
  2
ACAD_DSTYLE_DIM_LINETYPE
 70
     0
  0
APPID
  2
ACAD_DSTYLE_DIM_EXT1_LINETYPE
 70
     0
  0
APPID
  2
ACAD_DSTYLE_DIM_EXT2_LINETYPE
 70
     0
  0
ENDTAB
  0
TABLE
  2
DIMSTYLE
 70
    29
  0
DIMSTYLE
  2
BIGT
 70
     0
  3

  4

  5
OPEN
  6

  7

 40
1.0
 41
2.2299999999999991
 42
0.5
 43
7.0
 44
1.0
 45
0.0
 46
0.0
 47
0.0
 48
0.01
140
2.7999999999999989
141
0.0
142
0.0
143
25.399999999999999
144
1.0
145
0.0
146
1.0
147
1.0
 71
     0
 72
     0
 73
     0
 74
     0
 75
     0
 76
     0
 77
     3
 78
     9
170
     0
171
     2
172
     1
173
     0
174
     1
175
     0
176
   256
177
   256
178
    40
  0
DIMSTYLE
  2
AM_ISO
 70
     0
  3

  4
"
  5

  6

  7

 40
1.0
 41
2.5
 42
1.0
 43
10.0
 44
1.0
 45
0.0
 46
0.0
 47
0.1
 48
0.1
140
3.5
141
0.0
142
0.0
143
0.0393701
144
1.0
145
0.0
146
0.71
147
1.5
 71
     0
 72
     0
 73
     0
 74
     0
 75
     0
 76
     0
 77
     1
 78
     8
170
     0
171
     2
172
     1
173
     0
174
     0
175
     0
176
   256
177
   256
178
     2
  0
DIMSTYLE
  2
AM_ISO$3
 70
     0
  3

  4
"
  5

  6

  7

 40
1.0
 41
2.5
 42
1.0
 43
10.0
 44
1.0
 45
0.0
 46
0.0
 47
0.1
 48
0.1
140
3.5
141
0.0
142
0.0
143
0.0393701
144
1.0
145
0.0
146
0.71
147
1.5
 71
     0
 72
     0
 73
     0
 74
     1
 75
     0
 76
     0
 77
     1
 78
     8
170
     0
171
     2
172
     0
173
     0
174
     0
175
     0
176
   256
177
   256
178
     2
  0
DIMSTYLE
  2
AM_ISO$4
 70
     0
  3

  4
"
  5

  6

  7

 40
1.0
 41
2.5
 42
1.0
 43
10.0
 44
1.0
 45
0.0
 46
0.0
 47
0.1
 48
0.1
140
3.5
141
0.0
142
0.0
143
0.0393701
144
1.0
145
0.0
146
0.71
147
1.5
 71
     0
 72
     0
 73
     0
 74
     1
 75
     0
 76
     0
 77
     1
 78
     8
170
     0
171
     2
172
     0
173
     0
174
     0
175
     0
176
   256
177
   256
178
     2
  0
DIMSTYLE
  2
AM_ISO$6
 70
     0
  3

  4
"
  5

  6

  7

 40
1.0
 41
2.5
 42
1.0
 43
10.0
 44
1.0
 45
0.0
 46
0.0
 47
0.1
 48
0.1
140
3.5
141
0.0
142
0.0
143
0.0393701
144
1.0
145
0.0
146
0.71
147
1.5
 71
     0
 72
     0
 73
     0
 74
     0
 75
     0
 76
     0
 77
     0
 78
     8
170
     0
171
     2
172
     1
173
     0
174
     0
175
     0
176
   256
177
   256
178
     2
  0
DIMSTYLE
  2
AM_ISO$7
 70
     0
  3

  4
"
  5

  6

  7

 40
1.0
 41
2.5
 42
1.0
 43
10.0
 44
1.0
 45
0.0
 46
0.0
 47
0.1
 48
0.1
140
5.0
141
0.0
142
0.0
143
0.0393701
144
1.0
145
0.0
146
0.71
147
1.5
 71
     0
 72
     0
 73
     0
 74
     0
 75
     0
 76
     0
 77
     1
 78
     8
170
     0
171
     2
172
     1
173
     0
174
     0
175
     0
176
   256
177
   256
178
     2
  0
DIMSTYLE
  2
AM_ISO$SF
 70
     0
  3

  4
"
  5

  6

  7

 40
1.0
 41
2.5
 42
1.0
 43
10.0
 44
1.0
 45
0.0
 46
0.0
 47
0.1
 48
0.1
140
3.5
141
0.0
142
0.0
143
0.0393701
144
1.0
145
0.0
146
0.71
147
1.5
 71
     0
 72
     0
 73
     0
 74
     0
 75
     1
 76
     1
 77
     1
 78
     8
170
     0
171
     2
172
     1
173
     0
174
     0
175
     0
176
   256
177
   256
178
     2
  0
DIMSTYLE
  2
AM_ISO$SH
 70
     0
  3

  4
"
  5

  6
GENAXEH
  7

 40
1.0
 41
2.5
 42
1.0
 43
10.0
 44
1.0
 45
0.0
 46
0.0
 47
0.1
 48
0.1
140
3.5
141
0.0
142
0.0
143
0.0393701
144
2.0
145
0.0
146
0.71
147
1.5
 71
     0
 72
     0
 73
     0
 74
     0
 75
     1
 76
     1
 77
     1
 78
     8
170
     0
171
     2
172
     1
173
     1
174
     0
175
     0
176
   256
177
   256
178
     2
  0
ENDTAB
  0
ENDSEC
  0
SECTION
  2
BLOCKS
  0
BLOCK
  8
0
  2
$MODEL_SPACE
 70
     0
 10
0.0
 20
0.0
 30
0.0
  3
$MODEL_SPACE
  1

  0
ENDBLK
  5
1C
  8
0
  0
BLOCK
 67
     1
  8
0
  2
$PAPER_SPACE
 70
     0
 10
0.0
 20
0.0
 30
0.0
  3
$PAPER_SPACE
  1

  0
ENDBLK
  5
19
 67
     1
  8
0
  0
BLOCK
  8
0
  2
_OPEN
 70
     0
 10
0.0
 20
0.0
 30
0.0
  3
_OPEN
  1

  0
LINE
  5
3E1A
  8
0
  6
BYBLOCK
 62
     0
 10
-1.0
 20
0.1666666666666666
 30
0.0
 11
0.0
 21
0.0
 31
0.0
  0
LINE
  5
3E1B
  8
0
  6
BYBLOCK
 62
     0
 10
-1.0
 20
-0.1666666666666666
 30
0.0
 11
0.0
 21
0.0
 31
0.0
  0
LINE
  5
3E1C
  8
0
  6
BYBLOCK
 62
     0
 10
0.0
 20
0.0
 30
0.0
 11
-1.0
 21
0.0
 31
0.0
  0
ENDBLK
  5
3E1D
  8
0
  0
BLOCK
  8
0
  2
GENAXEH
 70
     0
 10
0.0
 20
0.0
 30
0.0
  3
GENAXEH
  1

  0
LINE
  5
3E45
  8
0
 10
-1.0
 20
0.0
 30
0.0
 11
1.0
 21
0.0
 31
0.0
  0
ENDBLK
  5
3E46
  8
0
  0
ENDSEC
  0
SECTION
  2
ENTITIES
  0
LINE
  5
42C4
  8
240
  6
CONTINUOUS
 10
29.00000000000006
 20
52.500000000000412
 30
0.0
 11
29.00000000000006
 21
62.499999999999972
 31
0.0
  0
LINE
  5
42C5
  8
250
  6
CONTINUOUS
 10
-39.20135676606543
 20
-60.283382249222207
 30
0.0
 11
-66.134690099398753
 21
-60.283382249222207
 31
0.0
1001
ITEMNAME
1000
LNSP2
  0
LINE
  5
42C6
  8
240
  6
CONTINUOUS
 10
0.0000000000000021
 20
-62.500000000000412
 30
0.0
 11
-0.000000000000028
 21
-48.134252505009783
 31
0.0
  0
LINE
  5
42C7
  8
240
  6
CONTINUOUS
 10
-0.0000000000000787
 20
62.500000000000242
 30
0.0
 11
16.752404735808302
 21
62.500000000000021
 31
0.0
  0
LINE
  5
42C8
  8
241
  6
CONTINUOUS
 10
21.875000000000199
 20
58.499999999999801
 30
0.0
 11
21.874999999999801
 21
43.150898020782613
 31
0.0
  0
LINE
  5
42C9
  8
240
  6
CONTINUOUS
 10
23.24759526419157
 20
62.499999999999972
 30
0.0
 11
29.00000000000006
 21
62.499999999999972
 31
0.0
  0
LINE
  5
42CA
  8
240
  6
CONTINUOUS
 10
0.0000000000000021
 20
-62.500000000000412
 30
0.0
 11
16.752404735808302
 21
-62.500000000000071
 31
0.0
  0
LINE
  5
42CB
  8
240
  6
CONTINUOUS
 10
23.24759526419157
 20
-62.500000000000021
 30
0.0
 11
21.875000000000831
 21
-60.122595264193897
 31
0.0
  0
LINE
  5
42CC
  8
240
  6
CONTINUOUS
 10
18.124999999999911
 20
-60.122595264191361
 30
0.0
 11
16.752404735808302
 21
-62.500000000000071
 31
0.0
  0
LINE
  5
42CD
  8
240
  6
CONTINUOUS
 10
21.875000000000199
 20
-58.499999999999801
 30
0.0
 11
18.12500000000162
 21
-58.500000000000043
 31
0.0
  0
LINE
  5
42CE
  8
240
  6
CONTINUOUS
 10
23.24759526419157
 20
-62.500000000000021
 30
0.0
 11
29.000000000000139
 21
-62.49999999999995
 31
0.0
  0
LINE
  5
42CF
  8
240
  6
CONTINUOUS
 10
-62.999999999999901
 20
-44.97793987975902
 30
0.0
 11
-62.999999999999901
 21
44.977939879759091
 31
0.0
  0
LINE
  5
42D0
  8
240
  6
CONTINUOUS
 10
0.0000000000006439
 20
48.134252505009748
 30
0.0
 11
-62.999999999999901
 21
44.977939879759091
 31
0.0
  0
LINE
  5
42D1
  8
243
  6
HIDDEN2
 10
-51.000000000000192
 20
33.499999999999957
 30
0.0
 11
-51.000000000000263
 21
45.579142284568718
 31
0.0
  0
LINE
  5
42D2
  8
243
  6
HIDDEN2
 10
-43.999999999997797
 20
-45.929843687374422
 30
0.0
 11
-43.999999999998522
 21
-33.500000000000007
 31
0.0
  0
LINE
  5
42D3
  8
240
  6
CONTINUOUS
 10
0.0000000000006439
 20
48.134252505009748
 30
0.0
 11
-0.0000000000000787
 21
62.500000000000242
 31
0.0
  0
LINE
  5
42D4
  8
240
  6
CONTINUOUS
 10
-0.000000000000028
 20
-48.134252505009783
 30
0.0
 11
-62.999999999999901
 21
-44.97793987975902
 31
0.0
  0
LINE
  5
42D5
  8
241
  6
CONTINUOUS
 10
10.00000000000008
 20
39.499999999999922
 30
0.0
 11
29.000000000000139
 21
39.499999999999972
 31
0.0
  0
LINE
  5
42D6
  8
241
  6
CONTINUOUS
 10
4.999999999999968
 20
48.435524153249141
 30
0.0
 11
16.7524047358066
 21
48.435524153249361
 31
0.0
  0
LINE
  5
42D7
  8
241
  6
CONTINUOUS
 10
4.999999999999968
 20
48.435524153249141
 30
0.0
 11
5.0000000000000284
 21
44.499999999999908
 31
0.0
  0
ARC
  5
42D8
  8
241
  6
CONTINUOUS
 10
10.00000000000008
 20
44.499999999999908
 30
0.0
 40
5.0
 50
180.0
 51
270.0
  0
LINE
  5
42D9
  8
241
  6
CONTINUOUS
 10
16.752404735808302
 20
62.500000000001663
 30
0.0
 11
16.752404735808302
 21
48.435524153249361
 31
0.0
  0
LINE
  5
42DA
  8
241
  6
CONTINUOUS
 10
23.24759526419157
 20
62.500000000001613
 30
0.0
 11
23.24759526419157
 21
48.435524153249361
 31
0.0
  0
LINE
  5
42DB
  8
241
  6
CONTINUOUS
 10
23.24759526419157
 20
39.500000000000171
 30
0.0
 11
23.247595264191752
 21
-62.499999999999972
 31
0.0
  0
LINE
  5
42DC
  8
241
  6
CONTINUOUS
 10
18.12499999999946
 20
43.15089802078289
 30
0.0
 11
21.874999999999801
 21
43.150898020782613
 31
0.0
  0
LINE
  5
42DD
  8
241
  6
CONTINUOUS
 10
16.752404735808302
 20
48.435524153249361
 30
0.0
 11
18.1249999999994
 21
45.326332978763638
 31
0.0
  0
LINE
  5
42DE
  8
241
  6
CONTINUOUS
 10
21.874999999999801
 20
45.326332978763638
 30
0.0
 11
23.24759526419157
 21
48.435524153249183
 31
0.0
  0
LINE
  5
42DF
  8
241
  6
CONTINUOUS
 10
23.247595264196061
 20
48.435524153249361
 30
0.0
 11
29.000000000000028
 21
48.435524153249197
 31
0.0
  0
LINE
  5
42E0
  8
240
  6
CONTINUOUS
 10
18.125000000000011
 20
-60.122595264191759
 30
0.0
 11
18.12500000000162
 21
-58.500000000000043
 31
0.0
  0
LINE
  5
42E1
  8
241
  6
CONTINUOUS
 10
18.125000000000011
 20
58.499999999999943
 30
0.0
 11
18.12499999999946
 21
43.15089802078289
 31
0.0
  0
LINE
  5
42E2
  8
240
  6
CONTINUOUS
 10
21.875000000000831
 20
-60.122595264193897
 30
0.0
 11
21.87499999999833
 21
-58.500000000000043
 31
0.0
  0
LINE
  5
42E3
  8
241
  6
CONTINUOUS
 10
-0.0000000000000284
 20
-47.933851703406383
 30
0.0
 11
-0.0000000000000284
 21
48.134252505009719
 31
0.0
  0
LINE
  5
42E4
  8
240
  6
CONTINUOUS
 10
23.247595264191631
 20
62.500000000000021
 30
0.0
 11
21.875000000000881
 21
60.122595264193961
 31
0.0
  0
LINE
  5
42E5
  8
240
  6
CONTINUOUS
 10
18.124999999999972
 20
60.122595264191361
 30
0.0
 11
16.752404735808369
 21
62.500000000000071
 31
0.0
  0
LINE
  5
42E6
  8
240
  6
CONTINUOUS
 10
21.875000000000309
 20
58.499999999999801
 30
0.0
 11
18.12500000000168
 21
58.500000000000043
 31
0.0
  0
LINE
  5
42E7
  8
240
  6
CONTINUOUS
 10
18.125000000000082
 20
60.122595264191801
 30
0.0
 11
18.12500000000168
 21
58.500000000000043
 31
0.0
  0
LINE
  5
42E8
  8
240
  6
CONTINUOUS
 10
21.875000000000881
 20
60.122595264193961
 30
0.0
 11
21.87499999999838
 21
58.500000000000021
 31
0.0
  0
LINE
  5
42E9
  8
241
  6
CONTINUOUS
 10
21.875000000000028
 20
39.500000000000171
 30
0.0
 11
21.875000000000139
 21
-58.499999999999801
 31
0.0
  0
LINE
  5
42EA
  8
241
  6
CONTINUOUS
 10
18.125000000000082
 20
39.500000000000128
 30
0.0
 11
18.125000000000199
 21
-58.500000000000043
 31
0.0
  0
LINE
  5
42EB
  8
241
  6
CONTINUOUS
 10
16.752404735808302
 20
39.500000000000128
 30
0.0
 11
16.752404735808479
 21
-62.500000000000021
 31
0.0
  0
LINE
  5
42EC
  8
240
  6
CONTINUOUS
 10
29.000000000000139
 20
-62.49999999999995
 30
0.0
 11
29.000000000000171
 21
-52.499999999999993
 31
0.0
  0
TEXT
  5
42ED
  8
250
  6
CONTINUOUS
 10
-63.868023432732109
 20
-59.283382249222221
 30
0.0
 40
2.799999999999998
  1
HSK-A125
  7
YOKO
1001
ITEMNAME
1000
LNSP3
  0
POLYLINE
  5
42EE
  8
250
  6
CONTINUOUS
 66
     1
 10
0.0
 20
0.0
 30
0.0
1001
ACAD
1000
DSTYLE
1002
{
1070
    41
1040
2.0
1002
}
  0
VERTEX
  5
42EF
  8
250
  6
CONTINUOUS
 10
-32.282204286245992
 20
-48.299058608858793
 30
0.0
  0
VERTEX
  5
42F0
  8
250
  6
CONTINUOUS
 10
-39.20135676606543
 20
-60.283382249222207
 30
0.0
  0
SEQEND
  5
42F1
  8
250
  6
CONTINUOUS
  0
LINE
  5
42F2
  8
250
  6
CONTINUOUS
 10
-32.570879420840797
 20
-48.1323919421921
 30
0.0
 11
-31.282204286245989
 21
-46.567007801289897
 31
0.0
  0
LINE
  5
42F3
  8
250
  6
CONTINUOUS
 10
-31.993529151651181
 20
-48.46572527552545
 30
0.0
 11
-31.282204286245989
 21
-46.567007801289897
 31
0.0
  0
LINE
  5
42F4
  8
250
  6
CONTINUOUS
 10
-31.282204286245989
 20
-46.567007801289897
 30
0.0
 11
-32.282204286245992
 21
-48.299058608858793
 31
0.0
  0
LINE
  5
42F5
  8
247
  6
CONTINUOUS
 10
12.0
 20
-28.250000000070049
 30
0.0
 11
12.0
 21
-21.557692308030042
 31
0.0
  0
ARC
  5
42F6
  8
247
  6
CONTINUOUS
 10
10.25000000006998
 20
-28.250000000070049
 30
0.0
 40
1.7499999999299991
 50
180.0
 51
0.0
  0
ARC
  5
42F7
  8
247
  6
CONTINUOUS
 10
10.25000000007004
 20
-21.557692308030042
 30
0.0
 40
1.7499999999299991
 50
0.0
 51
180.0
  0
LINE
  5
42F8
  8
247
  6
CONTINUOUS
 10
8.5000000001400693
 20
-27.384615384720021
 30
0.0
 11
11.500000000020011
 21
-28.244851541962031
 31
0.0
  0
LINE
  5
42F9
  8
247
  6
CONTINUOUS
 10
9.9230769231600142
 20
-26.484983818335831
 30
0.0
 11
9.9230769231600142
 21
-27.792676125975859
 31
0.0
  0
ARC
  5
42FA
  8
247
  6
CONTINUOUS
 10
9.049598667702984
 20
-26.14514381608981
 30
0.0
 40
0.5538165441895349
 50
72.997889675292413
 51
172.92416621851351
  0
ARC
  5
42FB
  8
247
  6
CONTINUOUS
 10
8.9360330444658338
 20
-26.56687832302881
 30
0.0
 40
0.9904354236226808
 50
4.7429368522022131
 51
73.849226273266424
1001
GENIUS_GENOBJ-N-FIL_13
1002
{
1000
OWNER
1000
GEN
1002
}
1001
GENIUS_GENODEF_13
1002
{
1000
HIER
1070
     0
1002
}
1002
{
1000
MANEDIT
1070
     0
1002
}
1002
{
1000
NOSEL
1070
     0
1002
}
1002
{
1000
BEHIND
1070
     0
1002
}
1002
{
1000
OTHER
1070
     0
1002
}
1002
{
1000
REACTOR
1002
}
  0
LINE
  5
42FC
  8
247
  6
CONTINUOUS
 10
11.500000000020011
 20
-26.93715923432201
 30
0.0
 11
11.500000000020011
 21
-28.244851541962031
 31
0.0
  0
LINE
  5
42FD
  8
247
  6
CONTINUOUS
 10
8.5000000001400693
 20
-27.384615384720021
 30
0.0
 11
8.5000000001400693
 21
-26.07692307708
 31
0.0
  0
ARC
  5
42FE
  8
247
  6
CONTINUOUS
 10
10.4820242326656
 20
-26.560919636546959
 30
0.0
 40
0.5640818586791229
 50
65.990941652528889
 51
172.26344345906909
  0
ARC
  5
42FF
  8
247
  6
CONTINUOUS
 10
10.48742903918663
 20
-27.0382626853471
 30
0.0
 40
1.0176059446230981
 50
5.701985164256504
 51
77.277338436822205
1001
GENIUS_GENOBJ-N-FIL_13
1002
{
1000
OWNER
1000
GEN
1002
}
1001
GENIUS_GENODEF_13
1002
{
1000
HIER
1070
     0
1002
}
1002
{
1000
MANEDIT
1070
     0
1002
}
1002
{
1000
NOSEL
1070
     0
1002
}
1002
{
1000
BEHIND
1070
     0
1002
}
1002
{
1000
OTHER
1070
     0
1002
}
1002
{
1000
REACTOR
1002
}
  0
LINE
  5
4300
  8
247
  6
CONTINUOUS
 10
11.500000000020011
 20
-25.28331308054204
 30
0.0
 11
8.5000000001400693
 21
-24.42307692330003
 31
0.0
  0
LINE
  5
4301
  8
247
  6
CONTINUOUS
 10
8.5000000001400693
 20
-22.000000000319979
 30
0.0
 11
8.5000000001400693
 21
-22.565736619456569
 31
0.0
  0
LINE
  5
4302
  8
247
  6
CONTINUOUS
 10
11.500000000020011
 20
-23.4615384618
 30
0.0
 11
11.500000000020011
 21
-22.846153846440028
 31
0.0
  0
ARC
  5
4303
  8
247
  6
CONTINUOUS
 10
10.58328513597337
 20
-21.708791209122872
 30
0.0
 40
2.2526500823422122
 50
202.3594881415263
 51
254.99324854284609
  0
ARC
  5
4304
  8
247
  6
CONTINUOUS
 10
9.3083126551945341
 20
-22.37406947921324
 30
0.0
 40
0.8906723995727782
 50
94.994589319075374
 51
155.1663289573041
1001
GENIUS_GENOBJ-N-FIL_13
1002
{
1000
OWNER
1000
GEN
1002
}
1001
GENIUS_GENODEF_13
1002
{
1000
HIER
1070
     0
1002
}
1002
{
1000
MANEDIT
1070
     0
1002
}
1002
{
1000
NOSEL
1070
     0
1002
}
1002
{
1000
BEHIND
1070
     0
1002
}
1002
{
1000
OTHER
1070
     0
1002
}
1002
{
1000
REACTOR
1002
}
  0
ARC
  5
4305
  8
247
  6
CONTINUOUS
 10
10.16014588866779
 20
-23.226458886212569
 30
0.0
 40
1.392781735586712
 50
15.846096555780679
 51
82.325137004169122
  0
ARC
  5
4306
  8
247
  6
CONTINUOUS
 10
10.45924343152728
 20
-22.642212725840359
 30
0.0
 40
1.324563662670287
 50
249.7136016704969
 51
321.78874565640581
1001
GENIUS_GENOBJ-N-FIL_13
1002
{
1000
OWNER
1000
GEN
1002
}
1001
GENIUS_GENODEF_13
1002
{
1000
HIER
1070
     0
1002
}
1002
{
1000
MANEDIT
1070
     0
1002
}
1002
{
1000
NOSEL
1070
     0
1002
}
1002
{
1000
BEHIND
1070
     0
1002
}
1002
{
1000
OTHER
1070
     0
1002
}
1002
{
1000
REACTOR
1002
}
  0
LINE
  5
4307
  8
247
  6
CONTINUOUS
 10
10.34615384621998
 20
-22.538461538759972
 30
0.0
 11
10.34615384621998
 21
-21.846153846479972
 31
0.0
  0
LINE
  5
4308
  8
247
  6
CONTINUOUS
 10
8.500000000139952
 20
-28.250000000070049
 30
0.0
 11
8.500000000139952
 21
-27.576923077020052
 31
0.0
  0
LINE
  5
4309
  8
241
  6
CONTINUOUS
 10
29.000000000000249
 20
-52.5
 30
0.0
 11
29.000000000000039
 21
52.500000000000391
 31
0.0
  0
TEXT
  5
430A
  8
241
  6
CONTINUOUS
 10
-70.0
 20
91.0
 30
0.0
 40
5.0
  1
HSK-A125-MEGA1.000DPG-4.5
  7
YOKO
 11
-70.0
 21
91.0
 31
0.0
 73
     1
  0
LINE
  5
430B
  8
245
  6
CENTER2
 10
-66.010679551616363
 20
0.0
 30
0.0
 11
115.9116043841935
 21
0.0
 31
0.0
  0
LINE
  5
430C
  8
243
  6
HIDDEN2
 10
4.999999999999571
 20
-55.0
 30
0.0
 11
4.999999999999571
 21
-62.500000000000313
 31
0.0
  0
LINE
  5
430D
  8
243
  6
HIDDEN2
 10
4.999999999999571
 20
55.0
 30
0.0
 11
29.00000000000006
 21
55.0
 31
0.0
  0
LINE
  5
430E
  8
243
  6
HIDDEN2
 10
4.999999999999571
 20
-55.0
 30
0.0
 11
29.00000000000016
 21
-55.0
 31
0.0
  0
LINE
  5
430F
  8
243
  6
HIDDEN2
 10
-62.999999999999901
 20
33.499999999999872
 30
0.0
 11
-38.00205080756875
 21
33.50000000000005
 31
0.0
  0
LINE
  5
4310
  8
243
  6
HIDDEN2
 10
-12.87439318958363
 20
40.000000000000071
 30
0.0
 11
-34.249274057836203
 21
40.000000000000149
 31
0.0
  0
LINE
  5
4311
  8
243
  6
HIDDEN2
 10
-34.249274057836203
 20
40.000000000000149
 30
0.0
 11
-38.00205080756875
 21
33.50000000000005
 31
0.0
  0
ARC
  5
4312
  8
243
  6
HIDDEN2
 10
-12.87439318958369
 20
24.00000000000006
 30
0.0
 40
16.0
 50
36.423573642332038
 51
90.0
  0
LINE
  5
4313
  8
243
  6
HIDDEN2
 10
4.999999999999571
 20
55.0
 30
0.0
 11
4.999999999999571
 21
62.500000000000171
 31
0.0
  0
LINE
  5
4314
  8
243
  6
HIDDEN2
 10
-62.999999999999901
 20
-33.499999999999872
 30
0.0
 11
-38.00205080756875
 21
-33.50000000000005
 31
0.0
  0
LINE
  5
4315
  8
243
  6
HIDDEN2
 10
-12.87439318958363
 20
-40.000000000000071
 30
0.0
 11
-34.249274057836203
 21
-40.000000000000149
 31
0.0
  0
LINE
  5
4316
  8
243
  6
HIDDEN2
 10
-34.249274057836203
 20
-40.000000000000149
 30
0.0
 11
-38.00205080756875
 21
-33.50000000000005
 31
0.0
  0
ARC
  5
4317
  8
243
  6
HIDDEN2
 10
-12.87439318958369
 20
-24.00000000000006
 30
0.0
 40
16.0
 50
270.0
 51
323.57642635766808
  0
LINE
  5
433B
  8
240
  6
CONTINUOUS
 10
37.000000000000057
 20
52.499999999999808
 30
0.0
 11
29.00000000000006
 21
52.500000000000412
 31
0.0
  0
LINE
  5
433C
  8
240
  6
CONTINUOUS
 10
37.000000000000057
 20
52.499999999999808
 30
0.0
 11
37.000000000000057
 21
46.88894289594429
 31
0.0
  0
LINE
  5
433F
  8
240
  6
CONTINUOUS
 10
41.351918801226951
 20
-41.931121725329369
 30
0.0
 11
67.59999929090641
 21
-38.50000009269187
 31
0.0
  0
LINE
  5
4340
  8
241
  6
CONTINUOUS
 10
45.301368467727151
 20
-41.414853795067962
 30
0.0
 11
45.301368467772747
 21
41.414853795062093
 31
0.0
  0
LINE
  5
4341
  8
241
  6
CONTINUOUS
 10
46.49124554867052
 20
-41.259314307362963
 30
0.0
 11
46.491245548711653
 21
41.259314307357712
 31
0.0
  0
LINE
  5
4343
  8
240
  6
CONTINUOUS
 10
41.351918801226979
 20
41.93112172532944
 30
0.0
 11
67.599999290908741
 21
38.500000092691863
 31
0.0
  0
LINE
  5
434E
  8
240
  6
CONTINUOUS
 10
29.000000000000171
 20
-52.499999999999993
 30
0.0
 11
37.000000000000057
 21
-52.499999999999908
 31
0.0
  0
LINE
  5
434F
  8
240
  6
CONTINUOUS
 10
37.000000000000057
 20
-52.499999999999908
 30
0.0
 11
37.000000000000071
 21
-46.888942895944197
 31
0.0
  0
ARC
  5
4351
  8
240
  6
CONTINUOUS
 10
42.00000000000005
 20
46.88894289594429
 30
0.0
 40
5.0
 50
180.0
 51
262.55258314980603
1001
GENIUS_GENOBJ-N-FIL_13
1002
{
1000
OWNER
1000
GEN
1002
}
1001
GENIUS_GENODEF_13
1002
{
1000
HIER
1070
     0
1002
}
1002
{
1000
MANEDIT
1070
     0
1002
}
1002
{
1000
NOSEL
1070
     0
1002
}
1002
{
1000
BEHIND
1070
     0
1002
}
1002
{
1000
OTHER
1070
     0
1002
}
1002
{
1000
REACTOR
1002
}
  0
ARC
  5
4353
  8
240
  6
CONTINUOUS
 10
42.000000000000071
 20
-46.888942895944211
 30
0.0
 40
5.0
 50
97.447416850194429
 51
179.99999999999989
1001
GENIUS_GENODEF_13
1002
{
1000
HIER
1070
     0
1002
}
1002
{
1000
MANEDIT
1070
     0
1002
}
1002
{
1000
NOSEL
1070
     0
1002
}
1002
{
1000
BEHIND
1070
     0
1002
}
1002
{
1000
OTHER
1070
     0
1002
}
1002
{
1000
REACTOR
1002
}
1001
GENIUS_GENOBJ-N-FIL_13
1002
{
1000
OWNER
1000
GEN
1002
}
  0
LINE
  5
435B
  8
241
  6
CONTINUOUS
 10
37.000000000000057
 20
46.88894289594429
 30
0.0
 11
37.000000000000071
 21
-46.888942895944211
 31
0.0
  0
LINE
  5
43C1
  8
250
  6
CONTINUOUS
 10
137.65831354800179
 20
51.531850537300912
 30
0.0
 11
115.8583135480018
 21
51.531850537300912
 31
0.0
  0
LINE
  5
43C2
  8
250
  6
CONTINUOUS
 10
115.8583135480018
 20
51.531850537300912
 30
0.0
 11
89.655632061431987
 21
16.939356452543649
 31
0.0
  0
LINE
  5
43C3
  8
250
  6
CONTINUOUS
 10
89.655632061431987
 20
16.939356452543649
 30
0.0
 11
88.299999999999955
 21
15.16871766554684
 31
0.0
  0
LINE
  5
43C4
  8
250
  6
CONTINUOUS
 10
89.422523043838765
 20
17.117828798444439
 30
0.0
 11
88.299999999999955
 21
15.16871766554684
 31
0.0
  0
LINE
  5
43C5
  8
250
  6
CONTINUOUS
 10
88.299999999999955
 20
15.16871766554684
 30
0.0
 11
89.888741079025166
 21
16.76088410664287
 31
0.0
  0
LINE
  5
43C6
  8
250
  6
CONTINUOUS
 10
114.7999999999999
 20
12.700000144478979
 30
0.0
 11
136.2999999999999
 21
12.700000144478979
 31
0.0
  0
LINE
  5
43C7
  8
250
  6
CONTINUOUS
 10
114.7999999999999
 20
-12.700000144478979
 30
0.0
 11
136.2999999999999
 21
-12.70000014447899
 31
0.0
  0
LINE
  5
43C8
  8
250
  6
CONTINUOUS
 10
135.2999999999999
 20
12.700000144478979
 30
0.0
 11
135.2999999999999
 21
-12.70000014447899
 31
0.0
  0
TEXT
  5
43C9
  8
250
  6
CONTINUOUS
 10
134.44144108040919
 20
-7.4681785164577024
 30
0.0
 40
2.799999999999998
  1
\U+22051.000
 50
90.0
  0
LINE
  5
43CA
  8
250
  6
CONTINUOUS
 10
135.67166666666651
 20
-10.470000144478981
 30
0.0
 11
135.2999999999999
 21
-12.70000014447899
 31
0.0
  0
LINE
  5
43CB
  8
250
  6
CONTINUOUS
 10
134.92833333333331
 20
-10.470000144478981
 30
0.0
 11
135.2999999999999
 21
-12.70000014447899
 31
0.0
  0
LINE
  5
43CC
  8
250
  6
CONTINUOUS
 10
135.2999999999999
 20
-12.70000014447899
 30
0.0
 11
135.2999999999999
 21
-10.470000144478981
 31
0.0
  0
LINE
  5
43CD
  8
250
  6
CONTINUOUS
 10
134.92833333333331
 20
10.470000144478981
 30
0.0
 11
135.2999999999999
 21
12.700000144478979
 31
0.0
  0
LINE
  5
43CE
  8
250
  6
CONTINUOUS
 10
135.67166666666651
 20
10.470000144478981
 30
0.0
 11
135.2999999999999
 21
12.700000144478979
 31
0.0
  0
LINE
  5
43CF
  8
250
  6
CONTINUOUS
 10
135.2999999999999
 20
12.700000144478979
 30
0.0
 11
135.2999999999999
 21
10.470000144478981
 31
0.0
  0
LINE
  5
43D0
  8
240
  6
CONTINUOUS
 10
81.882353886326584
 20
35.350000144479061
 30
0.0
 11
86.600000000000165
 21
35.350000144479061
 31
0.0
  0
LINE
  5
43D1
  8
240
  6
CONTINUOUS
 10
88.099999999999241
 20
35.000000144479152
 30
0.0
 11
106.4683475024128
 21
35.000000144479152
 31
0.0
  0
LINE
  5
43D2
  8
240
  6
CONTINUOUS
 10
67.600000000000136
 20
38.50000009269187
 30
0.0
 11
77.754299461620334
 21
38.500000144479131
 31
0.0
  0
LINE
  5
43D3
  8
240
  6
CONTINUOUS
 10
113.4999999999997
 20
26.397481133553811
 30
0.0
 11
113.4999999999997
 21
22.39902114329492
 31
0.0
  0
ARC
  5
43D4
  8
240
  6
CONTINUOUS
 10
104.4999999999997
 20
26.397481133553811
 30
0.0
 40
9.0
 50
0.0
 51
59.999999999999069
1001
GENIUS_GENODEF_13
1002
{
1000
HIER
1070
     0
1002
}
1002
{
1000
MANEDIT
1070
     0
1002
}
1002
{
1000
NOSEL
1070
     0
1002
}
1002
{
1000
BEHIND
1070
     0
1002
}
1002
{
1000
OTHER
1070
     0
1002
}
1002
{
1000
REACTOR
1002
}
1001
GENIUS_GENOBJ-N-FIL_13
1002
{
1000
OWNER
1000
GEN
1002
}
  0
LINE
  5
43D5
  8
240
  6
CONTINUOUS
 10
106.7271665475152
 20
34.965925970768239
 30
0.0
 11
108.3388588562691
 21
34.534074318190051
 31
0.0
  0
ARC
  5
43D6
  8
240
  6
CONTINUOUS
 10
106.4683475024128
 20
34.000000144479152
 30
0.0
 40
1.0
 50
75.000000000005542
 51
90.0
1001
GENIUS_GENOBJ-N-FIL_13
1002
{
1000
OWNER
1000
GEN
1002
}
1001
GENIUS_GENODEF_13
1002
{
1000
HIER
1070
     0
1002
}
1002
{
1000
MANEDIT
1070
     0
1002
}
1002
{
1000
NOSEL
1070
     0
1002
}
1002
{
1000
BEHIND
1070
     0
1002
}
1002
{
1000
OTHER
1070
     0
1002
}
1002
{
1000
REACTOR
1002
}
  0
LINE
  5
43D7
  8
240
  6
CONTINUOUS
 10
108.5800398111667
 20
34.43417389568549
 30
0.0
 11
108.9999999999997
 21
34.191709767613702
 31
0.0
  0
ARC
  5
43D8
  8
240
  6
CONTINUOUS
 10
108.0800398111667
 20
33.568148491900963
 30
0.0
 40
1.0
 50
59.999999999999069
 51
74.99999999997857
1001
GENIUS_GENODEF_13
1002
{
1000
HIER
1070
     0
1002
}
1002
{
1000
MANEDIT
1070
     0
1002
}
1002
{
1000
NOSEL
1070
     0
1002
}
1002
{
1000
BEHIND
1070
     0
1002
}
1002
{
1000
OTHER
1070
     0
1002
}
1002
{
1000
REACTOR
1002
}
1001
GENIUS_GENOBJ-N-FIL_13
1002
{
1000
OWNER
1000
GEN
1002
}
  0
LINE
  5
43D9
  8
240
  6
CONTINUOUS
 10
79.486350269189444
 20
37.500000144479152
 30
0.0
 11
80.150303078757815
 21
36.350000144478869
 31
0.0
  0
ARC
  5
43DA
  8
240
  6
CONTINUOUS
 10
81.882353886326584
 20
37.350000144479047
 30
0.0
 40
2.0
 50
210.0000000000056
 51
270.0
1001
GENIUS_GENODEF_13
1002
{
1000
HIER
1070
     0
1002
}
1002
{
1000
MANEDIT
1070
     0
1002
}
1002
{
1000
NOSEL
1070
     0
1002
}
1002
{
1000
BEHIND
1070
     0
1002
}
1002
{
1000
OTHER
1070
     0
1002
}
1002
{
1000
REACTOR
1002
}
1001
GENIUS_GENOBJ-N-FIL_13
1002
{
1000
OWNER
1000
GEN
1002
}
  0
ARC
  5
43DB
  8
240
  6
CONTINUOUS
 10
77.754299461620334
 20
36.500000144479152
 30
0.0
 40
2.0
 50
29.999999999992411
 51
90.0
1001
GENIUS_GENOBJ-N-FIL_13
1002
{
1000
OWNER
1000
GEN
1002
}
1001
GENIUS_GENODEF_13
1002
{
1000
HIER
1070
     0
1002
}
1002
{
1000
MANEDIT
1070
     0
1002
}
1002
{
1000
NOSEL
1070
     0
1002
}
1002
{
1000
BEHIND
1070
     0
1002
}
1002
{
1000
OTHER
1070
     0
1002
}
1002
{
1000
REACTOR
1002
}
  0
LINE
  5
43DC
  8
243
  6
HIDDEN2
 10
59.300000000000168
 20
-12.700000144478979
 30
0.0
 11
114.3
 21
-12.700000144478979
 31
0.0
1001
GRPNAME
1000
PASTMD52
  0
LINE
  5
43DD
  8
241
  6
CONTINUOUS
 10
67.600000000000136
 20
-38.500000092691877
 30
0.0
 11
67.600000000000136
 21
38.500000092691877
 31
0.0
  0
LINE
  5
43DE
  8
240
  6
CONTINUOUS
 10
114.3
 20
22.39902114329492
 30
0.0
 11
114.3
 21
-22.39902114329492
 31
0.0
1001
GRPNAME
1000
PASTMD58
  0
LINE
  5
43DF
  8
240
  6
CONTINUOUS
 10
81.882353886326584
 20
-35.350000144479061
 30
0.0
 11
86.600000000000165
 21
-35.350000144479061
 31
0.0
  0
ARC
  5
43E0
  8
240
  6
CONTINUOUS
 10
81.882353886326584
 20
-37.350000144479047
 30
0.0
 40
2.0
 50
90.0
 51
149.99999999999321
1001
GENIUS_GENODEF_13
1002
{
1000
HIER
1070
     0
1002
}
1002
{
1000
MANEDIT
1070
     0
1002
}
1002
{
1000
NOSEL
1070
     0
1002
}
1002
{
1000
BEHIND
1070
     0
1002
}
1002
{
1000
OTHER
1070
     0
1002
}
1002
{
1000
REACTOR
1002
}
1001
GENIUS_GENOBJ-N-FIL_13
1002
{
1000
OWNER
1000
GEN
1002
}
  0
LINE
  5
43E1
  8
240
  6
CONTINUOUS
 10
88.099999999999241
 20
-35.000000144479152
 30
0.0
 11
106.4683475024128
 21
-35.000000144479152
 31
0.0
  0
LINE
  5
43E2
  8
240
  6
CONTINUOUS
 10
67.600000000000136
 20
-38.500000092691877
 30
0.0
 11
77.754299461620334
 21
-38.500000144479131
 31
0.0
  0
LINE
  5
43E3
  8
240
  6
CONTINUOUS
 10
113.4999999999997
 20
-26.397481133553811
 30
0.0
 11
113.4999999999997
 21
-22.39902114329492
 31
0.0
  0
LINE
  5
43E4
  8
241
  6
CONTINUOUS
 10
113.4999999999997
 20
-22.39902114329492
 30
0.0
 11
113.4999999999997
 21
22.39902114329492
 31
0.0
  0
ARC
  5
43E5
  8
240
  6
CONTINUOUS
 10
104.4999999999997
 20
-26.397481133553811
 30
0.0
 40
9.0
 50
299.99999999998778
 51
0.0
1001
GENIUS_GENODEF_13
1002
{
1000
HIER
1070
     0
1002
}
1002
{
1000
MANEDIT
1070
     0
1002
}
1002
{
1000
NOSEL
1070
     0
1002
}
1002
{
1000
BEHIND
1070
     0
1002
}
1002
{
1000
OTHER
1070
     0
1002
}
1002
{
1000
REACTOR
1002
}
1001
GENIUS_GENOBJ-N-FIL_13
1002
{
1000
OWNER
1000
GEN
1002
}
  0
LINE
  5
43E6
  8
240
  6
CONTINUOUS
 10
106.7271665475152
 20
-34.965925970768239
 30
0.0
 11
108.3388588562691
 21
-34.534074318190051
 31
0.0
  0
ARC
  5
43E7
  8
240
  6
CONTINUOUS
 10
106.4683475024128
 20
-34.000000144479152
 30
0.0
 40
1.0
 50
270.0
 51
284.99999999999449
1001
GENIUS_GENOBJ-N-FIL_13
1002
{
1000
OWNER
1000
GEN
1002
}
1001
GENIUS_GENODEF_13
1002
{
1000
HIER
1070
     0
1002
}
1002
{
1000
MANEDIT
1070
     0
1002
}
1002
{
1000
NOSEL
1070
     0
1002
}
1002
{
1000
BEHIND
1070
     0
1002
}
1002
{
1000
OTHER
1070
     0
1002
}
1002
{
1000
REACTOR
1002
}
  0
LINE
  5
43E8
  8
240
  6
CONTINUOUS
 10
108.5800398111667
 20
-34.43417389568549
 30
0.0
 11
108.9999999999997
 21
-34.191709767613702
 31
0.0
  0
ARC
  5
43E9
  8
240
  6
CONTINUOUS
 10
108.0800398111667
 20
-33.568148491900963
 30
0.0
 40
1.0
 50
285.00000000002137
 51
299.99999999998778
1001
GENIUS_GENODEF_13
1002
{
1000
HIER
1070
     0
1002
}
1002
{
1000
MANEDIT
1070
     0
1002
}
1002
{
1000
NOSEL
1070
     0
1002
}
1002
{
1000
BEHIND
1070
     0
1002
}
1002
{
1000
OTHER
1070
     0
1002
}
1002
{
1000
REACTOR
1002
}
1001
GENIUS_GENOBJ-N-FIL_13
1002
{
1000
OWNER
1000
GEN
1002
}
  0
LINE
  5
43EA
  8
240
  6
CONTINUOUS
 10
79.486350269189444
 20
-37.500000144479152
 30
0.0
 11
80.150303078757815
 21
-36.350000144478869
 31
0.0
  0
ARC
  5
43EB
  8
240
  6
CONTINUOUS
 10
77.754299461620334
 20
-36.500000144479152
 30
0.0
 40
2.0
 50
270.0
 51
330.00000000000108
1001
GENIUS_GENOBJ-N-FIL_13
1002
{
1000
OWNER
1000
GEN
1002
}
1001
GENIUS_GENODEF_13
1002
{
1000
HIER
1070
     0
1002
}
1002
{
1000
MANEDIT
1070
     0
1002
}
1002
{
1000
NOSEL
1070
     0
1002
}
1002
{
1000
BEHIND
1070
     0
1002
}
1002
{
1000
OTHER
1070
     0
1002
}
1002
{
1000
REACTOR
1002
}
  0
LINE
  5
43EC
  8
241
  6
CONTINUOUS
 10
78.908999999999864
 20
-37.632993306334583
 30
0.0
 11
78.908999999999864
 21
37.632993306334328
 31
0.0
  0
LINE
  5
43ED
  8
241
  6
CONTINUOUS
 10
86.600000000000165
 20
-35.350000144479061
 30
0.0
 11
86.600000000000165
 21
35.350000144479061
 31
0.0
  0
LINE
  5
43EE
  8
241
  6
CONTINUOUS
 10
106.60000000000061
 20
-34.491296073997077
 30
0.0
 11
106.60000000000061
 21
34.491296073997077
 31
0.0
  0
LINE
  5
43EF
  8
245
  6
CENTER2
 10
88.299999999999955
 20
8.4999999999999982
 30
0.0
 11
88.299999999999955
 21
16.966963765682959
 31
0.0
  0
LINE
  5
43F0
  8
240
  6
CONTINUOUS
 10
86.600000000000165
 20
-35.350000144479061
 30
0.0
 11
88.099999999999397
 21
-35.000000144479174
 31
0.0
  0
LINE
  5
43F1
  8
240
  6
CONTINUOUS
 10
88.099999999999724
 20
35.00000014447933
 30
0.0
 11
86.600000000000165
 21
35.350000144479061
 31
0.0
  0
TEXT
  5
43F2
  8
250
  6
CONTINUOUS
 10
117.0492711759351
 20
16.113517841677599
 30
0.0
 40
2.799999999999998
  1
Coolant
  7
YOKO
 11
117.0492711759351
 21
16.113517841677599
 31
0.0
 73
     1
  0
LINE
  5
43F3
  8
250
  6
CONTINUOUS
 10
130.57856228415471
 20
14.87166666666675
 30
0.0
 11
132.80856228415479
 21
14.50000000000008
 31
0.0
  0
LINE
  5
43F4
  8
250
  6
CONTINUOUS
 10
130.57856228415471
 20
14.12833333333341
 30
0.0
 11
132.80856228415479
 21
14.50000000000008
 31
0.0
  0
LINE
  5
43F5
  8
250
  6
CONTINUOUS
 10
132.80856228415479
 20
14.50000000000008
 30
0.0
 11
130.57856228415471
 21
14.50000000000008
 31
0.0
  0
LINE
  5
43F6
  8
250
  6
CONTINUOUS
 10
130.57856228415471
 20
14.50000000000008
 30
0.0
 11
117.299999999999
 21
14.50000000000008
 31
0.0
  0
LINE
  5
43F7
  8
250
  6
CONTINUOUS
 10
130.57856228415511
 20
-14.12833333333332
 30
0.0
 11
132.80856228415519
 21
-14.5
 31
0.0
  0
LINE
  5
43F8
  8
250
  6
CONTINUOUS
 10
130.57856228415511
 20
-14.871666666666661
 30
0.0
 11
132.80856228415519
 21
-14.5
 31
0.0
  0
LINE
  5
43F9
  8
250
  6
CONTINUOUS
 10
132.80856228415519
 20
-14.5
 30
0.0
 11
130.57856228415511
 21
-14.5
 31
0.0
  0
LINE
  5
43FA
  8
250
  6
CONTINUOUS
 10
130.57856228415511
 20
-14.5
 30
0.0
 11
117.2999999999995
 21
-14.5
 31
0.0
  0
TEXT
  5
43FB
  8
250
  6
CONTINUOUS
 10
116.8869008417919
 20
-19.31554567599937
 30
0.0
 40
2.799999999999998
  1
Coolant
  7
YOKO
 11
116.8869008417919
 21
-19.31554567599937
 31
0.0
 73
     1
  0
LINE
  5
43FC
  8
240
  6
CONTINUOUS
 10
113.4999999999997
 20
22.39902114329492
 30
0.0
 11
114.3
 21
22.39902114329492
 31
0.0
  0
LINE
  5
43FD
  8
240
  6
CONTINUOUS
 10
113.4999999999997
 20
-22.39902114329492
 30
0.0
 11
114.3
 21
-22.39902114329492
 31
0.0
  0
TEXT
  5
43FE
  8
250
  6
CONTINUOUS
 10
117.1258022834009
 20
52.640562806080197
 30
0.0
 40
3.0
  1
Key Grip
  7
YOKO
  0
LINE
  5
43FF
  8
243
  6
HIDDEN2
 10
96.000000000000924
 20
11.95449985552418
 30
0.0
 11
94.840499999991835
 21
10.79499985552296
 31
0.0
  0
LINE
  5
4400
  8
243
  6
HIDDEN2
 10
96.00000000000081
 20
12.39500000000576
 30
0.0
 11
96.000000000000924
 21
11.95449985552418
 31
0.0
  0
LINE
  5
4401
  8
243
  6
HIDDEN2
 10
81.759500000010576
 20
10.79499985551907
 30
0.0
 11
80.600000000000946
 21
11.95449985551963
 31
0.0
  0
LINE
  5
4402
  8
243
  6
HIDDEN2
 10
80.600000000000946
 20
11.95449985551963
 30
0.0
 11
80.600000000000705
 21
12.395000000000969
 31
0.0
  0
LINE
  5
4403
  8
243
  6
HIDDEN2
 10
81.759500000010576
 20
10.79499985551907
 30
0.0
 11
94.840499999991835
 21
10.79499985552296
 31
0.0
  0
LINE
  5
4404
  8
243
  6
HIDDEN2
 10
80.600000000000705
 20
12.395000000000969
 30
0.0
 11
96.00000000000081
 21
12.39500000000576
 31
0.0
  0
LINE
  5
4405
  8
243
  6
HIDDEN2
 10
83.299999999999955
 20
15.16871766554536
 30
0.0
 11
93.299999999999955
 21
15.16871766554832
 31
0.0
  0
LINE
  5
4406
  8
243
  6
HIDDEN2
 10
83.299999999999955
 20
15.16871766554536
 30
0.0
 11
83.300000000000779
 21
12.39500000000181
 31
0.0
  0
LINE
  5
4407
  8
243
  6
HIDDEN2
 10
93.300000000000736
 20
12.395000000005069
 30
0.0
 11
93.299999999999955
 21
15.16871766554832
 31
0.0
  0
LINE
  5
4408
  8
243
  6
HIDDEN2
 10
59.300000000000168
 20
12.70000014447897
 30
0.0
 11
114.3
 21
12.70000014447897
 31
0.0
1001
GRPNAME
1000
PASTMD52
  0
LINE
  5
440A
  8
250
  6
CONTINUOUS
 10
59.299999999999962
 20
13.20000014447897
 30
0.0
 11
59.299999999999969
 21
71.37706541481046
 31
0.0
  0
LINE
  5
440B
  8
250
  6
CONTINUOUS
 10
112.06999999999999
 20
70.37706541481046
 30
0.0
 11
59.299999999999969
 21
70.37706541481046
 31
0.0
  0
TEXT
  5
440D
  8
250
  6
CONTINUOUS
 10
79.884635858882518
 20
71.37706541481046
 30
0.0
 40
2.799999999999998
  1
2.165
  0
LINE
  5
440E
  8
250
  6
CONTINUOUS
 10
61.529999999999959
 20
70.00539874814379
 30
0.0
 11
59.299999999999969
 21
70.37706541481046
 31
0.0
  0
LINE
  5
440F
  8
250
  6
CONTINUOUS
 10
61.529999999999959
 20
70.748732081477129
 30
0.0
 11
59.299999999999969
 21
70.37706541481046
 31
0.0
  0
LINE
  5
4410
  8
250
  6
CONTINUOUS
 10
59.299999999999969
 20
70.37706541481046
 30
0.0
 11
61.529999999999959
 21
70.37706541481046
 31
0.0
  0
LINE
  5
4411
  8
250
  6
CONTINUOUS
 10
112.06999999999999
 20
70.748732081477129
 30
0.0
 11
114.3
 21
70.37706541481046
 31
0.0
  0
LINE
  5
4412
  8
250
  6
CONTINUOUS
 10
112.06999999999999
 20
70.00539874814379
 30
0.0
 11
114.3
 21
70.37706541481046
 31
0.0
  0
LINE
  5
4413
  8
250
  6
CONTINUOUS
 10
114.3
 20
70.37706541481046
 30
0.0
 11
112.06999999999999
 21
70.37706541481046
 31
0.0
  0
LINE
  5
4414
  8
250
  6
CONTINUOUS
 10
106.9683475024128
 20
35.000000144479152
 30
0.0
 11
143.88613601808419
 21
35.000000144479152
 31
0.0
  0
LINE
  5
4415
  8
250
  6
CONTINUOUS
 10
106.9683475024128
 20
-35.000000144479152
 30
0.0
 11
143.88613601808419
 21
-35.000000144479159
 31
0.0
  0
LINE
  5
4416
  8
250
  6
CONTINUOUS
 10
142.88613601808419
 20
32.770000144479148
 30
0.0
 11
142.88613601808419
 21
-32.770000144479162
 31
0.0
  0
TEXT
  5
4417
  8
250
  6
CONTINUOUS
 10
141.88613601808419
 20
-7.2666666666666524
 30
0.0
 40
2.799999999999998
  1
\U+22052.756
 50
90.0
  0
LINE
  5
4418
  8
250
  6
CONTINUOUS
 10
143.2578026847508
 20
-32.770000144479162
 30
0.0
 11
142.88613601808419
 21
-35.000000144479159
 31
0.0
  0
LINE
  5
4419
  8
250
  6
CONTINUOUS
 10
142.5144693514174
 20
-32.770000144479162
 30
0.0
 11
142.88613601808419
 21
-35.000000144479159
 31
0.0
  0
LINE
  5
441A
  8
250
  6
CONTINUOUS
 10
142.88613601808419
 20
-35.000000144479159
 30
0.0
 11
142.88613601808419
 21
-32.770000144479162
 31
0.0
  0
LINE
  5
441B
  8
250
  6
CONTINUOUS
 10
142.5144693514174
 20
32.770000144479148
 30
0.0
 11
142.88613601808419
 21
35.000000144479152
 31
0.0
  0
LINE
  5
441C
  8
250
  6
CONTINUOUS
 10
143.2578026847508
 20
32.770000144479148
 30
0.0
 11
142.88613601808419
 21
35.000000144479152
 31
0.0
  0
LINE
  5
441D
  8
250
  6
CONTINUOUS
 10
142.88613601808419
 20
35.000000144479152
 30
0.0
 11
142.88613601808419
 21
32.770000144479148
 31
0.0
  0
LINE
  5
4480
  8
250
  6
CONTINUOUS
 10
-0.0000000000000787
 20
63.000000000000242
 30
0.0
 11
-0.0000000000000778
 21
78.0
 31
0.0
  0
LINE
  5
4481
  8
250
  6
CONTINUOUS
 10
114.3
 20
22.89902114329492
 30
0.0
 11
114.3
 21
78.0
 31
0.0
  0
LINE
  5
4482
  8
250
  6
CONTINUOUS
 10
2.2299999999999218
 20
77.0
 30
0.0
 11
112.06999999999989
 21
77.0
 31
0.0
  0
TEXT
  5
4486
  8
250
  6
CONTINUOUS
 10
53.816666666666613
 20
78.000000000000014
 30
0.0
 40
2.7999999999999989
  1
4.500
  0
LINE
  5
4487
  8
250
  6
CONTINUOUS
 10
112.06999999999989
 20
77.371666666666655
 30
0.0
 11
114.3
 21
77.0
 31
0.0
  0
LINE
  5
4488
  8
250
  6
CONTINUOUS
 10
112.06999999999989
 20
76.62833333333333
 30
0.0
 11
114.3
 21
77.0
 31
0.0
  0
LINE
  5
4489
  8
250
  6
CONTINUOUS
 10
114.3
 20
77.0
 30
0.0
 11
112.06999999999989
 21
77.0
 31
0.0
  0
LINE
  5
448A
  8
250
  6
CONTINUOUS
 10
2.2299999999999218
 20
76.62833333333333
 30
0.0
 11
-0.0000000000000778
 21
77.0
 31
0.0
  0
LINE
  5
448B
  8
250
  6
CONTINUOUS
 10
2.2299999999999218
 20
77.371666666666655
 30
0.0
 11
-0.0000000000000778
 21
77.0
 31
0.0
  0
LINE
  5
448C
  8
250
  6
CONTINUOUS
 10
-0.0000000000000778
 20
77.0
 30
0.0
 11
2.2299999999999218
 21
77.0
 31
0.0
  0
VIEWPORT
  5
22
 67
     1
  8
0
 10
261.51769911504419
 20
148.5
 30
0.0
 40
523.0353982300885
 41
297.0
 68
     1
 69
     1
1001
ACAD
1000
MVIEW
1002
{
1070
    16
1010
0.0
1020
0.0
1030
0.0
1010
0.0
1020
0.0
1030
1.0
1040
0.0
1040
297.0
1040
261.51769911504419
1040
148.5
1040
50.0
1040
0.0
1040
0.0
1070
     0
1070
   100
1070
     1
1070
     1
1070
     0
1070
     0
1070
     0
1070
     0
1040
0.0
1040
0.0
1040
0.0
1040
1.0
1040
1.0
1040
10.0
1040
10.0
1070
     0
1002
{
1002
}
1002
}
1001
GENIUS_GENODEF_13
1002
{
1000
HIER
1070
     0
1002
}
1002
{
1000
MANEDIT
1070
     0
1002
}
1002
{
1000
NOSEL
1070
     0
1002
}
1002
{
1000
BEHIND
1070
     0
1002
}
1002
{
1000
OTHER
1070
     0
1002
}
1002
{
1000
REACTOR
1002
}
1001
GENIUS_GENOBJ-N-SDF_13
1002
{
1000
OWNER
1000
GEN
1002
}
1001
GENIUS_GENSCREG_15
1000
PF
1040
1.0
1000
DF
1040
1.0
1000
MIN
1011
0.0
1021
0.0
1031
0.0
1021
0.0
1031
0.0
1000
MAX
1011
523.0353982300885
1021
0.0
1031
0.0
1021
297.0
1031
0.0
1000
FLAGS
1070
     4
  0
ENDSEC
  0
EOF
