  0
SECTION
  2
HEADER
  9
$ACADVER
  1
AC1009
  9
$INSBASE
 10
0.0
 20
0.0
 30
0.0
  9
$EXTMIN
 10
-71.058850112672175
 20
-62.508315405585677
 30
-0.0015258207003583
  9
$EXTMAX
 10
164.02527652290229
 20
96.016197706358525
 30
0.0000000349246037
  9
$LIMMIN
 10
0.0
 20
0.0
  9
$LIMMAX
 10
297.0
 20
210.0
  9
$ORTHOMODE
 70
     1
  9
$REGENMODE
 70
     1
  9
$FILLMODE
 70
     1
  9
$QTEXTMODE
 70
     0
  9
$MIRRTEXT
 70
     1
  9
$DRAGMODE
 70
     2
  9
$LTSCALE
 40
10.0
  9
$OSMODE
 70
    39
  9
$ATTMODE
 70
     1
  9
$TEXTSIZE
 40
3.0
  9
$TRACEWID
 40
1.0
  9
$TEXTSTYLE
  7
YOKO
  9
$CLAYER
  8
240
  9
$CELTYPE
  6
BYLAYER
  9
$CECOLOR
 62
   256
  9
$DIMSCALE
 40
1.0
  9
$DIMASZ
 40
2.2299999999999991
  9
$DIMEXO
 40
0.5
  9
$DIMDLI
 40
7.0
  9
$DIMRND
 40
0.0
  9
$DIMDLE
 40
0.0
  9
$DIMEXE
 40
1.0
  9
$DIMTP
 40
0.0
  9
$DIMTM
 40
0.01
  9
$DIMTXT
 40
2.7999999999999989
  9
$DIMCEN
 40
0.0
  9
$DIMTSZ
 40
0.0
  9
$DIMTOL
 70
     0
  9
$DIMLIM
 70
     0
  9
$DIMTIH
 70
     0
  9
$DIMTOH
 70
     0
  9
$DIMSE1
 70
     0
  9
$DIMSE2
 70
     0
  9
$DIMTAD
 70
     3
  9
$DIMZIN
 70
     9
  9
$DIMBLK
  1
OPEN
  9
$DIMASO
 70
     1
  9
$DIMSHO
 70
     1
  9
$DIMPOST
  1

  9
$DIMAPOST
  1

  9
$DIMALT
 70
     0
  9
$DIMALTD
 70
     2
  9
$DIMALTF
 40
25.399999999999999
  9
$DIMLFAC
 40
1.0
  9
$DIMTOFL
 70
     1
  9
$DIMTVP
 40
0.0
  9
$DIMTIX
 70
     1
  9
$DIMSOXD
 70
     0
  9
$DIMSAH
 70
     0
  9
$DIMBLK1
  1

  9
$DIMBLK2
  1

  9
$DIMSTYLE
  2
BIGT
  9
$DIMCLRD
 70
   256
  9
$DIMCLRE
 70
   256
  9
$DIMCLRT
 70
    40
  9
$DIMTFAC
 40
1.0
  9
$DIMGAP
 40
1.0
  9
$LUNITS
 70
     2
  9
$LUPREC
 70
     6
  9
$SKETCHINC
 40
1.0
  9
$FILLETRAD
 40
5.0
  9
$AUNITS
 70
     0
  9
$AUPREC
 70
     6
  9
$MENU
  1
.
  9
$ELEVATION
 40
0.0
  9
$PELEVATION
 40
0.0
  9
$THICKNESS
 40
0.0
  9
$LIMCHECK
 70
     0
  9
$BLIPMODE
 70
     0
  9
$CHAMFERA
 40
0.2
  9
$CHAMFERB
 40
0.2
  9
$SKPOLY
 70
     0
  9
$TDCREATE
 40
2457966.5832004859
  9
$TDUPDATE
 40
2457966.632227269
  9
$TDINDWG
 40
0.0074838426
  9
$TDUSRTIMER
 40
0.0074838194
  9
$USRTIMER
 70
     1
  9
$ANGBASE
 50
0.0
  9
$ANGDIR
 70
     0
  9
$PDMODE
 70
     1
  9
$PDSIZE
 40
0.0
  9
$PLINEWID
 40
0.0
  9
$COORDS
 70
     1
  9
$SPLFRAME
 70
     0
  9
$SPLINETYPE
 70
     6
  9
$SPLINESEGS
 70
     4
  9
$ATTDIA
 70
     1
  9
$ATTREQ
 70
     1
  9
$HANDLING
 70
     1
  9
$HANDSEED
  5
454C
  9
$SURFTAB1
 70
     6
  9
$SURFTAB2
 70
     6
  9
$SURFTYPE
 70
     6
  9
$SURFU
 70
     6
  9
$SURFV
 70
     6
  9
$UCSNAME
  2

  9
$UCSORG
 10
0.0
 20
0.0
 30
0.0
  9
$UCSXDIR
 10
1.0
 20
0.0
 30
0.0
  9
$UCSYDIR
 10
0.0
 20
1.0
 30
0.0
  9
$PUCSNAME
  2

  9
$PUCSORG
 10
0.0
 20
0.0
 30
0.0
  9
$PUCSXDIR
 10
1.0
 20
0.0
 30
0.0
  9
$PUCSYDIR
 10
0.0
 20
1.0
 30
0.0
  9
$USERI1
 70
     1
  9
$USERI2
 70
     0
  9
$USERI3
 70
     0
  9
$USERI4
 70
     0
  9
$USERI5
 70
     0
  9
$USERR1
 40
0.0
  9
$USERR2
 40
0.0
  9
$USERR3
 40
0.0
  9
$USERR4
 40
0.0
  9
$USERR5
 40
0.0
  9
$WORLDVIEW
 70
     1
  9
$SHADEDGE
 70
     3
  9
$SHADEDIF
 70
    70
  9
$TILEMODE
 70
     1
  9
$MAXACTVP
 70
    16
  9
$PLIMCHECK
 70
     0
  9
$PEXTMIN
 10
1.0000000000000000E+020
 20
1.0000000000000000E+020
 30
1.0000000000000000E+020
  9
$PEXTMAX
 10
-1.0000000000000000E+020
 20
-1.0000000000000000E+020
 30
-1.0000000000000000E+020
  9
$PLIMMIN
 10
0.0
 20
0.0
  9
$PLIMMAX
 10
420.0
 20
297.0
  9
$UNITMODE
 70
     0
  9
$VISRETAIN
 70
     1
  9
$PLINEGEN
 70
     0
  9
$PSLTSCALE
 70
     1
  0
ENDSEC
  0
SECTION
  2
TABLES
  0
TABLE
  2
VPORT
 70
     1
  0
VPORT
  2
*ACTIVE
 70
     0
 10
0.0
 20
0.0
 11
1.0
 21
1.0
 12
46.483213205115092
 22
16.75394115038641
 13
0.0
 23
0.0
 14
7.0
 24
7.0
 15
7.0
 25
7.0
 16
0.0
 26
0.0
 36
1.0
 17
0.0
 27
0.0
 37
0.0
 40
159.53744929796301
 41
1.521321961620469
 42
50.0
 43
0.0
 44
0.0
 50
0.0
 51
0.0
 71
     0
 72
  2000
 73
     1
 74
     0
 75
     0
 76
     1
 77
     0
 78
     0
  0
ENDTAB
  0
TABLE
  2
LTYPE
 70
    22
  0
LTYPE
  2
CONTINUOUS
 70
     0
  3
Solid line
 72
    65
 73
     0
 40
0.0
  0
LTYPE
  2
CENTER2
 70
     0
  3
___ _ ___ _ ___ _ ___ _ ___ _ ___ _ ___ _ ___ _
 72
    65
 73
     4
 40
1.125
 49
0.75
 49
-0.125
 49
0.125
 49
-0.125
  0
LTYPE
  2
HIDDEN2
 70
     0
  3
_ _ _ _ _ _ _ _ _ _ _ _ _ _ _ _ _ _ _ _ _ _ _ _
 72
    65
 73
     2
 40
0.1875
 49
0.125
 49
-0.0625
  0
LTYPE
  2
AM_ISO02W050
 70
     0
  3
__ __ __ __ __ __ __ __ __ __ __ __ __ __ __
 72
    65
 73
     2
 40
7.5
 49
6.0
 49
-1.5
  0
LTYPE
  2
AMCONSTR
 70
     0
  3
_______________________
 72
    65
 73
     2
 40
9999.0
 49
9999.0
 49
0.0
  0
LTYPE
  2
ACISOWELD
 70
     0
  3
_ _ _ _ _
 72
    65
 73
     2
 40
2.0
 49
2.0
 49
-1.0
  0
LTYPE
  2
ACISOTGB
 70
     0
  3
__ . . __ . .
 72
    65
 73
     6
 40
9.0
 49
4.0
 49
-1.0
 49
1.0
 49
-1.0
 49
1.0
 49
-1.0
  0
LTYPE
  2
ACISOTGL
 70
     0
  3
_ _ _ _ _
 72
    65
 73
     2
 40
3.0
 49
2.0
 49
-1.0
  0
LTYPE
  2
AM_ISO08W050
 70
     0
  3
____ . ____ . ____ . ____ . ____ . ____ . ____
 72
    65
 73
     4
 40
18.0
 49
12.0
 49
-1.5
 49
3.0
 49
-1.5
  0
LTYPE
  2
AM_ISO09W050
 70
     0
  3
_____ . . _____ . . _____ . . ____ .. ____
 72
    65
 73
     6
 40
22.5
 49
12.0
 49
-1.5
 49
3.0
 49
-1.5
 49
3.0
 49
-1.5
  0
LTYPE
  2
AM_ISO08W050X2
 70
     0
  3
__ . __ . __ . __ . __ . __
 72
    65
 73
     4
 40
9.0
 49
6.0
 49
-0.75
 49
1.5
 49
-0.75
  0
LTYPE
  2
AM_ISO02W050X2
 70
     0
  3
 _ _ _ _ _ _ _ _ _ _ _ _
 72
    65
 73
     2
 40
3.75
 49
3.0
 49
-0.75
  0
LTYPE
  2
AMZIGZAG
 70
     0
  3
/\/-/\/-/\/-/\/-/\/-/\/
 72
    65
 73
     2
 40
11.0001
 49
0.0001
 49
-11.0
  0
ENDTAB
  0
TABLE
  2
LAYER
 70
     8
  0
LAYER
  2
0
 70
     0
 62
     7
  6
CONTINUOUS
  0
LAYER
  2
DEFPOINTS
 70
     0
 62
     7
  6
CONTINUOUS
  0
LAYER
  2
245
 70
     0
 62
     2
  6
CENTER2
  0
LAYER
  2
240
 70
     0
 62
     4
  6
CONTINUOUS
  0
LAYER
  2
241
 70
     0
 62
   211
  6
CONTINUOUS
  0
LAYER
  2
243
 70
     0
 62
   211
  6
HIDDEN2
  0
LAYER
  2
247
 70
     0
 62
    60
  6
CONTINUOUS
  0
LAYER
  2
250
 70
     0
 62
     3
  6
CONTINUOUS
  0
ENDTAB
  0
TABLE
  2
STYLE
 70
     8
  0
STYLE
  2
STANDARD
 70
     0
 40
0.0
 41
1.0
 50
0.0
 71
     0
 42
3.0
  3
romans.shx
  4
extfont.shx
  0
STYLE
  2
ACISOGDT
 70
     0
 40
0.0
 41
1.0
 50
0.0
 71
     0
 42
3.0
  3
amgdt.shx
  4
extfont.shx
  0
STYLE
  2
YOKO
 70
     0
 40
0.0
 41
1.0
 50
0.0
 71
     0
 42
3.0
  3
romans.shx
  4
extfont.shx
  0
STYLE
  2

 70
     1
 40
0.0
 41
1.0
 50
0.0
 71
     0
 42
2.799999999999998
  3
genltshp.shx
  4

  0
ENDTAB
  0
TABLE
  2
VIEW
 70
     0
  0
ENDTAB
  0
TABLE
  2
UCS
 70
     0
  0
ENDTAB
  0
TABLE
  2
APPID
 70
    43
  0
APPID
  2
ACAD
 70
     0
  0
APPID
  2
GLOBAL
 70
     0
  0
APPID
  2
DETAIL
 70
     0
  0
APPID
  2
GRPNAME
 70
     0
  0
APPID
  2
GPARA
 70
     0
  0
APPID
  2
MCAD_NO_VIS
 70
     0
  0
APPID
  2
ACAD_TEMP_GRAPHIC
 70
     0
  0
APPID
  2
ACATTRIBSERVICES
 70
     0
  0
APPID
  2
GENIUS_GENSCREG_15
 70
     0
  0
APPID
  2
GENIUS_GENODEF_13
 70
     0
  0
APPID
  2
GENIUS_GENOBJ-N-SDF_13
 70
     0
  0
APPID
  2
GENIUS_GENREC_14
 70
     0
  0
APPID
  2
GENIUS_GENOBJ-N-REC_13
 70
     0
  0
APPID
  2
GENIUS_GENDIMSH_14
 70
     0
  0
APPID
  2
GENIUS_GENOBJ-N-DIM_13
 70
     0
  0
APPID
  2
GENIUS_GENDIM_13
 70
     0
  0
APPID
  2
GENIUS_GENDTOL_13
 70
     0
  0
APPID
  2
GENIUS_GENOLIS_13
 70
     0
  0
APPID
  2
GENIUS_GENOENT_13
 70
     0
  0
APPID
  2
GENIUS_GENOBJ-F-FEM_13
 70
     0
  0
APPID
  2
GENIUS_GENOREF_13
 70
     0
  0
APPID
  2
GENIUS_GEFFEM_13
 70
     0
  0
APPID
  2
GENIUS_GEFFEMP_13
 70
     0
  0
APPID
  2
AD_DRAW
 70
     0
  0
APPID
  2
DESIGNERASSEMBLIES
 70
     0
  0
APPID
  2
ACADM_DIM_EDIT
 70
     0
  0
APPID
  2
AMDT_DM_ADJ
 70
     0
  0
APPID
  2
ITEMNAME
 70
     0
  0
APPID
  2
GENIUS_GENOBJ-N-FIL_13
 70
     0
  0
APPID
  2
GENIUS_GENFIL_13
 70
     0
  0
APPID
  2
GENIUS_GENOBJ-N-CHA_13
 70
     0
  0
APPID
  2
ACAECLAYERSTANDARD
 70
     0
  0
APPID
  2
ACAD_NAV_VCDISPLAY
 70
     0
  0
APPID
  2
ACAD_DSTYLE_DIMJAG
 70
     0
  0
APPID
  2
ACAD_DSTYLE_DIMBREAK
 70
     0
  0
APPID
  2
ACAD_PSEXT
 70
     0
  0
APPID
  2
ACAD_DSTYLE_DIMINSPECT
 70
     0
  0
APPID
  2
ACAD_EXEMPT_FROM_CAD_STANDARDS
 70
     0
  0
APPID
  2
ACAD_MLEADERVER
 70
     0
  0
APPID
  2
ACAD_DSTYLE_DIMARC_LENGTH_
 70
     0
  0
APPID
  2
ACAD_DSTYLE_DIM_LINETYPE
 70
     0
  0
APPID
  2
ACAD_DSTYLE_DIM_EXT1_LINETYPE
 70
     0
  0
APPID
  2
ACAD_DSTYLE_DIM_EXT2_LINETYPE
 70
     0
  0
ENDTAB
  0
TABLE
  2
DIMSTYLE
 70
    30
  0
DIMSTYLE
  2
BIGT
 70
     0
  3

  4

  5
OPEN
  6

  7

 40
1.0
 41
2.2299999999999991
 42
0.5
 43
7.0
 44
1.0
 45
0.0
 46
0.0
 47
0.0
 48
0.01
140
2.7999999999999989
141
0.0
142
0.0
143
25.399999999999999
144
1.0
145
0.0
146
1.0
147
1.0
 71
     0
 72
     0
 73
     0
 74
     0
 75
     0
 76
     0
 77
     3
 78
     9
170
     0
171
     2
172
     1
173
     0
174
     1
175
     0
176
   256
177
   256
178
    40
  0
DIMSTYLE
  2
AM_ISO
 70
     0
  3

  4
"
  5

  6

  7

 40
1.0
 41
2.5
 42
1.0
 43
10.0
 44
1.0
 45
0.0
 46
0.0
 47
0.1
 48
0.1
140
3.5
141
0.0
142
0.0
143
0.0393701
144
1.0
145
0.0
146
0.71
147
1.5
 71
     0
 72
     0
 73
     0
 74
     0
 75
     0
 76
     0
 77
     1
 78
     8
170
     0
171
     2
172
     1
173
     0
174
     0
175
     0
176
   256
177
   256
178
     2
  0
DIMSTYLE
  2
AM_ISO$3
 70
     0
  3

  4
"
  5

  6

  7

 40
1.0
 41
2.5
 42
1.0
 43
10.0
 44
1.0
 45
0.0
 46
0.0
 47
0.1
 48
0.1
140
3.5
141
0.0
142
0.0
143
0.0393701
144
1.0
145
0.0
146
0.71
147
1.5
 71
     0
 72
     0
 73
     0
 74
     1
 75
     0
 76
     0
 77
     1
 78
     8
170
     0
171
     2
172
     0
173
     0
174
     0
175
     0
176
   256
177
   256
178
     2
  0
DIMSTYLE
  2
AM_ISO$4
 70
     0
  3

  4
"
  5

  6

  7

 40
1.0
 41
2.5
 42
1.0
 43
10.0
 44
1.0
 45
0.0
 46
0.0
 47
0.1
 48
0.1
140
3.5
141
0.0
142
0.0
143
0.0393701
144
1.0
145
0.0
146
0.71
147
1.5
 71
     0
 72
     0
 73
     0
 74
     1
 75
     0
 76
     0
 77
     1
 78
     8
170
     0
171
     2
172
     0
173
     0
174
     0
175
     0
176
   256
177
   256
178
     2
  0
DIMSTYLE
  2
AM_ISO$6
 70
     0
  3

  4
"
  5

  6

  7

 40
1.0
 41
2.5
 42
1.0
 43
10.0
 44
1.0
 45
0.0
 46
0.0
 47
0.1
 48
0.1
140
3.5
141
0.0
142
0.0
143
0.0393701
144
1.0
145
0.0
146
0.71
147
1.5
 71
     0
 72
     0
 73
     0
 74
     0
 75
     0
 76
     0
 77
     0
 78
     8
170
     0
171
     2
172
     1
173
     0
174
     0
175
     0
176
   256
177
   256
178
     2
  0
DIMSTYLE
  2
AM_ISO$7
 70
     0
  3

  4
"
  5

  6

  7

 40
1.0
 41
2.5
 42
1.0
 43
10.0
 44
1.0
 45
0.0
 46
0.0
 47
0.1
 48
0.1
140
5.0
141
0.0
142
0.0
143
0.0393701
144
1.0
145
0.0
146
0.71
147
1.5
 71
     0
 72
     0
 73
     0
 74
     0
 75
     0
 76
     0
 77
     1
 78
     8
170
     0
171
     2
172
     1
173
     0
174
     0
175
     0
176
   256
177
   256
178
     2
  0
DIMSTYLE
  2
AM_ISO$SF
 70
     0
  3

  4
"
  5

  6

  7

 40
1.0
 41
2.5
 42
1.0
 43
10.0
 44
1.0
 45
0.0
 46
0.0
 47
0.1
 48
0.1
140
3.5
141
0.0
142
0.0
143
0.0393701
144
1.0
145
0.0
146
0.71
147
1.5
 71
     0
 72
     0
 73
     0
 74
     0
 75
     1
 76
     1
 77
     1
 78
     8
170
     0
171
     2
172
     1
173
     0
174
     0
175
     0
176
   256
177
   256
178
     2
  0
DIMSTYLE
  2
AM_ISO$SH
 70
     0
  3

  4
"
  5

  6
GENAXEH
  7

 40
1.0
 41
2.5
 42
1.0
 43
10.0
 44
1.0
 45
0.0
 46
0.0
 47
0.1
 48
0.1
140
3.5
141
0.0
142
0.0
143
0.0393701
144
2.0
145
0.0
146
0.71
147
1.5
 71
     0
 72
     0
 73
     0
 74
     0
 75
     1
 76
     1
 77
     1
 78
     8
170
     0
171
     2
172
     1
173
     1
174
     0
175
     0
176
   256
177
   256
178
     2
  0
ENDTAB
  0
ENDSEC
  0
SECTION
  2
BLOCKS
  0
BLOCK
  8
0
  2
$MODEL_SPACE
 70
     0
 10
0.0
 20
0.0
 30
0.0
  3
$MODEL_SPACE
  1

  0
ENDBLK
  5
1C
  8
0
  0
BLOCK
 67
     1
  8
0
  2
$PAPER_SPACE
 70
     0
 10
0.0
 20
0.0
 30
0.0
  3
$PAPER_SPACE
  1

  0
ENDBLK
  5
19
 67
     1
  8
0
  0
BLOCK
  8
0
  2
_OPEN
 70
     0
 10
0.0
 20
0.0
 30
0.0
  3
_OPEN
  1

  0
LINE
  5
3E1A
  8
0
  6
BYBLOCK
 62
     0
 10
-1.0
 20
0.1666666666666666
 30
0.0
 11
0.0
 21
0.0
 31
0.0
  0
LINE
  5
3E1B
  8
0
  6
BYBLOCK
 62
     0
 10
-1.0
 20
-0.1666666666666666
 30
0.0
 11
0.0
 21
0.0
 31
0.0
  0
LINE
  5
3E1C
  8
0
  6
BYBLOCK
 62
     0
 10
0.0
 20
0.0
 30
0.0
 11
-1.0
 21
0.0
 31
0.0
  0
ENDBLK
  5
3E1D
  8
0
  0
BLOCK
  8
0
  2
GENAXEH
 70
     0
 10
0.0
 20
0.0
 30
0.0
  3
GENAXEH
  1

  0
LINE
  5
3E45
  8
0
 10
-1.0
 20
0.0
 30
0.0
 11
1.0
 21
0.0
 31
0.0
  0
ENDBLK
  5
3E46
  8
0
  0
BLOCK
  8
0
  2
*U4
 70
     1
 10
0.0
 20
0.0
 30
0.0
  3
*U4
  1

  0
TEXT
  5
434F
  8
250
 10
118.0
 20
-3.933333333333771
 30
0.0
 40
2.799999999999998
  1
\U+220516
 50
90.0
  0
ENDBLK
  5
4350
  8
0
  0
ENDSEC
  0
SECTION
  2
ENTITIES
  0
LINE
  5
42C6
  8
240
  6
CONTINUOUS
 10
29.00000000000006
 20
52.50000000000032
 30
0.0
 11
29.00000000000006
 21
62.499999999999972
 31
0.0
  0
LINE
  5
42C7
  8
250
  6
CONTINUOUS
 10
-39.20135676606543
 20
-60.283382249222207
 30
0.0
 11
-66.134690099398753
 21
-60.283382249222207
 31
0.0
1001
ITEMNAME
1000
LNSP2
  0
LINE
  5
42C8
  8
240
  6
CONTINUOUS
 10
0.0000000000000021
 20
-62.500000000000412
 30
0.0
 11
-0.000000000000028
 21
-48.134252505009783
 31
0.0
  0
LINE
  5
42C9
  8
240
  6
CONTINUOUS
 10
-0.0000000000000787
 20
62.500000000000242
 30
0.0
 11
16.752404735808302
 21
62.500000000000021
 31
0.0
  0
LINE
  5
42CA
  8
241
  6
CONTINUOUS
 10
21.875000000000199
 20
58.499999999999801
 30
0.0
 11
21.874999999999801
 21
43.150898020782613
 31
0.0
  0
LINE
  5
42CB
  8
240
  6
CONTINUOUS
 10
23.24759526419157
 20
62.499999999999972
 30
0.0
 11
29.00000000000006
 21
62.499999999999972
 31
0.0
  0
LINE
  5
42CC
  8
240
  6
CONTINUOUS
 10
0.0000000000000021
 20
-62.500000000000412
 30
0.0
 11
16.752404735808302
 21
-62.500000000000071
 31
0.0
  0
LINE
  5
42CD
  8
240
  6
CONTINUOUS
 10
23.24759526419157
 20
-62.500000000000021
 30
0.0
 11
21.875000000000831
 21
-60.122595264193897
 31
0.0
  0
LINE
  5
42CE
  8
240
  6
CONTINUOUS
 10
18.124999999999911
 20
-60.122595264191361
 30
0.0
 11
16.752404735808302
 21
-62.500000000000071
 31
0.0
  0
LINE
  5
42CF
  8
240
  6
CONTINUOUS
 10
21.875000000000199
 20
-58.499999999999801
 30
0.0
 11
18.12500000000162
 21
-58.500000000000043
 31
0.0
  0
LINE
  5
42D0
  8
240
  6
CONTINUOUS
 10
23.24759526419157
 20
-62.500000000000021
 30
0.0
 11
29.000000000000139
 21
-62.49999999999995
 31
0.0
  0
LINE
  5
42D1
  8
240
  6
CONTINUOUS
 10
-62.999999999999901
 20
-44.97793987975902
 30
0.0
 11
-62.999999999999901
 21
44.977939879759091
 31
0.0
  0
LINE
  5
42D2
  8
240
  6
CONTINUOUS
 10
0.0000000000006439
 20
48.134252505009748
 30
0.0
 11
-62.999999999999901
 21
44.977939879759091
 31
0.0
  0
LINE
  5
42D3
  8
243
  6
HIDDEN2
 10
-51.000000000000192
 20
33.499999999999957
 30
0.0
 11
-51.000000000000263
 21
45.579142284568718
 31
0.0
  0
LINE
  5
42D4
  8
243
  6
HIDDEN2
 10
-43.999999999997797
 20
-45.929843687374422
 30
0.0
 11
-43.999999999998522
 21
-33.500000000000007
 31
0.0
  0
LINE
  5
42D5
  8
240
  6
CONTINUOUS
 10
0.0000000000006439
 20
48.134252505009748
 30
0.0
 11
-0.0000000000000787
 21
62.500000000000242
 31
0.0
  0
LINE
  5
42D6
  8
240
  6
CONTINUOUS
 10
-0.000000000000028
 20
-48.134252505009783
 30
0.0
 11
-62.999999999999901
 21
-44.97793987975902
 31
0.0
  0
LINE
  5
42D7
  8
241
  6
CONTINUOUS
 10
10.00000000000008
 20
39.499999999999922
 30
0.0
 11
29.000000000000139
 21
39.499999999999972
 31
0.0
  0
LINE
  5
42D8
  8
241
  6
CONTINUOUS
 10
4.999999999999968
 20
48.435524153249141
 30
0.0
 11
16.7524047358066
 21
48.435524153249361
 31
0.0
  0
LINE
  5
42D9
  8
241
  6
CONTINUOUS
 10
4.999999999999968
 20
48.435524153249141
 30
0.0
 11
5.0000000000000284
 21
44.499999999999908
 31
0.0
  0
ARC
  5
42DA
  8
241
  6
CONTINUOUS
 10
10.00000000000008
 20
44.499999999999908
 30
0.0
 40
5.0
 50
180.0
 51
270.0
  0
LINE
  5
42DB
  8
241
  6
CONTINUOUS
 10
16.752404735808302
 20
62.500000000001663
 30
0.0
 11
16.752404735808302
 21
48.435524153249361
 31
0.0
  0
LINE
  5
42DC
  8
241
  6
CONTINUOUS
 10
23.24759526419157
 20
62.500000000001613
 30
0.0
 11
23.24759526419157
 21
48.435524153249361
 31
0.0
  0
LINE
  5
42DD
  8
241
  6
CONTINUOUS
 10
23.24759526419157
 20
39.500000000000171
 30
0.0
 11
23.247595264191752
 21
-62.499999999999972
 31
0.0
  0
LINE
  5
42DE
  8
241
  6
CONTINUOUS
 10
18.12499999999946
 20
43.15089802078289
 30
0.0
 11
21.874999999999801
 21
43.150898020782613
 31
0.0
  0
LINE
  5
42DF
  8
241
  6
CONTINUOUS
 10
16.752404735808302
 20
48.435524153249361
 30
0.0
 11
18.1249999999994
 21
45.326332978763638
 31
0.0
  0
LINE
  5
42E0
  8
241
  6
CONTINUOUS
 10
21.874999999999801
 20
45.326332978763638
 30
0.0
 11
23.24759526419157
 21
48.435524153249183
 31
0.0
  0
LINE
  5
42E1
  8
241
  6
CONTINUOUS
 10
23.247595264196061
 20
48.435524153249361
 30
0.0
 11
29.000000000000028
 21
48.435524153249197
 31
0.0
  0
LINE
  5
42E2
  8
240
  6
CONTINUOUS
 10
18.125000000000011
 20
-60.122595264191759
 30
0.0
 11
18.12500000000162
 21
-58.500000000000043
 31
0.0
  0
LINE
  5
42E3
  8
241
  6
CONTINUOUS
 10
18.125000000000011
 20
58.499999999999943
 30
0.0
 11
18.12499999999946
 21
43.15089802078289
 31
0.0
  0
LINE
  5
42E4
  8
240
  6
CONTINUOUS
 10
21.875000000000831
 20
-60.122595264193897
 30
0.0
 11
21.87499999999833
 21
-58.500000000000043
 31
0.0
  0
LINE
  5
42E5
  8
241
  6
CONTINUOUS
 10
-0.0000000000000284
 20
-47.933851703406383
 30
0.0
 11
-0.0000000000000284
 21
48.134252505009719
 31
0.0
  0
LINE
  5
42E6
  8
240
  6
CONTINUOUS
 10
23.247595264191631
 20
62.500000000000021
 30
0.0
 11
21.875000000000881
 21
60.122595264193961
 31
0.0
  0
LINE
  5
42E7
  8
240
  6
CONTINUOUS
 10
18.124999999999972
 20
60.122595264191361
 30
0.0
 11
16.752404735808369
 21
62.500000000000071
 31
0.0
  0
LINE
  5
42E8
  8
240
  6
CONTINUOUS
 10
21.875000000000309
 20
58.499999999999801
 30
0.0
 11
18.12500000000168
 21
58.500000000000043
 31
0.0
  0
LINE
  5
42E9
  8
240
  6
CONTINUOUS
 10
18.125000000000082
 20
60.122595264191801
 30
0.0
 11
18.12500000000168
 21
58.500000000000043
 31
0.0
  0
LINE
  5
42EA
  8
240
  6
CONTINUOUS
 10
21.875000000000881
 20
60.122595264193961
 30
0.0
 11
21.87499999999838
 21
58.500000000000021
 31
0.0
  0
LINE
  5
42EB
  8
241
  6
CONTINUOUS
 10
21.875000000000028
 20
39.500000000000171
 30
0.0
 11
21.875000000000139
 21
-58.499999999999801
 31
0.0
  0
LINE
  5
42EC
  8
241
  6
CONTINUOUS
 10
18.125000000000082
 20
39.500000000000128
 30
0.0
 11
18.125000000000199
 21
-58.500000000000043
 31
0.0
  0
LINE
  5
42ED
  8
241
  6
CONTINUOUS
 10
16.752404735808302
 20
39.500000000000128
 30
0.0
 11
16.752404735808479
 21
-62.500000000000021
 31
0.0
  0
LINE
  5
42EE
  8
240
  6
CONTINUOUS
 10
29.000000000000139
 20
-62.49999999999995
 30
0.0
 11
29.000000000000171
 21
-52.499999999999993
 31
0.0
  0
TEXT
  5
42EF
  8
250
  6
CONTINUOUS
 10
-63.868023432732109
 20
-59.283382249222221
 30
0.0
 40
2.799999999999998
  1
HSK-A125
  7
YOKO
1001
ITEMNAME
1000
LNSP3
  0
POLYLINE
  5
42F0
  8
250
  6
CONTINUOUS
 66
     1
 10
0.0
 20
0.0
 30
0.0
1001
ACAD
1000
DSTYLE
1002
{
1070
    41
1040
2.0
1002
}
  0
VERTEX
  5
42F1
  8
250
  6
CONTINUOUS
 10
-32.282204286245992
 20
-48.299058608858793
 30
0.0
  0
VERTEX
  5
42F2
  8
250
  6
CONTINUOUS
 10
-39.20135676606543
 20
-60.283382249222207
 30
0.0
  0
SEQEND
  5
42F3
  8
250
  6
CONTINUOUS
  0
LINE
  5
42F4
  8
250
  6
CONTINUOUS
 10
-32.570879420840797
 20
-48.1323919421921
 30
0.0
 11
-31.282204286245989
 21
-46.567007801289897
 31
0.0
  0
LINE
  5
42F5
  8
250
  6
CONTINUOUS
 10
-31.993529151651181
 20
-48.46572527552545
 30
0.0
 11
-31.282204286245989
 21
-46.567007801289897
 31
0.0
  0
LINE
  5
42F6
  8
250
  6
CONTINUOUS
 10
-31.282204286245989
 20
-46.567007801289897
 30
0.0
 11
-32.282204286245992
 21
-48.299058608858793
 31
0.0
  0
LINE
  5
42F7
  8
247
  6
CONTINUOUS
 10
12.0
 20
-28.250000000070049
 30
0.0
 11
12.0
 21
-21.557692308030042
 31
0.0
  0
ARC
  5
42F8
  8
247
  6
CONTINUOUS
 10
10.25000000006998
 20
-28.250000000070049
 30
0.0
 40
1.7499999999299991
 50
180.0
 51
0.0
  0
ARC
  5
42F9
  8
247
  6
CONTINUOUS
 10
10.25000000007004
 20
-21.557692308030042
 30
0.0
 40
1.7499999999299991
 50
0.0
 51
180.0
  0
LINE
  5
42FA
  8
247
  6
CONTINUOUS
 10
8.5000000001400693
 20
-27.384615384720021
 30
0.0
 11
11.500000000020011
 21
-28.244851541962031
 31
0.0
  0
LINE
  5
42FB
  8
247
  6
CONTINUOUS
 10
9.9230769231600142
 20
-26.484983818335831
 30
0.0
 11
9.9230769231600142
 21
-27.792676125975859
 31
0.0
  0
ARC
  5
42FC
  8
247
  6
CONTINUOUS
 10
9.049598667702984
 20
-26.14514381608981
 30
0.0
 40
0.5538165441895349
 50
72.997889675292413
 51
172.92416621851351
  0
ARC
  5
42FD
  8
247
  6
CONTINUOUS
 10
8.9360330444658338
 20
-26.56687832302881
 30
0.0
 40
0.9904354236226808
 50
4.7429368522022131
 51
73.849226273266424
1001
GENIUS_GENOBJ-N-FIL_13
1002
{
1000
OWNER
1000
GEN
1002
}
1001
GENIUS_GENODEF_13
1002
{
1000
HIER
1070
     0
1002
}
1002
{
1000
MANEDIT
1070
     0
1002
}
1002
{
1000
NOSEL
1070
     0
1002
}
1002
{
1000
BEHIND
1070
     0
1002
}
1002
{
1000
OTHER
1070
     0
1002
}
1002
{
1000
REACTOR
1002
}
  0
LINE
  5
42FE
  8
247
  6
CONTINUOUS
 10
11.500000000020011
 20
-26.93715923432201
 30
0.0
 11
11.500000000020011
 21
-28.244851541962031
 31
0.0
  0
LINE
  5
42FF
  8
247
  6
CONTINUOUS
 10
8.5000000001400693
 20
-27.384615384720021
 30
0.0
 11
8.5000000001400693
 21
-26.07692307708
 31
0.0
  0
ARC
  5
4300
  8
247
  6
CONTINUOUS
 10
10.4820242326656
 20
-26.560919636546959
 30
0.0
 40
0.5640818586791229
 50
65.990941652528889
 51
172.26344345906909
  0
ARC
  5
4301
  8
247
  6
CONTINUOUS
 10
10.48742903918663
 20
-27.0382626853471
 30
0.0
 40
1.0176059446230981
 50
5.701985164256504
 51
77.277338436822205
1001
GENIUS_GENOBJ-N-FIL_13
1002
{
1000
OWNER
1000
GEN
1002
}
1001
GENIUS_GENODEF_13
1002
{
1000
HIER
1070
     0
1002
}
1002
{
1000
MANEDIT
1070
     0
1002
}
1002
{
1000
NOSEL
1070
     0
1002
}
1002
{
1000
BEHIND
1070
     0
1002
}
1002
{
1000
OTHER
1070
     0
1002
}
1002
{
1000
REACTOR
1002
}
  0
LINE
  5
4302
  8
247
  6
CONTINUOUS
 10
11.500000000020011
 20
-25.28331308054204
 30
0.0
 11
8.5000000001400693
 21
-24.42307692330003
 31
0.0
  0
LINE
  5
4303
  8
247
  6
CONTINUOUS
 10
8.5000000001400693
 20
-22.000000000319979
 30
0.0
 11
8.5000000001400693
 21
-22.565736619456569
 31
0.0
  0
LINE
  5
4304
  8
247
  6
CONTINUOUS
 10
11.500000000020011
 20
-23.4615384618
 30
0.0
 11
11.500000000020011
 21
-22.846153846440028
 31
0.0
  0
ARC
  5
4305
  8
247
  6
CONTINUOUS
 10
10.58328513597337
 20
-21.708791209122872
 30
0.0
 40
2.2526500823422122
 50
202.3594881415263
 51
254.99324854284609
  0
ARC
  5
4306
  8
247
  6
CONTINUOUS
 10
9.3083126551945341
 20
-22.37406947921324
 30
0.0
 40
0.8906723995727782
 50
94.994589319075374
 51
155.1663289573041
1001
GENIUS_GENOBJ-N-FIL_13
1002
{
1000
OWNER
1000
GEN
1002
}
1001
GENIUS_GENODEF_13
1002
{
1000
HIER
1070
     0
1002
}
1002
{
1000
MANEDIT
1070
     0
1002
}
1002
{
1000
NOSEL
1070
     0
1002
}
1002
{
1000
BEHIND
1070
     0
1002
}
1002
{
1000
OTHER
1070
     0
1002
}
1002
{
1000
REACTOR
1002
}
  0
ARC
  5
4307
  8
247
  6
CONTINUOUS
 10
10.16014588866779
 20
-23.226458886212569
 30
0.0
 40
1.392781735586712
 50
15.846096555780679
 51
82.325137004169122
  0
ARC
  5
4308
  8
247
  6
CONTINUOUS
 10
10.45924343152728
 20
-22.642212725840359
 30
0.0
 40
1.324563662670287
 50
249.7136016704969
 51
321.78874565640581
1001
GENIUS_GENOBJ-N-FIL_13
1002
{
1000
OWNER
1000
GEN
1002
}
1001
GENIUS_GENODEF_13
1002
{
1000
HIER
1070
     0
1002
}
1002
{
1000
MANEDIT
1070
     0
1002
}
1002
{
1000
NOSEL
1070
     0
1002
}
1002
{
1000
BEHIND
1070
     0
1002
}
1002
{
1000
OTHER
1070
     0
1002
}
1002
{
1000
REACTOR
1002
}
  0
LINE
  5
4309
  8
247
  6
CONTINUOUS
 10
10.34615384621998
 20
-22.538461538759972
 30
0.0
 11
10.34615384621998
 21
-21.846153846479972
 31
0.0
  0
LINE
  5
430A
  8
247
  6
CONTINUOUS
 10
8.500000000139952
 20
-28.250000000070049
 30
0.0
 11
8.500000000139952
 21
-27.576923077020052
 31
0.0
  0
LINE
  5
430B
  8
241
  6
CONTINUOUS
 10
29.000000000000249
 20
-52.5
 30
0.0
 11
29.000000000000039
 21
52.500000000000391
 31
0.0
  0
TEXT
  5
430C
  8
241
  6
CONTINUOUS
 10
-71.999999999999687
 20
91.0
 30
0.0
 40
5.0
  1
HSK-A125-MEGA16DPG-135
  7
YOKO
 11
-71.999999999999687
 21
91.0
 31
0.0
 73
     1
  0
LINE
  5
430D
  8
245
  6
CENTER2
 10
-66.010679551616363
 20
0.0
 30
0.0
 11
136.74498542233161
 21
0.0
 31
0.0
  0
LINE
  5
430E
  8
243
  6
HIDDEN2
 10
4.999999999999571
 20
-55.0
 30
0.0
 11
4.999999999999571
 21
-62.500000000000313
 31
0.0
  0
LINE
  5
430F
  8
243
  6
HIDDEN2
 10
4.999999999999571
 20
55.0
 30
0.0
 11
29.00000000000006
 21
55.0
 31
0.0
  0
LINE
  5
4310
  8
243
  6
HIDDEN2
 10
4.999999999999571
 20
-55.0
 30
0.0
 11
29.00000000000016
 21
-55.0
 31
0.0
  0
LINE
  5
4311
  8
243
  6
HIDDEN2
 10
-62.999999999999901
 20
33.499999999999872
 30
0.0
 11
-38.00205080756875
 21
33.50000000000005
 31
0.0
  0
LINE
  5
4312
  8
243
  6
HIDDEN2
 10
-12.87439318958363
 20
40.000000000000071
 30
0.0
 11
-34.249274057836203
 21
40.000000000000149
 31
0.0
  0
LINE
  5
4313
  8
243
  6
HIDDEN2
 10
-34.249274057836203
 20
40.000000000000149
 30
0.0
 11
-38.00205080756875
 21
33.50000000000005
 31
0.0
  0
ARC
  5
4314
  8
243
  6
HIDDEN2
 10
-12.87439318958369
 20
24.00000000000006
 30
0.0
 40
16.0
 50
36.423573642332038
 51
90.0
  0
LINE
  5
4315
  8
243
  6
HIDDEN2
 10
4.999999999999571
 20
55.0
 30
0.0
 11
4.999999999999571
 21
62.500000000000171
 31
0.0
  0
LINE
  5
4316
  8
243
  6
HIDDEN2
 10
-62.999999999999901
 20
-33.499999999999872
 30
0.0
 11
-38.00205080756875
 21
-33.50000000000005
 31
0.0
  0
LINE
  5
4317
  8
243
  6
HIDDEN2
 10
-12.87439318958363
 20
-40.000000000000071
 30
0.0
 11
-34.249274057836203
 21
-40.000000000000149
 31
0.0
  0
LINE
  5
4318
  8
243
  6
HIDDEN2
 10
-34.249274057836203
 20
-40.000000000000149
 30
0.0
 11
-38.00205080756875
 21
-33.50000000000005
 31
0.0
  0
ARC
  5
4319
  8
243
  6
HIDDEN2
 10
-12.87439318958369
 20
-24.00000000000006
 30
0.0
 40
16.0
 50
270.0
 51
323.57642635766808
  0
LINE
  5
4340
  8
240
  6
CONTINUOUS
 10
45.000000000000021
 20
52.499999999999758
 30
0.0
 11
29.00000000000006
 21
52.50000000000032
 31
0.0
  0
LINE
  5
4341
  8
240
  6
CONTINUOUS
 10
45.000000000000078
 20
-52.499999999999851
 30
0.0
 11
45.000000000000071
 21
-36.1495693378046
 31
0.0
  0
LINE
  5
4342
  8
240
  6
CONTINUOUS
 10
29.000000000000171
 20
-52.499999999999993
 30
0.0
 11
45.000000000000078
 21
-52.499999999999851
 31
0.0
  0
LINE
  5
4343
  8
240
  6
CONTINUOUS
 10
45.000000000000021
 20
52.499999999999758
 30
0.0
 11
45.000000000000021
 21
36.149569337804671
 31
0.0
  0
LINE
  5
4345
  8
241
  6
CONTINUOUS
 10
99.999999999999744
 20
-27.5000000000033
 30
0.0
 11
99.999999999999744
 21
27.50000000000335
 31
0.0
  0
LINE
  5
4349
  8
240
  6
CONTINUOUS
 10
49.637321521106273
 20
-31.162740253010611
 30
0.0
 11
99.999999999999744
 21
-27.5000000000033
 31
0.0
  0
LINE
  5
434B
  8
240
  6
CONTINUOUS
 10
49.63732152110623
 20
31.162740253010671
 30
0.0
 11
99.999999999999744
 21
27.500000000003361
 31
0.0
  0
LINE
  5
43A6
  8
250
  6
CONTINUOUS
 10
159.0867454926146
 20
36.562984090481649
 30
0.0
 11
137.79000941323531
 21
36.562984090481649
 31
0.0
  0
LINE
  5
43A7
  8
250
  6
CONTINUOUS
 10
137.79000941323531
 20
36.562984090481649
 30
0.0
 11
113.5449911901475
 21
11.32802777600573
 31
0.0
  0
LINE
  5
43A8
  8
250
  6
CONTINUOUS
 10
113.5449911901475
 20
11.32802777600574
 30
0.0
 11
111.9999999999979
 21
9.7199537035948875
 31
0.0
  0
LINE
  5
43A9
  8
250
  6
CONTINUOUS
 10
113.3332842231537
 20
11.531429724031939
 30
0.0
 11
111.9999999999979
 21
9.7199537035948875
 31
0.0
  0
LINE
  5
43AA
  8
250
  6
CONTINUOUS
 10
111.9999999999979
 20
9.7199537035948875
 30
0.0
 11
113.7566981571414
 21
11.12462582797953
 31
0.0
  0
LINE
  5
43AB
  8
250
  6
CONTINUOUS
 10
135.49999999999881
 20
8.0000000000004299
 30
0.0
 11
156.99999999999929
 21
8.0000000000004228
 31
0.0
  0
LINE
  5
43AC
  8
250
  6
CONTINUOUS
 10
135.49999999999881
 20
-8.0000000000004796
 30
0.0
 11
156.99999999999929
 21
-8.0000000000004832
 31
0.0
  0
LINE
  5
43AD
  8
250
  6
CONTINUOUS
 10
155.99999999999929
 20
5.770000000000425
 30
0.0
 11
155.99999999999929
 21
-5.7700000000004792
 31
0.0
  0
INSERT
  5
43AE
  8
250
  6
CONTINUOUS
  2
*U4
 10
36.681381561782558
 20
-0.6956890871216183
 30
0.0
  0
LINE
  5
43AF
  8
250
  6
CONTINUOUS
 10
155.62833333333259
 20
5.770000000000425
 30
0.0
 11
155.99999999999929
 21
8.0000000000004228
 31
0.0
  0
LINE
  5
43B0
  8
250
  6
CONTINUOUS
 10
156.3716666666659
 20
5.770000000000425
 30
0.0
 11
155.99999999999929
 21
8.0000000000004228
 31
0.0
  0
LINE
  5
43B1
  8
250
  6
CONTINUOUS
 10
155.99999999999929
 20
8.0000000000004228
 30
0.0
 11
155.99999999999929
 21
5.770000000000425
 31
0.0
  0
LINE
  5
43B2
  8
250
  6
CONTINUOUS
 10
156.3716666666659
 20
-5.7700000000004792
 30
0.0
 11
155.99999999999929
 21
-8.0000000000004814
 31
0.0
  0
LINE
  5
43B3
  8
250
  6
CONTINUOUS
 10
155.62833333333259
 20
-5.7700000000004792
 30
0.0
 11
155.99999999999929
 21
-8.0000000000004814
 31
0.0
  0
LINE
  5
43B4
  8
250
  6
CONTINUOUS
 10
155.99999999999929
 20
-8.0000000000004814
 30
0.0
 11
155.99999999999929
 21
-5.7700000000004792
 31
0.0
  0
LINE
  5
43B5
  8
250
  6
CONTINUOUS
 10
107.3126008396454
 20
27.50000000000043
 30
0.0
 11
163.99999999999929
 21
27.500000000000419
 31
0.0
  0
LINE
  5
43B6
  8
250
  6
CONTINUOUS
 10
107.3126008396454
 20
-27.500000000000369
 30
0.0
 11
163.99999999999929
 21
-27.500000000000391
 31
0.0
  0
LINE
  5
43B7
  8
250
  6
CONTINUOUS
 10
162.99999999999929
 20
25.270000000000419
 30
0.0
 11
162.99999999999929
 21
-25.27000000000038
 31
0.0
  0
TEXT
  5
43B8
  8
250
  6
CONTINUOUS
 10
161.99999999999929
 20
-3.9333333333332878
 30
0.0
 40
2.799999999999998
  1
\U+220555
 50
90.0
  0
LINE
  5
43B9
  8
250
  6
CONTINUOUS
 10
163.37166666666599
 20
-25.27000000000038
 30
0.0
 11
162.99999999999929
 21
-27.500000000000391
 31
0.0
  0
LINE
  5
43BA
  8
250
  6
CONTINUOUS
 10
162.62833333333259
 20
-25.27000000000038
 30
0.0
 11
162.99999999999929
 21
-27.500000000000391
 31
0.0
  0
LINE
  5
43BB
  8
250
  6
CONTINUOUS
 10
162.99999999999929
 20
-27.500000000000391
 30
0.0
 11
162.99999999999929
 21
-25.27000000000038
 31
0.0
  0
LINE
  5
43BC
  8
250
  6
CONTINUOUS
 10
162.62833333333259
 20
25.270000000000419
 30
0.0
 11
162.99999999999929
 21
27.500000000000419
 31
0.0
  0
LINE
  5
43BD
  8
250
  6
CONTINUOUS
 10
163.37166666666599
 20
25.270000000000419
 30
0.0
 11
162.99999999999929
 21
27.500000000000419
 31
0.0
  0
LINE
  5
43BE
  8
250
  6
CONTINUOUS
 10
162.99999999999929
 20
27.500000000000419
 30
0.0
 11
162.99999999999929
 21
25.270000000000419
 31
0.0
  0
LINE
  5
43BF
  8
240
  6
CONTINUOUS
 10
132.17645713530709
 20
21.827331844885489
 30
0.0
 11
128.05433309503019
 21
22.931851652578619
 31
0.0
1001
GRPNAME
1000
PASTMD1P
  0
ARC
  5
43C0
  8
240
  6
CONTINUOUS
 10
131.39999999999941
 20
18.92955436601866
 30
0.0
 40
3.0000000000000551
 50
359.99999997042738
 51
74.99999997044263
1001
GRPNAME
1000
PASTMD1P
  0
LINE
  5
43C1
  8
240
  6
CONTINUOUS
 10
134.39999999999941
 20
18.92955436601866
 30
0.0
 11
134.39999999999941
 21
15.87976951545833
 31
0.0
1001
GRPNAME
1000
PASTMD1P
  0
LINE
  5
43C2
  8
240
  6
CONTINUOUS
 10
117.9999999999997
 20
23.00000000000043
 30
0.0
 11
127.53669500482479
 21
23.00000000000043
 31
0.0
1001
GRPNAME
1000
PASTMD1P
  0
ARC
  5
43C3
  8
240
  6
CONTINUOUS
 10
127.53669500482479
 20
21.00000000000043
 30
0.0
 40
1.999999999999992
 50
74.999999948565673
 51
89.999999948567222
1001
GRPNAME
1000
PASTMD1P
  0
LINE
  5
43C4
  8
240
  6
CONTINUOUS
 10
111.2547005383791
 20
23.35000000000079
 30
0.0
 11
116.4999999999997
 21
23.35000000000079
 31
0.0
  0
LINE
  5
43C5
  8
240
  6
CONTINUOUS
 10
109.5226497308104
 20
24.350000000000438
 30
0.0
 11
108.28134665205221
 21
26.50000000000043
 31
0.0
  0
ARC
  5
43C6
  8
240
  6
CONTINUOUS
 10
111.2547005383791
 20
25.350000000000801
 30
0.0
 40
2.0
 50
210.00000000001171
 51
270.0
1001
GENIUS_GENODEF_13
1002
{
1000
HIER
1070
     0
1002
}
1002
{
1000
MANEDIT
1070
     0
1002
}
1002
{
1000
NOSEL
1070
     0
1002
}
1002
{
1000
BEHIND
1070
     0
1002
}
1002
{
1000
OTHER
1070
     0
1002
}
1002
{
1000
REACTOR
1002
}
1001
GENIUS_GENOBJ-N-FIL_13
1002
{
1000
OWNER
1000
GEN
1002
}
  0
ARC
  5
43C7
  8
240
  6
CONTINUOUS
 10
106.5492958444831
 20
25.50000000000043
 30
0.0
 40
2.0
 50
29.99999991771503
 51
75.000017600096314
  0
LINE
  5
43C8
  8
240
  6
CONTINUOUS
 10
107.0669339346879
 20
27.431851652577709
 30
0.0
 11
106.8126008396454
 21
27.50000000000043
 31
0.0
  0
LINE
  5
43C9
  8
240
  6
CONTINUOUS
 10
100.0000000000293
 20
27.50000000000043
 30
0.0
 11
106.8126008396454
 21
27.50000000000043
 31
0.0
  0
LINE
  5
43CA
  8
243
  6
HIDDEN2
 10
106.99999999999881
 20
6.2000000000007018
 30
0.0
 11
116.99999999999881
 21
6.2000000000007018
 31
0.0
  0
LINE
  5
43CB
  8
243
  6
HIDDEN2
 10
87.999999999999304
 20
8.0000000000004299
 30
0.0
 11
134.99999999999881
 21
8.0000000000004299
 31
0.0
  0
LINE
  5
43CC
  8
243
  6
HIDDEN2
 10
116.99999999999881
 20
6.2000000000020661
 30
0.0
 11
116.9772618181043
 21
6.2000000000020661
 31
0.0
  0
LINE
  5
43CD
  8
243
  6
HIDDEN2
 10
118.1999999999986
 20
7.4000000000027937
 30
0.0
 11
116.99999999999881
 21
6.2000000000020661
 31
0.0
  0
LINE
  5
43CE
  8
243
  6
HIDDEN2
 10
118.1999999999982
 20
7.7500000000031557
 30
0.0
 11
118.1999999999986
 21
7.4000000000027937
 31
0.0
  0
LINE
  5
43CF
  8
243
  6
HIDDEN2
 10
105.79999999999809
 20
7.3999999999991557
 30
0.0
 11
105.79999999999809
 21
7.7499999999995168
 31
0.0
  0
LINE
  5
43D0
  8
243
  6
HIDDEN2
 10
106.99999999999881
 20
6.199999999999334
 30
0.0
 11
105.79999999999809
 21
7.3999999999991557
 31
0.0
  0
LINE
  5
43D1
  8
243
  6
HIDDEN2
 10
118.1999999999982
 20
7.7500000000031557
 30
0.0
 11
105.79999999999809
 21
7.7499999999995168
 31
0.0
  0
LINE
  5
43D2
  8
243
  6
HIDDEN2
 10
115.9999999999979
 20
9.7199537035962482
 30
0.0
 11
107.9999999999979
 21
9.7199537035935215
 31
0.0
  0
LINE
  5
43D3
  8
243
  6
HIDDEN2
 10
115.9999999999979
 20
9.7199537035962482
 30
0.0
 11
115.9999999999979
 21
7.7500000000022471
 31
0.0
  0
LINE
  5
43D4
  8
243
  6
HIDDEN2
 10
107.9999999999979
 20
7.750000000000429
 30
0.0
 11
107.9999999999979
 21
9.7199537035935215
 31
0.0
  0
LINE
  5
43D5
  8
240
  6
CONTINUOUS
 10
132.17645713530709
 20
-21.827331844885901
 30
0.0
 11
128.05433309503019
 21
-22.931851652578558
 31
0.0
1001
GRPNAME
1000
PASTMD1P
  0
ARC
  5
43D6
  8
240
  6
CONTINUOUS
 10
131.39999999999941
 20
-18.9295543660186
 30
0.0
 40
3.0000000000000551
 50
285.00000002955647
 51
0.000000029572543
1001
GRPNAME
1000
PASTMD1P
  0
LINE
  5
43D7
  8
240
  6
CONTINUOUS
 10
134.39999999999941
 20
-18.9295543660186
 30
0.0
 11
134.39999999999941
 21
-15.87976951545747
 31
0.0
1001
GRPNAME
1000
PASTMD1P
  0
LINE
  5
43D8
  8
240
  6
CONTINUOUS
 10
117.9999999999997
 20
-23.000000000000369
 30
0.0
 11
127.53669500482479
 21
-23.000000000000369
 31
0.0
1001
GRPNAME
1000
PASTMD1P
  0
ARC
  5
43D9
  8
240
  6
CONTINUOUS
 10
127.53669500482479
 20
-21.000000000000369
 30
0.0
 40
1.999999999999992
 50
270.00000005143278
 51
285.00000005143431
1001
GRPNAME
1000
PASTMD1P
  0
LINE
  5
43DA
  8
240
  6
CONTINUOUS
 10
111.2547005383791
 20
-23.35000000000073
 30
0.0
 11
116.4999999999997
 21
-23.35000000000073
 31
0.0
  0
LINE
  5
43DB
  8
240
  6
CONTINUOUS
 10
109.5226497308104
 20
-24.350000000000382
 30
0.0
 11
108.28134665205221
 21
-26.500000000000369
 31
0.0
  0
ARC
  5
43DC
  8
240
  6
CONTINUOUS
 10
111.2547005383791
 20
-25.35000000000073
 30
0.0
 40
2.0
 50
90.0
 51
149.9999999999882
1001
GENIUS_GENOBJ-N-FIL_13
1002
{
1000
OWNER
1000
GEN
1002
}
1001
GENIUS_GENODEF_13
1002
{
1000
HIER
1070
     0
1002
}
1002
{
1000
MANEDIT
1070
     0
1002
}
1002
{
1000
NOSEL
1070
     0
1002
}
1002
{
1000
BEHIND
1070
     0
1002
}
1002
{
1000
OTHER
1070
     0
1002
}
1002
{
1000
REACTOR
1002
}
  0
ARC
  5
43DD
  8
240
  6
CONTINUOUS
 10
106.5492958444831
 20
-25.500000000000369
 30
0.0
 40
2.0
 50
284.99998239990367
 51
330.000000082285
  0
LINE
  5
43DE
  8
240
  6
CONTINUOUS
 10
107.0669339346879
 20
-27.431851652577649
 30
0.0
 11
106.8126008396454
 21
-27.500000000000369
 31
0.0
  0
LINE
  5
43DF
  8
240
  6
CONTINUOUS
 10
100.0000000000293
 20
-27.500000000000369
 30
0.0
 11
106.8126008396454
 21
-27.500000000000369
 31
0.0
  0
LINE
  5
43E0
  8
240
  6
CONTINUOUS
 10
134.99999999999881
 20
15.87976951545833
 30
0.0
 11
134.99999999999881
 21
-15.87976951545747
 31
0.0
1001
GRPNAME
1000
PASTMD1C
  0
LINE
  5
43E1
  8
243
  6
HIDDEN2
 10
87.999999999999304
 20
-8.0000000000004796
 30
0.0
 11
134.99999999999881
 21
-8.0000000000004796
 31
0.0
  0
LINE
  5
43E2
  8
241
  6
CONTINUOUS
 10
134.39999999999941
 20
-15.87976951545747
 30
0.0
 11
134.39999999999941
 21
15.87976951545833
 31
0.0
  0
LINE
  5
43E3
  8
241
  6
CONTINUOUS
 10
107.7039963828617
 20
-26.632993161856032
 30
0.0
 11
107.70399638286349
 21
26.632993161856099
 31
0.0
  0
LINE
  5
43E4
  8
241
  6
CONTINUOUS
 10
110.1866025403789
 20
-23.199999999999271
 30
0.0
 11
110.18660254037979
 21
23.199999999999338
 31
0.0
  0
LINE
  5
43E5
  8
241
  6
CONTINUOUS
 10
116.4999999999997
 20
-23.35000000000073
 30
0.0
 11
116.4999999999997
 21
23.35000000000079
 31
0.0
  0
LINE
  5
43E6
  8
241
  6
CONTINUOUS
 10
127.8000000000004
 20
-22.482591859036258
 30
0.0
 11
127.79999999999851
 21
22.482591859036319
 31
0.0
  0
LINE
  5
43E7
  8
245
  6
CENTER2
 10
111.99999999999859
 20
4.2000000000007001
 30
0.0
 11
111.99999999999859
 21
11.71995370359488
 31
0.0
  0
LINE
  5
43E8
  8
240
  6
CONTINUOUS
 10
116.4999999999997
 20
-23.35000000000073
 30
0.0
 11
117.9999999999997
 21
-23.000000000000369
 31
0.0
  0
LINE
  5
43E9
  8
240
  6
CONTINUOUS
 10
117.9999999999997
 20
23.00000000000043
 30
0.0
 11
116.4999999999997
 21
23.35000000000079
 31
0.0
  0
LINE
  5
43EA
  8
240
  6
CONTINUOUS
 10
134.39999999999941
 20
15.87976951545833
 30
0.0
 11
134.99999999999881
 21
15.87976951545833
 31
0.0
  0
LINE
  5
43EB
  8
240
  6
CONTINUOUS
 10
134.39999999999941
 20
-15.87976951545747
 30
0.0
 11
134.99999999999881
 21
-15.87976951545747
 31
0.0
  0
TEXT
  5
43EC
  8
250
  6
CONTINUOUS
 10
137.74927117593381
 20
11.61351784167803
 30
0.0
 40
2.799999999999998
  1
Coolant
  7
YOKO
 11
137.74927117593381
 21
11.61351784167803
 31
0.0
 73
     1
  0
LINE
  5
43ED
  8
250
  6
CONTINUOUS
 10
151.27856228415359
 20
10.371666666667149
 30
0.0
 11
153.5085622841535
 21
10.00000000000048
 31
0.0
  0
LINE
  5
43EE
  8
250
  6
CONTINUOUS
 10
151.27856228415359
 20
9.6283333333338135
 30
0.0
 11
153.5085622841535
 21
10.00000000000048
 31
0.0
  0
LINE
  5
43EF
  8
250
  6
CONTINUOUS
 10
153.5085622841535
 20
10.00000000000048
 30
0.0
 11
151.27856228415359
 21
10.00000000000048
 31
0.0
  0
LINE
  5
43F0
  8
250
  6
CONTINUOUS
 10
151.27856228415359
 20
10.00000000000048
 30
0.0
 11
137.9999999999979
 21
10.00000000000048
 31
0.0
  0
LINE
  5
43F1
  8
250
  6
CONTINUOUS
 10
151.27856228415399
 20
-9.6283333333328684
 30
0.0
 11
153.50856228415401
 21
-9.9999999999995364
 31
0.0
  0
LINE
  5
43F2
  8
250
  6
CONTINUOUS
 10
151.27856228415399
 20
-10.37166666666621
 30
0.0
 11
153.50856228415401
 21
-9.9999999999995364
 31
0.0
  0
LINE
  5
43F3
  8
250
  6
CONTINUOUS
 10
153.50856228415401
 20
-9.9999999999995364
 30
0.0
 11
151.27856228415399
 21
-9.9999999999995364
 31
0.0
  0
LINE
  5
43F4
  8
250
  6
CONTINUOUS
 10
151.27856228415399
 20
-9.9999999999995364
 30
0.0
 11
137.99999999999829
 21
-9.9999999999995364
 31
0.0
  0
TEXT
  5
43F5
  8
250
  6
CONTINUOUS
 10
137.58690084179091
 20
-14.81554567599891
 30
0.0
 40
2.799999999999998
  1
Coolant
  7
YOKO
 11
137.58690084179091
 21
-14.81554567599891
 31
0.0
 73
     1
  0
TEXT
  5
43F6
  8
250
  6
CONTINUOUS
 10
139.71185414512729
 20
37.802504410403031
 30
0.0
 40
3.0
  1
Key Grip
  7
YOKO
  0
ARC
  5
43FD
  8
240
  6
CONTINUOUS
 10
50.000000000000071
 20
-36.1495693378046
 30
0.0
 40
5.0
 50
94.159642293709098
 51
180.0
1001
GENIUS_GENODEF_13
1002
{
1000
HIER
1070
     0
1002
}
1002
{
1000
MANEDIT
1070
     0
1002
}
1002
{
1000
NOSEL
1070
     0
1002
}
1002
{
1000
BEHIND
1070
     0
1002
}
1002
{
1000
OTHER
1070
     0
1002
}
1002
{
1000
REACTOR
1002
}
1001
GENIUS_GENOBJ-N-FIL_13
1002
{
1000
OWNER
1000
GEN
1002
}
  0
ARC
  5
43FF
  8
240
  6
CONTINUOUS
 10
50.000000000000028
 20
36.149569337804671
 30
0.0
 40
5.0
 50
180.0
 51
265.84035770629089
1001
GENIUS_GENOBJ-N-FIL_13
1002
{
1000
OWNER
1000
GEN
1002
}
1001
GENIUS_GENODEF_13
1002
{
1000
HIER
1070
     0
1002
}
1002
{
1000
MANEDIT
1070
     0
1002
}
1002
{
1000
NOSEL
1070
     0
1002
}
1002
{
1000
BEHIND
1070
     0
1002
}
1002
{
1000
OTHER
1070
     0
1002
}
1002
{
1000
REACTOR
1002
}
  0
LINE
  5
4400
  8
241
  6
CONTINUOUS
 10
45.000000000000071
 20
-36.149569337804607
 30
0.0
 11
45.000000000000021
 21
36.149569337804671
 31
0.0
  0
LINE
  5
4430
  8
250
  6
CONTINUOUS
 10
-0.0000000000000787
 20
63.000000000000242
 30
0.0
 11
-0.0000000000000778
 21
78.0
 31
0.0
  0
LINE
  5
4431
  8
250
  6
CONTINUOUS
 10
134.99999999999881
 20
16.379769515458332
 30
0.0
 11
134.99999999999881
 21
78.0
 31
0.0
  0
LINE
  5
4432
  8
250
  6
CONTINUOUS
 10
2.2299999999999218
 20
77.0
 30
0.0
 11
132.76999999999879
 21
77.0
 31
0.0
  0
TEXT
  5
4436
  8
250
  6
CONTINUOUS
 10
63.299999999999372
 20
78.000000000000014
 30
0.0
 40
2.7999999999999989
  1
135
  0
LINE
  5
4437
  8
250
  6
CONTINUOUS
 10
132.76999999999879
 20
77.371666666666655
 30
0.0
 11
134.99999999999881
 21
77.0
 31
0.0
  0
LINE
  5
4438
  8
250
  6
CONTINUOUS
 10
132.76999999999879
 20
76.62833333333333
 30
0.0
 11
134.99999999999881
 21
77.0
 31
0.0
  0
LINE
  5
4439
  8
250
  6
CONTINUOUS
 10
134.99999999999881
 20
77.0
 30
0.0
 11
132.76999999999879
 21
77.0
 31
0.0
  0
LINE
  5
443A
  8
250
  6
CONTINUOUS
 10
2.2299999999999218
 20
76.62833333333333
 30
0.0
 11
-0.0000000000000778
 21
77.0
 31
0.0
  0
LINE
  5
443B
  8
250
  6
CONTINUOUS
 10
2.2299999999999218
 20
77.371666666666655
 30
0.0
 11
-0.0000000000000778
 21
77.0
 31
0.0
  0
LINE
  5
443C
  8
250
  6
CONTINUOUS
 10
-0.0000000000000778
 20
77.0
 30
0.0
 11
2.2299999999999218
 21
77.0
 31
0.0
  0
VIEWPORT
  5
22
 67
     1
  8
0
 10
261.51769911504419
 20
148.5
 30
0.0
 40
523.0353982300885
 41
297.0
 68
     1
 69
     1
1001
ACAD
1000
MVIEW
1002
{
1070
    16
1010
0.0
1020
0.0
1030
0.0
1010
0.0
1020
0.0
1030
1.0
1040
0.0
1040
297.0
1040
261.51769911504419
1040
148.5
1040
50.0
1040
0.0
1040
0.0
1070
     0
1070
   100
1070
     1
1070
     1
1070
     0
1070
     0
1070
     0
1070
     0
1040
0.0
1040
0.0
1040
0.0
1040
1.0
1040
1.0
1040
10.0
1040
10.0
1070
     0
1002
{
1002
}
1002
}
1001
GENIUS_GENODEF_13
1002
{
1000
HIER
1070
     0
1002
}
1002
{
1000
MANEDIT
1070
     0
1002
}
1002
{
1000
NOSEL
1070
     0
1002
}
1002
{
1000
BEHIND
1070
     0
1002
}
1002
{
1000
OTHER
1070
     0
1002
}
1002
{
1000
REACTOR
1002
}
1001
GENIUS_GENOBJ-N-SDF_13
1002
{
1000
OWNER
1000
GEN
1002
}
1001
GENIUS_GENSCREG_15
1000
PF
1040
1.0
1000
DF
1040
1.0
1000
MIN
1011
0.0
1021
0.0
1031
0.0
1021
0.0
1031
0.0
1000
MAX
1011
523.0353982300885
1021
0.0
1031
0.0
1021
297.0
1031
0.0
1000
FLAGS
1070
     4
  0
ENDSEC
  0
EOF
