  0
SECTION
  2
HEADER
  9
$ACADVER
  1
AC1009
  9
$INSBASE
 10
0.0
 20
0.0
 30
0.0
  9
$EXTMIN
 10
-71.047619047618738
 20
-62.500000000001663
 30
0.0
  9
$EXTMAX
 10
127.0
 20
96.000000000000028
 30
0.0
  9
$LIMMIN
 10
0.0
 20
0.0
  9
$LIMMAX
 10
297.0
 20
210.0
  9
$ORTHOMODE
 70
     1
  9
$REGENMODE
 70
     1
  9
$FILLMODE
 70
     1
  9
$QTEXTMODE
 70
     0
  9
$MIRRTEXT
 70
     1
  9
$DRAGMODE
 70
     2
  9
$LTSCALE
 40
10.0
  9
$OSMODE
 70
    37
  9
$ATTMODE
 70
     1
  9
$TEXTSIZE
 40
3.0
  9
$TRACEWID
 40
1.0
  9
$TEXTSTYLE
  7
YOKO
  9
$CLAYER
  8
241
  9
$CELTYPE
  6
BYLAYER
  9
$CECOLOR
 62
   256
  9
$DIMSCALE
 40
1.0
  9
$DIMASZ
 40
2.2299999999999991
  9
$DIMEXO
 40
0.5
  9
$DIMDLI
 40
7.0
  9
$DIMRND
 40
0.0
  9
$DIMDLE
 40
0.0
  9
$DIMEXE
 40
1.0
  9
$DIMTP
 40
0.0
  9
$DIMTM
 40
0.01
  9
$DIMTXT
 40
2.799999999999998
  9
$DIMCEN
 40
0.0
  9
$DIMTSZ
 40
0.0
  9
$DIMTOL
 70
     0
  9
$DIMLIM
 70
     0
  9
$DIMTIH
 70
     0
  9
$DIMTOH
 70
     0
  9
$DIMSE1
 70
     0
  9
$DIMSE2
 70
     0
  9
$DIMTAD
 70
     3
  9
$DIMZIN
 70
     9
  9
$DIMBLK
  1
OPEN
  9
$DIMASO
 70
     1
  9
$DIMSHO
 70
     1
  9
$DIMPOST
  1

  9
$DIMAPOST
  1

  9
$DIMALT
 70
     0
  9
$DIMALTD
 70
     2
  9
$DIMALTF
 40
25.399999999999999
  9
$DIMLFAC
 40
1.0
  9
$DIMTOFL
 70
     1
  9
$DIMTVP
 40
0.0
  9
$DIMTIX
 70
     1
  9
$DIMSOXD
 70
     0
  9
$DIMSAH
 70
     0
  9
$DIMBLK1
  1

  9
$DIMBLK2
  1

  9
$DIMSTYLE
  2
BIGT
  9
$DIMCLRD
 70
   256
  9
$DIMCLRE
 70
   256
  9
$DIMCLRT
 70
    40
  9
$DIMTFAC
 40
1.0
  9
$DIMGAP
 40
1.0
  9
$LUNITS
 70
     2
  9
$LUPREC
 70
     6
  9
$SKETCHINC
 40
1.0
  9
$FILLETRAD
 40
0.0
  9
$AUNITS
 70
     0
  9
$AUPREC
 70
     6
  9
$MENU
  1
.
  9
$ELEVATION
 40
0.0
  9
$PELEVATION
 40
0.0
  9
$THICKNESS
 40
0.0
  9
$LIMCHECK
 70
     0
  9
$BLIPMODE
 70
     0
  9
$CHAMFERA
 40
0.2
  9
$CHAMFERB
 40
0.2
  9
$SKPOLY
 70
     0
  9
$TDCREATE
 40
2457939.6522222571
  9
$TDUPDATE
 40
2458142.4869056372
  9
$TDINDWG
 40
0.0249305324
  9
$TDUSRTIMER
 40
0.0249304745
  9
$USRTIMER
 70
     1
  9
$ANGBASE
 50
0.0
  9
$ANGDIR
 70
     0
  9
$PDMODE
 70
     1
  9
$PDSIZE
 40
0.0
  9
$PLINEWID
 40
0.0
  9
$COORDS
 70
     1
  9
$SPLFRAME
 70
     0
  9
$SPLINETYPE
 70
     6
  9
$SPLINESEGS
 70
     4
  9
$ATTDIA
 70
     1
  9
$ATTREQ
 70
     1
  9
$HANDLING
 70
     1
  9
$HANDSEED
  5
4BF3
  9
$SURFTAB1
 70
     6
  9
$SURFTAB2
 70
     6
  9
$SURFTYPE
 70
     6
  9
$SURFU
 70
     6
  9
$SURFV
 70
     6
  9
$UCSNAME
  2

  9
$UCSORG
 10
0.0
 20
0.0
 30
0.0
  9
$UCSXDIR
 10
1.0
 20
0.0
 30
0.0
  9
$UCSYDIR
 10
0.0
 20
1.0
 30
0.0
  9
$PUCSNAME
  2

  9
$PUCSORG
 10
0.0
 20
0.0
 30
0.0
  9
$PUCSXDIR
 10
1.0
 20
0.0
 30
0.0
  9
$PUCSYDIR
 10
0.0
 20
1.0
 30
0.0
  9
$USERI1
 70
     1
  9
$USERI2
 70
     0
  9
$USERI3
 70
     0
  9
$USERI4
 70
     0
  9
$USERI5
 70
     0
  9
$USERR1
 40
0.0
  9
$USERR2
 40
0.0
  9
$USERR3
 40
0.0
  9
$USERR4
 40
0.0
  9
$USERR5
 40
0.0
  9
$WORLDVIEW
 70
     1
  9
$SHADEDGE
 70
     3
  9
$SHADEDIF
 70
    70
  9
$TILEMODE
 70
     1
  9
$MAXACTVP
 70
    16
  9
$PLIMCHECK
 70
     0
  9
$PEXTMIN
 10
1.0000000000000000E+020
 20
1.0000000000000000E+020
 30
1.0000000000000000E+020
  9
$PEXTMAX
 10
-1.0000000000000000E+020
 20
-1.0000000000000000E+020
 30
-1.0000000000000000E+020
  9
$PLIMMIN
 10
0.0
 20
0.0
  9
$PLIMMAX
 10
420.0
 20
297.0
  9
$UNITMODE
 70
     0
  9
$VISRETAIN
 70
     1
  9
$PLINEGEN
 70
     0
  9
$PSLTSCALE
 70
     1
  0
ENDSEC
  0
SECTION
  2
TABLES
  0
TABLE
  2
VPORT
 70
     1
  0
VPORT
  2
*ACTIVE
 70
     0
 10
0.0
 20
0.0
 11
1.0
 21
1.0
 12
13.99592699348022
 22
10.83552327025383
 13
0.0
 23
0.0
 14
7.0
 24
7.0
 15
7.0
 25
7.0
 16
0.0
 26
0.0
 36
1.0
 17
0.0
 27
0.0
 37
0.0
 40
255.28801304736331
 41
1.4533622559652919
 42
50.0
 43
0.0
 44
0.0
 50
0.0
 51
0.0
 71
     0
 72
  2000
 73
     1
 74
     0
 75
     0
 76
     1
 77
     0
 78
     0
  0
ENDTAB
  0
TABLE
  2
LTYPE
 70
    17
  0
LTYPE
  2
CONTINUOUS
 70
     0
  3
Solid line
 72
    65
 73
     0
 40
0.0
  0
LTYPE
  2
CENTER2
 70
     0
  3
___ _ ___ _ ___ _ ___ _ ___ _ ___ _ ___ _ ___ _
 72
    65
 73
     4
 40
1.125
 49
0.75
 49
-0.125
 49
0.125
 49
-0.125
  0
LTYPE
  2
HIDDEN2
 70
     0
  3
_ _ _ _ _ _ _ _ _ _ _ _ _ _ _ _ _ _ _ _ _ _ _ _
 72
    65
 73
     2
 40
0.1875
 49
0.125
 49
-0.0625
  0
LTYPE
  2
AMCONSTR
 70
     0
  3
_______________________
 72
    65
 73
     2
 40
9999.0
 49
9999.0
 49
0.0
  0
LTYPE
  2
HIDDEN
 70
     0
  3
Hidden __ __ __ __ __ __ __ __ __ __ __ __ __ _
 72
    65
 73
     2
 40
0.375
 49
0.25
 49
-0.125
  0
LTYPE
  2
PHANTOM2
 70
     0
  3
Phantom (.5x) ___ _ _ ___ _ _ ___ _ _ ___ _ _
 72
    65
 73
     6
 40
1.25
 49
0.625
 49
-0.125
 49
0.125
 49
-0.125
 49
0.125
 49
-0.125
  0
LTYPE
  2
CENTER
 70
     0
  3
Center ____ _ ____ _ ____ _ ____ _ ____ _ ____
 72
    65
 73
     4
 40
2.0
 49
1.25
 49
-0.25
 49
0.25
 49
-0.25
  0
LTYPE
  2
AMZIGZAG2
 70
     0
  3
/\/-/\/-/\/-/\/-/\/-/\/
 72
    65
 73
     2
 40
0.4401
 49
0.0001
 49
-0.4400000000000002
  0
LTYPE
  2
ACANSTGB
 70
     0
  3
__ . . __ . .
 72
    65
 73
     6
 40
0.35433070866
 49
0.15748031496
 49
-0.03937007874
 49
0.03937007874
 49
-0.03937007874
 49
0.03937007874
 49
-0.03937007874
  0
LTYPE
  2
ACANSTGL
 70
     0
  3
_ _ _ _ _
 72
    65
 73
     2
 40
0.11811023622
 49
0.07874015748
 49
-0.03937007874
  0
LTYPE
  2
AM_ISO02W050
 70
     0
  3
__ __ __ __ __ __ __ __ __ __ __ __ __ __ __
 72
    65
 73
     2
 40
7.5
 49
6.0
 49
-1.5
  0
LTYPE
  2
AM_ISO08W050
 70
     0
  3
____ . ____ . ____ . ____ . ____ . ____ . ____
 72
    65
 73
     4
 40
18.0
 49
12.0
 49
-1.5
 49
3.0
 49
-1.5
  0
LTYPE
  2
AM_ISO09W050
 70
     0
  3
_____ . . _____ . . _____ . . ____ .. ____
 72
    65
 73
     6
 40
22.5
 49
12.0
 49
-1.5
 49
3.0
 49
-1.5
 49
3.0
 49
-1.5
  0
LTYPE
  2
AM_ISO08W050X2
 70
     0
  3
__ . __ . __ . __ . __ . __
 72
    65
 73
     4
 40
9.0
 49
6.0
 49
-0.75
 49
1.5
 49
-0.75
  0
LTYPE
  2
AM_ISO02W050X2
 70
     0
  3
 _ _ _ _ _ _ _ _ _ _ _ _
 72
    65
 73
     2
 40
3.75
 49
3.0
 49
-0.75
  0
LTYPE
  2
AMZIGZAG
 70
     0
  3
/\/-/\/-/\/-/\/-/\/-/\/
 72
    65
 73
     2
 40
11.0001
 49
0.0001
 49
-11.0
  0
ENDTAB
  0
TABLE
  2
LAYER
 70
     8
  0
LAYER
  2
0
 70
     0
 62
     7
  6
CONTINUOUS
  0
LAYER
  2
241
 70
     0
 62
   211
  6
CONTINUOUS
  0
LAYER
  2
DEFPOINTS
 70
     0
 62
     7
  6
CONTINUOUS
  0
LAYER
  2
245
 70
     0
 62
     2
  6
CENTER2
  0
LAYER
  2
240
 70
     0
 62
     4
  6
CONTINUOUS
  0
LAYER
  2
243
 70
     0
 62
   211
  6
HIDDEN2
  0
LAYER
  2
247
 70
     0
 62
    60
  6
CONTINUOUS
  0
LAYER
  2
250
 70
     0
 62
     3
  6
CONTINUOUS
  0
ENDTAB
  0
TABLE
  2
STYLE
 70
     6
  0
STYLE
  2
STANDARD
 70
     0
 40
0.0
 41
1.0
 50
0.0
 71
     0
 42
3.0
  3
romans.shx
  4
extfont.shx
  0
STYLE
  2
ANNOTATIVE
 70
     0
 40
0.0
 41
1.0
 50
0.0
 71
     0
 42
0.2
  3
txt
  4

  0
STYLE
  2
YOKO
 70
     0
 40
0.0
 41
1.0
 50
0.0
 71
     0
 42
3.0
  3
romans.shx
  4
extfont.shx
  0
STYLE
  2

 70
     1
 40
0.0
 41
1.0
 50
0.0
 71
     0
 42
2.799999999999998
  3
genltshp.shx
  4

  0
STYLE
  2
ACANSGDT
 70
     0
 40
0.0
 41
1.0
 50
0.0
 71
     0
 42
3.0
  3
amgdt.shx
  4

  0
STYLE
  2
ACANSTS
 70
     0
 40
0.0
 41
1.0
 50
0.0
 71
     0
 42
3.0
  3
romans.shx
  4
extfont.shx
  0
ENDTAB
  0
TABLE
  2
VIEW
 70
     0
  0
ENDTAB
  0
TABLE
  2
UCS
 70
     0
  0
ENDTAB
  0
TABLE
  2
APPID
 70
    45
  0
APPID
  2
ACAD
 70
     0
  0
APPID
  2
ACADANNOTATIVE
 70
     0
  0
APPID
  2
GLOBAL
 70
     0
  0
APPID
  2
DETAIL
 70
     0
  0
APPID
  2
GRPNAME
 70
     0
  0
APPID
  2
GPARA
 70
     0
  0
APPID
  2
MCAD_NO_VIS
 70
     0
  0
APPID
  2
ACAD_TEMP_GRAPHIC
 70
     0
  0
APPID
  2
ACATTRIBSERVICES
 70
     0
  0
APPID
  2
GENIUS_GENSCREG_15
 70
     0
  0
APPID
  2
GENIUS_GENODEF_13
 70
     0
  0
APPID
  2
GENIUS_GENOBJ-N-SDF_13
 70
     0
  0
APPID
  2
GENIUS_GENREC_14
 70
     0
  0
APPID
  2
GENIUS_GENOBJ-N-REC_13
 70
     0
  0
APPID
  2
GENIUS_GENDIMSH_14
 70
     0
  0
APPID
  2
GENIUS_GENOBJ-N-DIM_13
 70
     0
  0
APPID
  2
GENIUS_GENDIM_13
 70
     0
  0
APPID
  2
GENIUS_GENDTOL_13
 70
     0
  0
APPID
  2
GENIUS_GENOLIS_13
 70
     0
  0
APPID
  2
GENIUS_GENOENT_13
 70
     0
  0
APPID
  2
GENIUS_GENOBJ-F-FEM_13
 70
     0
  0
APPID
  2
GENIUS_GENOREF_13
 70
     0
  0
APPID
  2
GENIUS_GEFFEM_13
 70
     0
  0
APPID
  2
GENIUS_GEFFEMP_13
 70
     0
  0
APPID
  2
AD_DRAW
 70
     0
  0
APPID
  2
DESIGNERASSEMBLIES
 70
     0
  0
APPID
  2
ACADM_DIM_EDIT
 70
     0
  0
APPID
  2
AMDT_DM_ADJ
 70
     0
  0
APPID
  2
ITEMNAME
 70
     0
  0
APPID
  2
GENIUS_GENOBJ-N-FIL_13
 70
     0
  0
APPID
  2
GENIUS_GENFIL_13
 70
     0
  0
APPID
  2
GENIUS_GENOBJ-N-CHA_13
 70
     0
  0
APPID
  2
ACAECLAYERSTANDARD
 70
     0
  0
APPID
  2
ACAD_NAV_VCDISPLAY
 70
     0
  0
APPID
  2
ACAD_PSEXT
 70
     0
  0
APPID
  2
ACAD_DSTYLE_DIMJAG
 70
     0
  0
APPID
  2
ACAD_DSTYLE_DIMBREAK
 70
     0
  0
APPID
  2
ACAD_EXEMPT_FROM_CAD_STANDARDS
 70
     0
  0
APPID
  2
ACAD_DSTYLE_DIMINSPECT
 70
     0
  0
APPID
  2
GRADE_0
 70
     0
  0
APPID
  2
ACAD_MLEADERVER
 70
     0
  0
APPID
  2
ACAD_DSTYLE_DIMARC_LENGTH_
 70
     0
  0
APPID
  2
ACAD_DSTYLE_DIM_LINETYPE
 70
     0
  0
APPID
  2
ACAD_DSTYLE_DIM_EXT1_LINETYPE
 70
     0
  0
APPID
  2
ACAD_DSTYLE_DIM_EXT2_LINETYPE
 70
     0
  0
ENDTAB
  0
TABLE
  2
DIMSTYLE
 70
     9
  0
DIMSTYLE
  2
STANDARD
 70
     0
  3

  4

  5

  6

  7

 40
1.0
 41
0.18
 42
0.0625
 43
0.38
 44
0.18
 45
0.0
 46
0.0
 47
0.0
 48
0.0
140
0.18
141
0.09
142
0.0
143
25.399999999999999
144
1.0
145
0.0
146
1.0
147
0.09
 71
     0
 72
     0
 73
     1
 74
     1
 75
     0
 76
     0
 77
     0
 78
     0
170
     0
171
     2
172
     0
173
     0
174
     0
175
     0
176
     0
177
     0
178
     0
  0
DIMSTYLE
  2
ANNOTATIVE
 70
     0
  3

  4

  5

  6

  7

 40
1.0
 41
0.18
 42
0.0625
 43
0.38
 44
0.18
 45
0.0
 46
0.0
 47
0.0
 48
0.0
140
0.18
141
0.09
142
0.0
143
25.399999999999999
144
1.0
145
0.0
146
1.0
147
0.09
 71
     0
 72
     0
 73
     1
 74
     1
 75
     0
 76
     0
 77
     0
 78
     0
170
     0
171
     2
172
     0
173
     0
174
     0
175
     0
176
     0
177
     0
178
     0
  0
DIMSTYLE
  2
BIGT
 70
     0
  3

  4

  5

  6

  7

 40
1.0
 41
2.2299999999999991
 42
0.5
 43
7.0
 44
1.0
 45
0.0
 46
0.0
 47
0.0
 48
0.01
140
2.799999999999998
141
0.0
142
0.0
143
25.399999999999999
144
1.0
145
0.0
146
1.0
147
1.0
 71
     0
 72
     0
 73
     0
 74
     0
 75
     0
 76
     0
 77
     3
 78
     9
170
     0
171
     2
172
     1
173
     0
174
     1
175
     0
176
   256
177
   256
178
    40
  0
DIMSTYLE
  2
AM_ANSI
 70
     0
  3

  4
mm
  5

  6

  7

 40
1.0
 41
0.12
 42
0.05
 43
0.5
 44
0.1
 45
0.0
 46
0.0
 47
0.1
 48
0.1
140
0.12
141
0.0
142
0.0
143
25.399999999999999
144
1.0
145
0.0
146
0.71
147
0.06
 71
     0
 72
     0
 73
     1
 74
     1
 75
     0
 76
     0
 77
     0
 78
     7
170
     0
171
     2
172
     0
173
     0
174
     0
175
     0
176
   256
177
   256
178
     2
  0
DIMSTYLE
  2
AM_ANSI$3
 70
     0
  3

  4
mm
  5

  6

  7

 40
1.0
 41
0.12
 42
0.05
 43
0.5
 44
0.1
 45
0.0
 46
0.0
 47
0.1
 48
0.1
140
0.12
141
0.0
142
0.0
143
25.399999999999999
144
1.0
145
0.0
146
0.71
147
0.06
 71
     0
 72
     0
 73
     1
 74
     1
 75
     0
 76
     0
 77
     0
 78
     7
170
     0
171
     2
172
     0
173
     0
174
     0
175
     0
176
   256
177
   256
178
     2
  0
DIMSTYLE
  2
AM_ANSI$4
 70
     0
  3

  4
mm
  5

  6

  7

 40
1.0
 41
0.12
 42
0.05
 43
0.5
 44
0.1
 45
0.0
 46
0.0
 47
0.1
 48
0.1
140
0.12
141
0.0
142
0.0
143
25.399999999999999
144
1.0
145
0.0
146
0.71
147
0.06
 71
     0
 72
     0
 73
     1
 74
     1
 75
     0
 76
     0
 77
     0
 78
     7
170
     0
171
     2
172
     0
173
     0
174
     0
175
     0
176
   256
177
   256
178
     2
  0
DIMSTYLE
  2
AM_ANSI$7
 70
     0
  3

  4
mm
  5

  6

  7

 40
1.0
 41
0.12
 42
0.05
 43
0.5
 44
0.1
 45
0.0
 46
0.0
 47
0.1
 48
0.1
140
0.12
141
0.0
142
0.0
143
25.399999999999999
144
1.0
145
0.0
146
0.71
147
0.06
 71
     0
 72
     0
 73
     1
 74
     1
 75
     0
 76
     0
 77
     0
 78
     7
170
     0
171
     2
172
     0
173
     0
174
     0
175
     0
176
   256
177
   256
178
     2
  0
DIMSTYLE
  2
AM_ANSI$SF
 70
     0
  3

  4
mm
  5

  6

  7

 40
1.0
 41
0.12
 42
0.05
 43
0.5
 44
0.1
 45
0.0
 46
0.0
 47
0.1
 48
0.1
140
0.12
141
0.0
142
0.0
143
25.399999999999999
144
1.0
145
0.0
146
0.71
147
0.06
 71
     0
 72
     0
 73
     1
 74
     1
 75
     1
 76
     1
 77
     0
 78
     7
170
     0
171
     2
172
     0
173
     0
174
     0
175
     0
176
   256
177
   256
178
     2
  0
DIMSTYLE
  2
AM_ANSI$SH
 70
     0
  3

  4
mm
  5

  6

  7

 40
1.0
 41
0.12
 42
0.05
 43
0.5
 44
0.1
 45
0.0
 46
0.0
 47
0.1
 48
0.1
140
0.12
141
0.0
142
0.0
143
25.399999999999999
144
1.0
145
0.0
146
0.71
147
0.06
 71
     0
 72
     0
 73
     1
 74
     1
 75
     1
 76
     1
 77
     0
 78
     7
170
     0
171
     2
172
     0
173
     1
174
     0
175
     0
176
   256
177
   256
178
     2
  0
ENDTAB
  0
ENDSEC
  0
SECTION
  2
BLOCKS
  0
BLOCK
  8
0
  2
$MODEL_SPACE
 70
     0
 10
0.0
 20
0.0
 30
0.0
  3
$MODEL_SPACE
  1

  0
ENDBLK
  5
4AD9
  8
0
  0
BLOCK
 67
     1
  8
0
  2
$PAPER_SPACE
 70
     0
 10
0.0
 20
0.0
 30
0.0
  3
$PAPER_SPACE
  1

  0
ENDBLK
  5
4AD5
 67
     1
  8
0
  0
BLOCK
  8
0
  2
_OPEN
 70
     0
 10
0.0
 20
0.0
 30
0.0
  3
_OPEN
  1

  0
LINE
  5
3E1A
  8
0
  6
BYBLOCK
 62
     0
 10
-1.0
 20
0.1666666666666666
 30
0.0
 11
0.0
 21
0.0
 31
0.0
  0
LINE
  5
3E1B
  8
0
  6
BYBLOCK
 62
     0
 10
-1.0
 20
-0.1666666666666666
 30
0.0
 11
0.0
 21
0.0
 31
0.0
  0
LINE
  5
3E1C
  8
0
  6
BYBLOCK
 62
     0
 10
0.0
 20
0.0
 30
0.0
 11
-1.0
 21
0.0
 31
0.0
  0
ENDBLK
  5
3E1D
  8
0
  0
BLOCK
  8
0
  2
GENAXEH
 70
     0
 10
0.0
 20
0.0
 30
0.0
  3
GENAXEH
  1

  0
LINE
  5
3E45
  8
0
 10
-1.0
 20
0.0
 30
0.0
 11
1.0
 21
0.0
 31
0.0
  0
ENDBLK
  5
3E46
  8
0
  0
BLOCK
  8
0
  2
_ACMFILLEDHALF
 70
     0
 10
0.0
 20
0.0
 30
0.0
  3
_ACMFILLEDHALF
  1

  0
TRACE
  5
49EC
  8
241
 62
     0
 10
-0.8
 20
0.0
 30
0.0
 11
-1.0
 21
0.166666666
 31
0.0
 12
0.0
 22
0.0
 32
0.0
 13
0.0
 23
0.0
 33
0.0
  0
LINE
  5
49ED
  8
241
 62
     0
 10
-1.0
 20
0.0
 30
0.0
 11
-0.8
 21
0.0
 31
0.0
  0
ENDBLK
  5
49EB
  8
0
  0
ENDSEC
  0
SECTION
  2
ENTITIES
  0
LINE
  5
428C
  8
245
 10
-64.999999999999915
 20
0.0
 30
0.0
 11
107.55880561355271
 21
0.0000000000000284
 31
0.0
  0
LINE
  5
428D
  8
240
 10
45.000000000000057
 20
52.499999999999751
 30
0.0
 11
29.00000000000011
 21
52.500000000000298
 31
0.0
  0
LINE
  5
4290
  8
240
 10
29.000000000000171
 20
-52.5
 30
0.0
 11
45.000000000000092
 21
-52.499999999999893
 31
0.0
  0
LINE
  5
4294
  8
240
 10
45.000000000000092
 20
-52.499999999999893
 30
0.0
 11
45.000000000000057
 21
-33.667624489073809
 31
0.0
  0
LINE
  5
4295
  8
240
 10
45.000000000000057
 20
52.499999999999751
 30
0.0
 11
45.000000000000057
 21
33.66762448907393
 31
0.0
  0
LINE
  5
42B1
  8
240
  6
CONTINUOUS
 10
55.500000000000057
 20
26.00000000000006
 30
0.0
 11
55.500000000000107
 21
30.000000000000352
 31
0.0
1001
GRPNAME
1000
PASTMD04
  0
ARC
  5
42CA
  8
240
  6
CONTINUOUS
 10
48.0
 20
-33.667624489073802
 30
0.0
 40
3.0
 50
94.999999999986755
 51
180.0
  0
LINE
  5
42CE
  8
240
  6
CONTINUOUS
 10
55.500000000000107
 20
30.000000000000352
 30
0.0
 11
47.738532771757697
 21
30.679040394798431
 31
0.0
  0
LINE
  5
42CF
  8
240
  6
CONTINUOUS
 10
55.500000000000107
 20
-30.00000000000022
 30
0.0
 11
47.73853277175774
 21
-30.679040394798928
 31
0.0
  0
ARC
  5
42D0
  8
240
  6
CONTINUOUS
 10
48.0
 20
33.667624489073852
 30
0.0
 40
3.0
 50
180.0
 51
265.0000000000133
  0
LINE
  5
42D2
  8
240
  6
CONTINUOUS
 10
55.500000000000107
 20
-26.0
 30
0.0
 11
55.500000000000107
 21
-30.00000000000022
 31
0.0
  0
LINE
  5
42D8
  8
241
 10
49.332558586946853
 20
-30.53958120660349
 30
0.0
 11
49.332558586946533
 21
30.53958120660198
 31
0.0
  0
LINE
  5
42DC
  8
241
 10
50.527992224658021
 20
-30.434994315306291
 30
0.0
 11
50.527992224661133
 21
30.434994315304561
 31
0.0
  0
LINE
  5
438F
  8
250
  6
CONTINUOUS
 10
-39.20135676606543
 20
-60.283382249222207
 30
0.0
 11
-66.134690099398753
 21
-60.283382249222207
 31
0.0
1001
ITEMNAME
1000
LNSP2
  0
LINE
  5
4390
  8
240
  6
CONTINUOUS
 10
0.0000000000000021
 20
-62.500000000000412
 30
0.0
 11
-0.000000000000028
 21
-48.134252505009783
 31
0.0
  0
LINE
  5
4391
  8
240
  6
CONTINUOUS
 10
-0.0000000000000787
 20
62.500000000000242
 30
0.0
 11
16.752404735808302
 21
62.500000000000021
 31
0.0
  0
LINE
  5
4392
  8
241
  6
CONTINUOUS
 10
21.875000000000199
 20
-58.499999999999801
 30
0.0
 11
21.874999999999801
 21
-43.150898020782613
 31
0.0
  0
LINE
  5
4393
  8
240
  6
CONTINUOUS
 10
23.24759526419157
 20
62.499999999999972
 30
0.0
 11
29.000000000000021
 21
62.499999999999972
 31
0.0
  0
LINE
  5
4394
  8
240
  6
CONTINUOUS
 10
0.0000000000000021
 20
-62.500000000000412
 30
0.0
 11
16.752404735808302
 21
-62.500000000000071
 31
0.0
  0
LINE
  5
4395
  8
240
  6
CONTINUOUS
 10
23.24759526419157
 20
-62.500000000000021
 30
0.0
 11
21.875000000000831
 21
-60.122595264193897
 31
0.0
  0
LINE
  5
4396
  8
240
  6
CONTINUOUS
 10
18.124999999999911
 20
-60.122595264191361
 30
0.0
 11
16.752404735808302
 21
-62.500000000000071
 31
0.0
  0
LINE
  5
4397
  8
240
  6
CONTINUOUS
 10
21.875000000000199
 20
-58.499999999999801
 30
0.0
 11
18.12500000000162
 21
-58.500000000000043
 31
0.0
  0
LINE
  5
4398
  8
240
  6
CONTINUOUS
 10
23.24759526419157
 20
-62.500000000000021
 30
0.0
 11
29.000000000000139
 21
-62.49999999999995
 31
0.0
  0
LINE
  5
4399
  8
240
  6
CONTINUOUS
 10
-62.999999999999901
 20
-44.97793987975902
 30
0.0
 11
-62.999999999999979
 21
-12.50999999999997
 31
0.0
  0
LINE
  5
439A
  8
240
  6
CONTINUOUS
 10
0.0000000000006439
 20
48.134252505009748
 30
0.0
 11
-62.999999999999901
 21
44.977939879759091
 31
0.0
  0
LINE
  5
439B
  8
240
  6
CONTINUOUS
 10
-62.999999999999901
 20
12.51
 30
0.0
 11
-53.499999999999972
 21
12.51
 31
0.0
  0
ARC
  5
439C
  8
240
  6
CONTINUOUS
 10
-53.499999999999972
 20
-10.00999999999995
 30
0.0
 40
2.5
 50
270.0
 51
0.0
  0
ARC
  5
439D
  8
243
  6
HIDDEN2
 10
-46.499999999999879
 20
-10.009999999999961
 30
0.0
 40
2.5
 50
270.0
 51
0.0
  0
LINE
  5
439E
  8
240
  6
CONTINUOUS
 10
-50.999999999999972
 20
-10.00999999999995
 30
0.0
 11
-51.000000000000078
 21
10.01000000000003
 31
0.0
  0
LINE
  5
439F
  8
240
  6
CONTINUOUS
 10
-62.999999999999901
 20
12.51
 30
0.0
 11
-62.999999999999901
 21
44.977939879759091
 31
0.0
  0
LINE
  5
43A0
  8
243
  6
HIDDEN2
 10
-43.999999999999879
 20
-10.00999999999995
 30
0.0
 11
-44.000000000001052
 21
10.01000000000003
 31
0.0
  0
LINE
  5
43A1
  8
240
  6
CONTINUOUS
 10
-62.999999999999979
 20
-12.50999999999997
 30
0.0
 11
-53.499999999999972
 21
-12.50999999999997
 31
0.0
  0
LINE
  5
43A2
  8
243
  6
HIDDEN2
 10
-46.499999999999879
 20
-12.50999999999997
 30
0.0
 11
-53.499999999999879
 21
-12.510000000000099
 31
0.0
  0
LINE
  5
43A3
  8
240
  6
CONTINUOUS
 10
0.0000000000006439
 20
48.134252505009748
 30
0.0
 11
-0.0000000000000787
 21
62.500000000000242
 31
0.0
  0
LINE
  5
43A4
  8
240
  6
CONTINUOUS
 10
29.000000000000021
 20
62.499999999999972
 30
0.0
 11
29.00000000000011
 21
52.500000000000298
 31
0.0
  0
LINE
  5
43A5
  8
240
  6
CONTINUOUS
 10
-0.000000000000028
 20
-48.134252505009783
 30
0.0
 11
-62.999999999999901
 21
-44.97793987975902
 31
0.0
  0
LINE
  5
43A6
  8
241
  6
CONTINUOUS
 10
10.00000000000008
 20
-12.500000000000011
 30
0.0
 11
29.000000000000089
 21
-12.50000000000008
 31
0.0
  0
LINE
  5
43A7
  8
241
  6
CONTINUOUS
 10
5.0000000000000844
 20
-7.5000000000000249
 30
0.0
 11
4.9999999999990621
 21
7.5000000000000568
 31
0.0
  0
ARC
  5
43A8
  8
241
  6
CONTINUOUS
 10
10.00000000000008
 20
-7.5000000000000249
 30
0.0
 40
5.0
 50
180.0
 51
270.0
  0
LINE
  5
43A9
  8
241
  6
CONTINUOUS
 10
10.00000000000008
 20
-39.499999999999922
 30
0.0
 11
29.000000000000139
 21
-39.499999999999972
 31
0.0
  0
LINE
  5
43AA
  8
241
  6
CONTINUOUS
 10
4.999999999999968
 20
-48.435524153249141
 30
0.0
 11
16.7524047358066
 21
-48.435524153249361
 31
0.0
  0
LINE
  5
43AB
  8
241
  6
CONTINUOUS
 10
4.999999999999968
 20
-48.435524153249141
 30
0.0
 11
5.0000000000000284
 21
-44.499999999999908
 31
0.0
  0
ARC
  5
43AC
  8
241
  6
CONTINUOUS
 10
10.00000000000008
 20
-44.499999999999908
 30
0.0
 40
5.0
 50
90.0
 51
180.0
  0
LINE
  5
43AD
  8
241
  6
CONTINUOUS
 10
21.875000000000028
 20
-39.500000000000171
 30
0.0
 11
21.87500000000006
 21
-12.499999999999909
 31
0.0
  0
LINE
  5
43AE
  8
241
  6
CONTINUOUS
 10
18.125000000000082
 20
-39.500000000000128
 30
0.0
 11
18.125000000000131
 21
-12.499999999999879
 31
0.0
  0
LINE
  5
43AF
  8
241
  6
CONTINUOUS
 10
16.752404735808302
 20
-62.500000000001663
 30
0.0
 11
16.752404735808302
 21
-48.435524153249361
 31
0.0
  0
LINE
  5
43B0
  8
241
  6
CONTINUOUS
 10
23.24759526419157
 20
-62.500000000001613
 30
0.0
 11
23.24759526419157
 21
-48.435524153249361
 31
0.0
  0
LINE
  5
43B1
  8
241
  6
CONTINUOUS
 10
23.24759526419157
 20
-39.500000000000171
 30
0.0
 11
23.24759526419157
 21
-12.499999999999909
 31
0.0
  0
LINE
  5
43B2
  8
241
  6
CONTINUOUS
 10
16.752404735808302
 20
-39.500000000000128
 30
0.0
 11
16.752404735808302
 21
-12.499999999999879
 31
0.0
  0
LINE
  5
43B3
  8
241
  6
CONTINUOUS
 10
18.12499999999946
 20
-43.15089802078289
 30
0.0
 11
21.874999999999801
 21
-43.150898020782613
 31
0.0
  0
LINE
  5
43B4
  8
241
  6
CONTINUOUS
 10
16.752404735808302
 20
-48.435524153249361
 30
0.0
 11
18.1249999999994
 21
-45.326332978763638
 31
0.0
  0
LINE
  5
43B5
  8
241
  6
CONTINUOUS
 10
21.874999999999801
 20
-45.326332978763638
 30
0.0
 11
23.24759526419157
 21
-48.435524153249183
 31
0.0
  0
LINE
  5
43B6
  8
241
  6
CONTINUOUS
 10
23.247595264196061
 20
-48.435524153249361
 30
0.0
 11
29.000000000000028
 21
-48.435524153249197
 31
0.0
  0
LINE
  5
43B7
  8
240
  6
CONTINUOUS
 10
18.125000000000011
 20
-60.122595264191759
 30
0.0
 11
18.12500000000162
 21
-58.500000000000043
 31
0.0
  0
LINE
  5
43B8
  8
241
  6
CONTINUOUS
 10
18.125000000000011
 20
-58.499999999999943
 30
0.0
 11
18.12499999999946
 21
-43.15089802078289
 31
0.0
  0
LINE
  5
43B9
  8
240
  6
CONTINUOUS
 10
21.875000000000831
 20
-60.122595264193897
 30
0.0
 11
21.87499999999833
 21
-58.500000000000043
 31
0.0
  0
LINE
  5
43BA
  8
241
  6
CONTINUOUS
 10
-0.0000000000000284
 20
-47.933851703406383
 30
0.0
 11
-0.0000000000000284
 21
48.134252505009719
 31
0.0
  0
LINE
  5
43BB
  8
240
  6
CONTINUOUS
 10
23.247595264191631
 20
62.500000000000021
 30
0.0
 11
21.875000000000881
 21
60.122595264193961
 31
0.0
  0
LINE
  5
43BC
  8
240
  6
CONTINUOUS
 10
18.124999999999972
 20
60.122595264191361
 30
0.0
 11
16.752404735808369
 21
62.500000000000071
 31
0.0
  0
LINE
  5
43BD
  8
240
  6
CONTINUOUS
 10
21.875000000000309
 20
58.499999999999801
 30
0.0
 11
18.12500000000168
 21
58.500000000000043
 31
0.0
  0
LINE
  5
43BE
  8
240
  6
CONTINUOUS
 10
18.125000000000082
 20
60.122595264191801
 30
0.0
 11
18.12500000000168
 21
58.500000000000043
 31
0.0
  0
LINE
  5
43BF
  8
240
  6
CONTINUOUS
 10
21.875000000000881
 20
60.122595264193961
 30
0.0
 11
21.87499999999838
 21
58.500000000000021
 31
0.0
  0
LINE
  5
43C0
  8
241
  6
CONTINUOUS
 10
10.00000000000011
 20
12.50000000000005
 30
0.0
 11
29.000000000000089
 21
12.50000000000008
 31
0.0
  0
ARC
  5
43C1
  8
241
  6
CONTINUOUS
 10
10.00000000000008
 20
7.500000000000056
 30
0.0
 40
5.0
 50
90.0
 51
180.0
  0
LINE
  5
43C2
  8
241
  6
CONTINUOUS
 10
21.87500000000006
 20
12.49999999999984
 30
0.0
 11
21.875000000000139
 21
58.499999999999801
 31
0.0
  0
LINE
  5
43C3
  8
241
  6
CONTINUOUS
 10
23.24759526419157
 20
12.49999999999984
 30
0.0
 11
23.247595264191752
 21
62.499999999999972
 31
0.0
  0
LINE
  5
43C4
  8
241
  6
CONTINUOUS
 10
18.125000000000131
 20
12.49999999999981
 30
0.0
 11
18.125000000000199
 21
58.500000000000043
 31
0.0
  0
LINE
  5
43C5
  8
241
  6
CONTINUOUS
 10
16.752404735808302
 20
12.49999999999981
 30
0.0
 11
16.752404735808479
 21
62.500000000000021
 31
0.0
  0
ARC
  5
43C6
  8
240
  6
CONTINUOUS
 10
-53.499999999999972
 20
10.010000000000071
 30
0.0
 40
2.5
 50
0.0
 51
90.0
  0
ARC
  5
43C7
  8
243
  6
HIDDEN2
 10
-46.499999999999879
 20
10.010000000000071
 30
0.0
 40
2.5
 50
0.0
 51
90.0
  0
LINE
  5
43C8
  8
243
  6
HIDDEN2
 10
-46.499999999999879
 20
12.510000000000071
 30
0.0
 11
-53.499999999999879
 21
12.510000000000201
 31
0.0
  0
LINE
  5
43C9
  8
240
  6
CONTINUOUS
 10
29.000000000000139
 20
-62.49999999999995
 30
0.0
 11
29.000000000000171
 21
-52.5
 31
0.0
  0
TEXT
  5
43CA
  8
250
  6
CONTINUOUS
 10
-63.868023432732109
 20
-59.283382249222221
 30
0.0
 40
2.799999999999998
  1
HSK-A125
  7
YOKO
1001
ITEMNAME
1000
LNSP3
  0
POLYLINE
  5
43CB
  8
250
  6
CONTINUOUS
 66
     1
 10
0.0
 20
0.0
 30
0.0
1001
ACAD
1000
DSTYLE
1002
{
1070
    41
1040
2.0
1002
}
  0
VERTEX
  5
43CC
  8
250
  6
CONTINUOUS
 10
-32.282204286245992
 20
-48.299058608858793
 30
0.0
  0
VERTEX
  5
43CD
  8
250
  6
CONTINUOUS
 10
-39.20135676606543
 20
-60.283382249222207
 30
0.0
  0
SEQEND
  5
43CE
  8
250
  6
CONTINUOUS
  0
LINE
  5
43CF
  8
250
  6
CONTINUOUS
 10
-32.570879420840797
 20
-48.1323919421921
 30
0.0
 11
-31.282204286245989
 21
-46.567007801289897
 31
0.0
  0
LINE
  5
43D0
  8
250
  6
CONTINUOUS
 10
-31.993529151651181
 20
-48.46572527552545
 30
0.0
 11
-31.282204286245989
 21
-46.567007801289897
 31
0.0
  0
LINE
  5
43D1
  8
250
  6
CONTINUOUS
 10
-31.282204286245989
 20
-46.567007801289897
 30
0.0
 11
-32.282204286245992
 21
-48.299058608858793
 31
0.0
  0
LINE
  5
43D2
  8
247
  6
CONTINUOUS
 10
12.0
 20
-28.250000000070049
 30
0.0
 11
12.0
 21
-21.557692308030042
 31
0.0
  0
ARC
  5
43D3
  8
247
  6
CONTINUOUS
 10
10.25000000006998
 20
-28.250000000070049
 30
0.0
 40
1.7499999999299991
 50
180.0
 51
0.0
  0
ARC
  5
43D4
  8
247
  6
CONTINUOUS
 10
10.25000000007004
 20
-21.557692308030042
 30
0.0
 40
1.7499999999299991
 50
0.0
 51
180.0
  0
LINE
  5
43D5
  8
247
  6
CONTINUOUS
 10
8.5000000001400693
 20
-27.384615384720021
 30
0.0
 11
11.500000000020011
 21
-28.244851541962031
 31
0.0
  0
LINE
  5
43D6
  8
247
  6
CONTINUOUS
 10
9.9230769231600142
 20
-26.484983818335831
 30
0.0
 11
9.9230769231600142
 21
-27.792676125975859
 31
0.0
  0
ARC
  5
43D7
  8
247
  6
CONTINUOUS
 10
9.049598667702984
 20
-26.14514381608981
 30
0.0
 40
0.5538165441895349
 50
72.997889675292413
 51
172.92416621851351
  0
ARC
  5
43D8
  8
247
  6
CONTINUOUS
 10
8.9360330444658338
 20
-26.56687832302881
 30
0.0
 40
0.9904354236226808
 50
4.7429368522022131
 51
73.849226273266424
1001
GENIUS_GENOBJ-N-FIL_13
1002
{
1000
OWNER
1000
GEN
1002
}
1001
GENIUS_GENODEF_13
1002
{
1000
HIER
1070
     0
1002
}
1002
{
1000
MANEDIT
1070
     0
1002
}
1002
{
1000
NOSEL
1070
     0
1002
}
1002
{
1000
BEHIND
1070
     0
1002
}
1002
{
1000
OTHER
1070
     0
1002
}
1002
{
1000
REACTOR
1002
}
  0
LINE
  5
43D9
  8
247
  6
CONTINUOUS
 10
11.500000000020011
 20
-26.93715923432201
 30
0.0
 11
11.500000000020011
 21
-28.244851541962031
 31
0.0
  0
LINE
  5
43DA
  8
247
  6
CONTINUOUS
 10
8.5000000001400693
 20
-27.384615384720021
 30
0.0
 11
8.5000000001400693
 21
-26.07692307708
 31
0.0
  0
ARC
  5
43DB
  8
247
  6
CONTINUOUS
 10
10.4820242326656
 20
-26.560919636546959
 30
0.0
 40
0.5640818586791229
 50
65.990941652528889
 51
172.26344345906909
  0
ARC
  5
43DC
  8
247
  6
CONTINUOUS
 10
10.48742903918663
 20
-27.0382626853471
 30
0.0
 40
1.0176059446230981
 50
5.701985164256504
 51
77.277338436822205
1001
GENIUS_GENOBJ-N-FIL_13
1002
{
1000
OWNER
1000
GEN
1002
}
1001
GENIUS_GENODEF_13
1002
{
1000
HIER
1070
     0
1002
}
1002
{
1000
MANEDIT
1070
     0
1002
}
1002
{
1000
NOSEL
1070
     0
1002
}
1002
{
1000
BEHIND
1070
     0
1002
}
1002
{
1000
OTHER
1070
     0
1002
}
1002
{
1000
REACTOR
1002
}
  0
LINE
  5
43DD
  8
247
  6
CONTINUOUS
 10
11.500000000020011
 20
-25.28331308054204
 30
0.0
 11
8.5000000001400693
 21
-24.42307692330003
 31
0.0
  0
LINE
  5
43DE
  8
247
  6
CONTINUOUS
 10
8.5000000001400693
 20
-22.000000000319979
 30
0.0
 11
8.5000000001400693
 21
-22.565736619456569
 31
0.0
  0
LINE
  5
43DF
  8
247
  6
CONTINUOUS
 10
11.500000000020011
 20
-23.4615384618
 30
0.0
 11
11.500000000020011
 21
-22.846153846440028
 31
0.0
  0
ARC
  5
43E0
  8
247
  6
CONTINUOUS
 10
10.58328513597337
 20
-21.708791209122872
 30
0.0
 40
2.2526500823422122
 50
202.3594881415263
 51
254.99324854284609
  0
ARC
  5
43E1
  8
247
  6
CONTINUOUS
 10
9.3083126551945341
 20
-22.37406947921324
 30
0.0
 40
0.8906723995727782
 50
94.994589319075374
 51
155.1663289573041
1001
GENIUS_GENOBJ-N-FIL_13
1002
{
1000
OWNER
1000
GEN
1002
}
1001
GENIUS_GENODEF_13
1002
{
1000
HIER
1070
     0
1002
}
1002
{
1000
MANEDIT
1070
     0
1002
}
1002
{
1000
NOSEL
1070
     0
1002
}
1002
{
1000
BEHIND
1070
     0
1002
}
1002
{
1000
OTHER
1070
     0
1002
}
1002
{
1000
REACTOR
1002
}
  0
ARC
  5
43E2
  8
247
  6
CONTINUOUS
 10
10.16014588866779
 20
-23.226458886212569
 30
0.0
 40
1.392781735586712
 50
15.846096555780679
 51
82.325137004169122
  0
ARC
  5
43E3
  8
247
  6
CONTINUOUS
 10
10.45924343152728
 20
-22.642212725840359
 30
0.0
 40
1.324563662670287
 50
249.7136016704969
 51
321.78874565640581
1001
GENIUS_GENOBJ-N-FIL_13
1002
{
1000
OWNER
1000
GEN
1002
}
1001
GENIUS_GENODEF_13
1002
{
1000
HIER
1070
     0
1002
}
1002
{
1000
MANEDIT
1070
     0
1002
}
1002
{
1000
NOSEL
1070
     0
1002
}
1002
{
1000
BEHIND
1070
     0
1002
}
1002
{
1000
OTHER
1070
     0
1002
}
1002
{
1000
REACTOR
1002
}
  0
LINE
  5
43E4
  8
247
  6
CONTINUOUS
 10
10.34615384621998
 20
-22.538461538759972
 30
0.0
 11
10.34615384621998
 21
-21.846153846479972
 31
0.0
  0
LINE
  5
43E5
  8
247
  6
CONTINUOUS
 10
8.500000000139952
 20
-28.250000000070049
 30
0.0
 11
8.500000000139952
 21
-27.576923077020052
 31
0.0
  0
LINE
  5
43E6
  8
241
  6
CONTINUOUS
 10
29.000000000000171
 20
-52.499999999999922
 30
0.0
 11
29.00000000000006
 21
52.500000000000412
 31
0.0
  0
TEXT
  5
43E7
  8
241
  6
CONTINUOUS
 10
-71.999999999999687
 20
91.0
 30
0.0
 40
5.0
  1
HSK-A125-HMC.750J-4
  7
YOKO
 11
-71.999999999999687
 21
91.0
 31
0.0
 73
     1
  0
LINE
  5
4447
  8
240
  6
CONTINUOUS
 10
55.500000000000057
 20
26.00000000000006
 30
0.0
 11
57.5
 21
26.00000000000006
 31
0.0
1001
GRPNAME
1000
PASTMD04
  0
ARC
  5
4448
  8
241
  6
CONTINUOUS
 10
89.678679656440337
 20
-20.929196114519069
 30
0.0
 40
2.121320343559657
 50
270.0
 51
90.0
  0
ARC
  5
4449
  8
241
  6
CONTINUOUS
 10
79.921320343559657
 20
-20.929196114519069
 30
0.0
 40
2.121320343559645
 50
90.0
 51
270.0
  0
LINE
  5
444A
  8
241
  6
CONTINUOUS
 10
91.866025403784349
 20
-29.249999999999972
 30
0.0
 11
91.866025403784349
 21
-1.220445911685154
 31
0.0
  0
LINE
  5
444B
  8
241
  6
CONTINUOUS
 10
61.5
 20
-30.35000000000036
 30
0.0
 11
61.5
 21
30.350000000000399
 31
0.0
  0
LINE
  5
444C
  8
241
  6
CONTINUOUS
 10
63.499999999999943
 20
-29.999999999999972
 30
0.0
 11
63.499999999999943
 21
30.000000000000028
 31
0.0
  0
LINE
  5
444D
  8
241
  6
CONTINUOUS
 10
76.499999999999872
 20
-29.999999999999972
 30
0.0
 11
76.499999999999872
 21
30.000000000000028
 31
0.0
  0
LINE
  5
444E
  8
241
  6
CONTINUOUS
 10
57.5
 20
26.00000000000006
 30
0.0
 11
57.5
 21
-26.0
 31
0.0
  0
LINE
  5
444F
  8
240
  6
CONTINUOUS
 10
61.850000000000833
 20
-29.999999999999972
 30
0.0
 11
76.499999999999872
 21
-30.0
 31
0.0
  0
LINE
  5
4450
  8
240
  6
CONTINUOUS
 10
60.000000000000021
 20
-30.349999999999991
 30
0.0
 11
61.5
 21
-30.35000000000036
 31
0.0
  0
LINE
  5
4451
  8
240
  6
CONTINUOUS
 10
57.5
 20
-26.0
 30
0.0
 11
58.50000000000022
 21
-27.00000000000021
 31
0.0
  0
LINE
  5
4452
  8
240
  6
CONTINUOUS
 10
61.850000000000833
 20
-29.999999999999972
 30
0.0
 11
61.499999999999829
 21
-30.349999999999991
 31
0.0
  0
LINE
  5
4453
  8
241
  6
CONTINUOUS
 10
79.921320343559657
 20
-23.050516458078722
 30
0.0
 11
89.678679656440337
 21
-23.050516458078722
 31
0.0
  0
LINE
  5
4454
  8
240
  6
CONTINUOUS
 10
76.749999999999872
 20
-29.749999999999972
 30
0.0
 11
89.999999999999943
 21
-29.749999999999972
 31
0.0
  0
LINE
  5
4455
  8
240
  6
CONTINUOUS
 10
76.749999999999872
 20
-29.749999999999972
 30
0.0
 11
76.499999999999872
 21
-29.999999999999972
 31
0.0
  0
LINE
  5
4456
  8
241
  6
CONTINUOUS
 10
79.499999999999929
 20
-29.749999999999972
 30
0.0
 11
79.499999999999929
 21
-23.00825579815077
 31
0.0
  0
LINE
  5
4458
  8
241
  6
CONTINUOUS
 10
89.999999999999943
 20
-29.749999999999972
 30
0.0
 11
89.999999999999943
 21
-23.026039751229931
 31
0.0
  0
LINE
  5
4459
  8
240
  6
CONTINUOUS
 10
91.866025403784349
 20
-29.249999999999972
 30
0.0
 11
89.999999999999872
 21
-29.749999999999972
 31
0.0
  0
LINE
  5
445A
  8
240
  6
CONTINUOUS
 10
61.849999999999248
 20
30.000000000000028
 30
0.0
 11
76.499999999999872
 21
30.00000000000006
 31
0.0
1001
GRPNAME
1000
PASTMD0P
  0
LINE
  5
445B
  8
240
  6
CONTINUOUS
 10
57.5
 20
26.00000000000006
 30
0.0
 11
58.499999999999993
 21
27.00000000000006
 31
0.0
1001
GRPNAME
1000
PASTMD0P
  0
LINE
  5
445C
  8
240
  6
CONTINUOUS
 10
58.499999999999993
 20
27.00000000000006
 30
0.0
 11
58.499999999999993
 21
28.850000000000051
 31
0.0
1001
GRPNAME
1000
PASTMD0P
  0
LINE
  5
445D
  8
241
  6
CONTINUOUS
 10
79.921320343559657
 20
-21.036426740296651
 30
0.0
 11
89.678679656440337
 21
-21.036426740296651
 31
0.0
  0
LINE
  5
445E
  8
241
  6
CONTINUOUS
 10
79.921320343559657
 20
-18.807875770959399
 30
0.0
 11
89.678679656440337
 21
-18.807875770959399
 31
0.0
  0
LINE
  5
445F
  8
241
  6
CONTINUOUS
 10
79.499999999999929
 20
-18.85013643088736
 30
0.0
 11
79.499999999999929
 21
-3.033150177620568
 31
0.0
  0
ARC
  5
4460
  8
241
  6
CONTINUOUS
 10
79.921320343559657
 20
-18.915106396736981
 30
0.0
 40
2.121320343559661
 50
208.34147880987331
 51
270.0
  0
ARC
  5
4461
  8
241
  6
CONTINUOUS
 10
80.800000000000026
 20
0.000000000000028
 30
0.0
 40
3.299999999999994
 50
90.0
 51
270.0
  0
LINE
  5
4462
  8
241
  6
CONTINUOUS
 10
88.799999866719972
 20
-3.2999999999999661
 30
0.0
 11
80.799999665469784
 21
-3.2999999999999541
 31
0.0
  0
LINE
  5
4463
  8
241
  6
CONTINUOUS
 10
88.799999999999983
 20
-3.2999999999999661
 30
0.0
 11
80.800000000000026
 21
-3.2999999999999661
 31
0.0
  0
LINE
  5
4464
  8
241
  6
CONTINUOUS
 10
80.800000000000026
 20
-2.9999999999999711
 30
0.0
 11
88.799999999999983
 21
-2.9999999999999711
 31
0.0
  0
LINE
  5
4465
  8
241
  6
CONTINUOUS
 10
89.999999999999943
 20
-18.8323524778082
 30
0.0
 11
89.999999999999943
 21
-3.074085229787892
 31
0.0
  0
ARC
  5
4466
  8
241
  6
CONTINUOUS
 10
89.678679656440337
 20
-18.915106396736981
 30
0.0
 40
2.121320343559657
 50
270.0
 51
331.658521190128
  0
LINE
  5
4467
  8
240
  6
CONTINUOUS
 10
76.749999999999872
 20
29.750000000000028
 30
0.0
 11
89.999999999999943
 21
29.750000000000028
 31
0.0
1001
GRPNAME
1000
PASTMD0P
  0
LINE
  5
4468
  8
240
  6
CONTINUOUS
 10
76.749999999999872
 20
29.750000000000028
 30
0.0
 11
76.499999999999872
 21
30.000000000000028
 31
0.0
1001
GRPNAME
1000
PASTMD0P
  0
ARC
  5
4469
  8
240
  6
CONTINUOUS
 10
97.699999999999875
 20
23.720494171816199
 30
0.0
 40
5.0
 50
0.0
 51
85.000000000000185
  0
LINE
  5
446A
  8
240
  6
CONTINUOUS
 10
98.135778713738233
 20
28.701467662274929
 30
0.0
 11
91.866025403784349
 21
29.250000000000028
 31
0.0
  0
LINE
  5
446B
  8
240
  6
CONTINUOUS
 10
91.866025403784349
 20
29.250000000000028
 30
0.0
 11
89.999999999999872
 21
29.750000000000028
 31
0.0
1001
GRPNAME
1000
PASTMD0P
  0
LINE
  5
446C
  8
241
  6
CONTINUOUS
 10
58.499999999999993
 20
27.00000000000006
 30
0.0
 11
58.499999999999993
 21
-27.000000000000249
 31
0.0
  0
LINE
  5
446D
  8
240
  6
CONTINUOUS
 10
58.50000000000022
 20
-27.00000000000021
 30
0.0
 11
58.500000000000043
 21
-28.84999999999982
 31
0.0
  0
LINE
  5
446E
  8
240
  6
CONTINUOUS
 10
91.866025403784349
 20
-29.249999999999972
 30
0.0
 11
98.135778713738233
 21
-28.701467662274819
 31
0.0
  0
LINE
  5
446F
  8
240
  6
CONTINUOUS
 10
102.6999999999999
 20
23.72049417181616
 30
0.0
 11
102.6999999999999
 21
19.62510707649707
 31
0.0
  0
ARC
  5
4470
  8
240
  6
CONTINUOUS
 10
60.000000000000021
 20
-28.849999999999991
 30
0.0
 40
1.5
 50
179.99999999999341
 51
270.0
  0
LINE
  5
4471
  8
240
  6
CONTINUOUS
 10
59.999999999999659
 20
30.350000000000051
 30
0.0
 11
61.5
 21
30.350000000000399
 31
0.0
  0
LINE
  5
4472
  8
240
  6
CONTINUOUS
 10
61.849999999999248
 20
30.000000000000028
 30
0.0
 11
61.499999999999829
 21
30.350000000000051
 31
0.0
  0
ARC
  5
4473
  8
240
  6
CONTINUOUS
 10
60.0
 20
28.850000000000051
 30
0.0
 40
1.5
 50
90.000000000013017
 51
180.0
1001
GRPNAME
1000
PASTMD0P
  0
ARC
  5
4474
  8
241
  6
CONTINUOUS
 10
89.678679656440337
 20
20.929196114519129
 30
0.0
 40
2.121320343559657
 50
270.0
 51
90.0
  0
ARC
  5
4475
  8
241
  6
CONTINUOUS
 10
79.921320343559657
 20
20.929196114519129
 30
0.0
 40
2.121320343559645
 50
90.0
 51
270.0
  0
LINE
  5
4476
  8
241
  6
CONTINUOUS
 10
91.866025403784349
 20
29.250000000000028
 30
0.0
 11
91.86602540378432
 21
1.2204459116852391
 31
0.0
  0
LINE
  5
4477
  8
241
  6
CONTINUOUS
 10
79.921320343559657
 20
23.050516458078778
 30
0.0
 11
89.678679656440337
 21
23.050516458078778
 31
0.0
  0
LINE
  5
4478
  8
241
  6
CONTINUOUS
 10
79.499999999999929
 20
29.750000000000028
 30
0.0
 11
79.499999999999929
 21
23.008255798150831
 31
0.0
  0
LINE
  5
4479
  8
241
  6
CONTINUOUS
 10
89.999999999999943
 20
29.750000000000028
 30
0.0
 11
89.999999999999943
 21
23.026039751229991
 31
0.0
  0
LINE
  5
447A
  8
241
  6
CONTINUOUS
 10
79.921320343559657
 20
21.036426740296712
 30
0.0
 11
89.678679656440337
 21
21.036426740296712
 31
0.0
  0
LINE
  5
447B
  8
241
  6
CONTINUOUS
 10
79.921320343559657
 20
18.807875770959448
 30
0.0
 11
89.678679656440337
 21
18.807875770959448
 31
0.0
  0
LINE
  5
447C
  8
241
  6
CONTINUOUS
 10
79.499999999999929
 20
18.850136430887432
 30
0.0
 11
79.499999999999929
 21
3.0331501776206231
 31
0.0
  0
ARC
  5
447D
  8
241
  6
CONTINUOUS
 10
79.921320343559657
 20
18.915106396737041
 30
0.0
 40
2.121320343559661
 50
90.0
 51
151.65852119012669
  0
LINE
  5
447E
  8
241
  6
CONTINUOUS
 10
88.799999866719972
 20
3.3000000000000189
 30
0.0
 11
80.799999665469784
 21
3.3000000000000078
 31
0.0
  0
LINE
  5
447F
  8
241
  6
CONTINUOUS
 10
88.799999999999983
 20
3.3000000000000189
 30
0.0
 11
80.800000000000026
 21
3.300000000000022
 31
0.0
  0
LINE
  5
4480
  8
241
  6
CONTINUOUS
 10
80.800000000000026
 20
3.0000000000000271
 30
0.0
 11
88.799999999999983
 21
3.0000000000000231
 31
0.0
  0
LINE
  5
4481
  8
241
  6
CONTINUOUS
 10
89.999999999999943
 20
18.832352477808271
 30
0.0
 11
89.999999999999943
 21
3.0740852297879471
 31
0.0
  0
ARC
  5
4482
  8
241
  6
CONTINUOUS
 10
89.678679656440337
 20
18.915106396737041
 30
0.0
 40
2.121320343559657
 50
28.341478809871969
 51
90.0
  0
ARC
  5
4483
  8
241
  6
CONTINUOUS
 10
80.800000000000026
 20
0.0000000000000269
 30
0.0
 40
3.0
 50
90.0
 51
270.0
  0
ARC
  5
4484
  8
241
  6
CONTINUOUS
 10
88.799999999999983
 20
0.000000000000028
 30
0.0
 40
3.3000000000000109
 50
270.0
 51
90.0
  0
ARC
  5
4485
  8
241
  6
CONTINUOUS
 10
88.799999999999983
 20
0.000000000000028
 30
0.0
 40
3.0
 50
270.0
 51
90.0
  0
LINE
  5
4486
  8
240
  6
CONTINUOUS
 10
55.500000000000107
 20
-26.0
 30
0.0
 11
57.5
 21
-26.0
 31
0.0
1001
GRPNAME
1000
PASTMD04
  0
LINE
  5
4487
  8
250
  6
CONTINUOUS
 10
77.000000000000014
 20
-29.999999999999972
 30
0.0
 11
127.0
 21
-29.999999999999972
 31
0.0
  0
LINE
  5
4488
  8
250
  6
CONTINUOUS
 10
77.000000000000014
 20
30.000000000000028
 30
0.0
 11
127.0
 21
30.000000000000028
 31
0.0
  0
LINE
  5
4489
  8
250
  6
CONTINUOUS
 10
126.0
 20
-27.769999999999971
 30
0.0
 11
126.0
 21
27.770000000000039
 31
0.0
  0
LINE
  5
448A
  8
250
  6
CONTINUOUS
 10
126.3716666666666
 20
-27.769999999999971
 30
0.0
 11
126.0
 21
-29.999999999999972
 31
0.0
  0
LINE
  5
448B
  8
250
  6
CONTINUOUS
 10
125.6283333333333
 20
-27.769999999999971
 30
0.0
 11
126.0
 21
-29.999999999999972
 31
0.0
  0
LINE
  5
448C
  8
250
  6
CONTINUOUS
 10
126.0
 20
-29.999999999999972
 30
0.0
 11
126.0
 21
-27.769999999999971
 31
0.0
  0
LINE
  5
448D
  8
250
  6
CONTINUOUS
 10
125.6283333333333
 20
27.770000000000039
 30
0.0
 11
126.0
 21
30.000000000000028
 31
0.0
  0
LINE
  5
448E
  8
250
  6
CONTINUOUS
 10
126.3716666666666
 20
27.770000000000039
 30
0.0
 11
126.0
 21
30.000000000000028
 31
0.0
  0
LINE
  5
448F
  8
250
  6
CONTINUOUS
 10
126.0
 20
30.000000000000028
 30
0.0
 11
126.0
 21
27.770000000000039
 31
0.0
  0
TEXT
  5
4490
  8
250
  6
CONTINUOUS
 10
125.0
 20
-7.4174794191827909
 30
0.0
 40
2.799999999999998
  1
\U+22052.362
 50
90.0
1001
ACAD
1000
MTEXTBEGIN
1070
    73
1070
     1
1070
    44
1040
1.0
1070
    74
1070
     0
1000
MTEXTEND
  0
LINE
  5
4497
  8
243
  6
HIDDEN2
 10
41.466025399999992
 20
9.5250000000000394
 30
0.0
 11
104.0
 21
9.5250000000000394
 31
0.0
1001
GRPNAME
1000
PASTMD40
  0
LINE
  5
449E
  8
243
  6
HIDDEN2
 10
41.466025399999999
 20
-9.5250000000000004
 30
0.0
 11
104.0
 21
-9.5249999999999435
 31
0.0
1001
GRPNAME
1000
PASTMD40
  0
LINE
  5
45BC
  8
240
  6
CONTINUOUS
 10
102.6999999999999
 20
19.62510707649707
 30
0.0
 11
103.9999999999999
 21
19.62510707649707
 31
0.0
1001
GRPNAME
1000
PASTMD3V
  0
LINE
  5
46F5
  8
241
 10
45.0
 20
-33.667624489073802
 30
0.0
 11
45.000000000000057
 21
33.66762448907393
 31
0.0
  0
LINE
  5
4720
  8
241
 10
55.500000000000107
 20
-26.0
 30
0.0
 11
55.500000000000107
 21
26.00000000000006
 31
0.0
  0
ARC
  5
4724
  8
240
  6
CONTINUOUS
 10
97.699999999999875
 20
-23.72049417181616
 30
0.0
 40
5.0
 50
274.99999999999972
 51
0.0
  0
LINE
  5
4725
  8
240
  6
CONTINUOUS
 10
102.6999999999999
 20
-23.720494171816121
 30
0.0
 11
102.6999999999999
 21
-19.625107076497031
 31
0.0
  0
LINE
  5
4726
  8
240
  6
CONTINUOUS
 10
102.6999999999999
 20
-19.625107076497031
 30
0.0
 11
103.9999999999999
 21
-19.625107076497031
 31
0.0
1001
GRPNAME
1000
PASTMD3V
  0
LINE
  5
4727
  8
240
  6
CONTINUOUS
 10
104.0000000000003
 20
19.62510707649707
 30
0.0
 11
103.9999999999999
 21
-19.625107076497031
 31
0.0
1001
GRPNAME
1000
PASTMD3Y
  0
LINE
  5
4728
  8
241
 10
102.6999999999999
 20
19.62510707649707
 30
0.0
 11
102.6999999999999
 21
-19.625107076497031
 31
0.0
  0
TEXT
  5
477C
  8
250
  6
CONTINUOUS
 10
105.449271175935
 20
13.613517841677609
 30
0.0
 40
2.799999999999998
  1
Coolant
  7
YOKO
 11
105.449271175935
 21
13.613517841677609
 31
0.0
 73
     1
  0
LINE
  5
477D
  8
250
  6
CONTINUOUS
 10
118.97856228415471
 20
12.37166666666673
 30
0.0
 11
121.2085622841547
 21
12.00000000000006
 31
0.0
  0
LINE
  5
477E
  8
250
  6
CONTINUOUS
 10
118.97856228415471
 20
11.628333333333391
 30
0.0
 11
121.2085622841547
 21
12.00000000000006
 31
0.0
  0
LINE
  5
477F
  8
250
  6
CONTINUOUS
 10
121.2085622841547
 20
12.00000000000006
 30
0.0
 11
118.97856228415471
 21
12.00000000000006
 31
0.0
  0
LINE
  5
4780
  8
250
  6
CONTINUOUS
 10
118.97856228415471
 20
12.00000000000006
 30
0.0
 11
105.69999999999889
 21
12.00000000000006
 31
0.0
  0
LINE
  5
4781
  8
250
  6
CONTINUOUS
 10
118.9785622841551
 20
-11.628333333333281
 30
0.0
 11
121.20856228415509
 21
-11.999999999999959
 31
0.0
  0
LINE
  5
4782
  8
250
  6
CONTINUOUS
 10
118.9785622841551
 20
-12.371666666666631
 30
0.0
 11
121.20856228415509
 21
-11.999999999999959
 31
0.0
  0
LINE
  5
4783
  8
250
  6
CONTINUOUS
 10
121.20856228415509
 20
-11.999999999999959
 30
0.0
 11
118.9785622841551
 21
-11.999999999999959
 31
0.0
  0
LINE
  5
4784
  8
250
  6
CONTINUOUS
 10
118.9785622841551
 20
-11.999999999999959
 30
0.0
 11
105.69999999999931
 21
-11.999999999999959
 31
0.0
  0
TEXT
  5
4785
  8
250
  6
CONTINUOUS
 10
105.286900841792
 20
-16.815545675999331
 30
0.0
 40
2.799999999999998
  1
Coolant
  7
YOKO
 11
105.286900841792
 21
-16.815545675999331
 31
0.0
 73
     1
  0
LINE
  5
4786
  8
250
  6
CONTINUOUS
 10
36.999999999999773
 20
9.5249999999999755
 30
0.0
 11
36.99999999999978
 21
71.0
 31
0.0
  0
LINE
  5
4787
  8
250
  6
CONTINUOUS
 10
103.9999999999999
 20
20.12510707649707
 30
0.0
 11
103.9999999999999
 21
71.0
 31
0.0
  0
LINE
  5
4788
  8
250
  6
CONTINUOUS
 10
39.229999999999769
 20
70.0
 30
0.0
 11
101.7699999999999
 21
70.0
 31
0.0
  0
LINE
  5
478C
  8
250
  6
CONTINUOUS
 10
103.9999999999999
 20
20.12510707649707
 30
0.0
 11
103.9999999999999
 21
78.0
 31
0.0
  0
LINE
  5
478D
  8
250
  6
CONTINUOUS
 10
-0.0000000000000787
 20
63.000000000000242
 30
0.0
 11
-0.0000000000000778
 21
78.0
 31
0.0
  0
LINE
  5
478E
  8
250
  6
CONTINUOUS
 10
101.7699999999999
 20
77.0
 30
0.0
 11
2.22999999999992
 21
77.0
 31
0.0
  0
LINE
  5
4792
  8
250
  6
CONTINUOUS
 10
104.5000000000002
 20
9.5250000000000394
 30
0.0
 11
120.0
 21
9.5250000000000359
 31
0.0
  0
LINE
  5
4793
  8
250
  6
CONTINUOUS
 10
104.5
 20
-9.5249999999999382
 30
0.0
 11
120.0
 21
-9.5249999999999435
 31
0.0
  0
LINE
  5
4794
  8
250
  6
CONTINUOUS
 10
119.0
 20
7.295000000000031
 30
0.0
 11
119.0
 21
-7.2949999999999422
 31
0.0
  0
TEXT
  5
4798
  8
250
  6
CONTINUOUS
 10
62.05006943808074
 20
71.000000000000014
 30
0.0
 40
2.799999999999998
  1
(max.2.63)
  0
LINE
  5
4799
  8
250
  6
CONTINUOUS
 10
101.7699999999999
 20
70.37166666666667
 30
0.0
 11
103.9999999999999
 21
70.0
 31
0.0
  0
LINE
  5
479A
  8
250
  6
CONTINUOUS
 10
101.7699999999999
 20
69.62833333333333
 30
0.0
 11
103.9999999999999
 21
70.0
 31
0.0
  0
LINE
  5
479B
  8
250
  6
CONTINUOUS
 10
103.9999999999999
 20
70.0
 30
0.0
 11
101.7699999999999
 21
70.0
 31
0.0
  0
LINE
  5
479C
  8
250
  6
CONTINUOUS
 10
39.229999999999769
 20
69.62833333333333
 30
0.0
 11
36.99999999999978
 21
70.0
 31
0.0
  0
LINE
  5
479D
  8
250
  6
CONTINUOUS
 10
39.229999999999769
 20
70.37166666666667
 30
0.0
 11
36.99999999999978
 21
70.0
 31
0.0
  0
LINE
  5
479E
  8
250
  6
CONTINUOUS
 10
36.99999999999978
 20
70.0
 30
0.0
 11
39.229999999999769
 21
70.0
 31
0.0
  0
TEXT
  5
479F
  8
250
  6
CONTINUOUS
 10
47.733333333333249
 20
78.000000000000014
 30
0.0
 40
2.799999999999998
  1
4.094
  0
LINE
  5
47A0
  8
250
  6
CONTINUOUS
 10
2.22999999999992
 20
76.62833333333333
 30
0.0
 11
-0.0000000000000778
 21
77.0
 31
0.0
  0
LINE
  5
47A1
  8
250
  6
CONTINUOUS
 10
2.22999999999992
 20
77.371666666666655
 30
0.0
 11
-0.0000000000000778
 21
77.0
 31
0.0
  0
LINE
  5
47A2
  8
250
  6
CONTINUOUS
 10
-0.0000000000000778
 20
77.0
 30
0.0
 11
2.22999999999992
 21
77.0
 31
0.0
  0
LINE
  5
47A3
  8
250
  6
CONTINUOUS
 10
101.7699999999999
 20
77.371666666666655
 30
0.0
 11
103.9999999999999
 21
77.0
 31
0.0
  0
LINE
  5
47A4
  8
250
  6
CONTINUOUS
 10
101.7699999999999
 20
76.62833333333333
 30
0.0
 11
103.9999999999999
 21
77.0
 31
0.0
  0
LINE
  5
47A5
  8
250
  6
CONTINUOUS
 10
103.9999999999999
 20
77.0
 30
0.0
 11
101.7699999999999
 21
77.0
 31
0.0
  0
TEXT
  5
47A6
  8
250
  6
CONTINUOUS
 10
118.0
 20
-5.9830338652106461
 30
0.0
 40
2.799999999999998
  1
\U+2205.750
 50
90.0
  0
LINE
  5
47A7
  8
250
  6
CONTINUOUS
 10
119.3716666666666
 20
-7.2949999999999422
 30
0.0
 11
119.0
 21
-9.5249999999999435
 31
0.0
  0
LINE
  5
47A8
  8
250
  6
CONTINUOUS
 10
118.6283333333333
 20
-7.2949999999999422
 30
0.0
 11
119.0
 21
-9.5249999999999435
 31
0.0
  0
LINE
  5
47A9
  8
250
  6
CONTINUOUS
 10
119.0
 20
-9.5249999999999435
 30
0.0
 11
119.0
 21
-7.2949999999999422
 31
0.0
  0
LINE
  5
47AA
  8
250
  6
CONTINUOUS
 10
118.6283333333333
 20
7.295000000000031
 30
0.0
 11
119.0
 21
9.5250000000000359
 31
0.0
  0
LINE
  5
47AB
  8
250
  6
CONTINUOUS
 10
119.3716666666666
 20
7.295000000000031
 30
0.0
 11
119.0
 21
9.5250000000000359
 31
0.0
  0
LINE
  5
47AC
  8
250
  6
CONTINUOUS
 10
119.0
 20
9.5250000000000359
 30
0.0
 11
119.0
 21
7.295000000000031
 31
0.0
  0
VIEWPORT
  5
22
 67
     1
  8
0
 10
261.51769911504419
 20
148.5
 30
0.0
 40
523.0353982300885
 41
297.0
 68
     1
 69
     1
1001
ACAD
1000
MVIEW
1002
{
1070
    16
1010
0.0
1020
0.0
1030
0.0
1010
0.0
1020
0.0
1030
1.0
1040
0.0
1040
297.0
1040
261.51769911504419
1040
148.5
1040
50.0
1040
0.0
1040
0.0
1070
     0
1070
   100
1070
     1
1070
     1
1070
     0
1070
     0
1070
     0
1070
     0
1040
0.0
1040
0.0
1040
0.0
1040
1.0
1040
1.0
1040
10.0
1040
10.0
1070
     0
1002
{
1002
}
1002
}
1001
GENIUS_GENODEF_13
1002
{
1000
HIER
1070
     0
1002
}
1002
{
1000
MANEDIT
1070
     0
1002
}
1002
{
1000
NOSEL
1070
     0
1002
}
1002
{
1000
BEHIND
1070
     0
1002
}
1002
{
1000
OTHER
1070
     0
1002
}
1002
{
1000
REACTOR
1002
}
1001
GENIUS_GENOBJ-N-SDF_13
1002
{
1000
OWNER
1000
GEN
1002
}
1001
GENIUS_GENSCREG_15
1000
PF
1040
1.0
1000
DF
1040
1.0
1000
MIN
1011
0.0
1021
0.0
1031
0.0
1021
0.0
1031
0.0
1000
MAX
1011
523.0353982300885
1021
0.0
1031
0.0
1021
297.0
1031
0.0
1000
FLAGS
1070
     4
  0
ENDSEC
  0
EOF
