  0
SECTION
  2
HEADER
  9
$ACADVER
  1
AC1009
  9
$INSBASE
 10
0.0
 20
0.0
 30
0.0
  9
$EXTMIN
 10
-71.047619047618738
 20
-62.500000000001663
 30
0.0
  9
$EXTMAX
 10
176.0
 20
96.000000000000028
 30
0.0
  9
$LIMMIN
 10
0.0
 20
0.0
  9
$LIMMAX
 10
297.0
 20
210.0
  9
$ORTHOMODE
 70
     0
  9
$REGENMODE
 70
     1
  9
$FILLMODE
 70
     1
  9
$QTEXTMODE
 70
     0
  9
$MIRRTEXT
 70
     1
  9
$DRAGMODE
 70
     2
  9
$LTSCALE
 40
10.0
  9
$OSMODE
 70
    37
  9
$ATTMODE
 70
     1
  9
$TEXTSIZE
 40
3.0
  9
$TRACEWID
 40
1.0
  9
$TEXTSTYLE
  7
YOKO
  9
$CLAYER
  8
240
  9
$CELTYPE
  6
BYLAYER
  9
$CECOLOR
 62
   256
  9
$DIMSCALE
 40
1.0
  9
$DIMASZ
 40
2.2299999999999991
  9
$DIMEXO
 40
0.5
  9
$DIMDLI
 40
7.0
  9
$DIMRND
 40
0.0
  9
$DIMDLE
 40
0.0
  9
$DIMEXE
 40
1.0
  9
$DIMTP
 40
0.0
  9
$DIMTM
 40
0.01
  9
$DIMTXT
 40
2.799999999999998
  9
$DIMCEN
 40
0.0
  9
$DIMTSZ
 40
0.0
  9
$DIMTOL
 70
     0
  9
$DIMLIM
 70
     0
  9
$DIMTIH
 70
     0
  9
$DIMTOH
 70
     0
  9
$DIMSE1
 70
     0
  9
$DIMSE2
 70
     0
  9
$DIMTAD
 70
     3
  9
$DIMZIN
 70
     9
  9
$DIMBLK
  1
OPEN
  9
$DIMASO
 70
     1
  9
$DIMSHO
 70
     1
  9
$DIMPOST
  1

  9
$DIMAPOST
  1

  9
$DIMALT
 70
     0
  9
$DIMALTD
 70
     2
  9
$DIMALTF
 40
25.399999999999999
  9
$DIMLFAC
 40
1.0
  9
$DIMTOFL
 70
     1
  9
$DIMTVP
 40
0.0
  9
$DIMTIX
 70
     1
  9
$DIMSOXD
 70
     0
  9
$DIMSAH
 70
     0
  9
$DIMBLK1
  1

  9
$DIMBLK2
  1

  9
$DIMSTYLE
  2
BIGT
  9
$DIMCLRD
 70
   256
  9
$DIMCLRE
 70
   256
  9
$DIMCLRT
 70
    40
  9
$DIMTFAC
 40
1.0
  9
$DIMGAP
 40
1.0
  9
$LUNITS
 70
     2
  9
$LUPREC
 70
     6
  9
$SKETCHINC
 40
1.0
  9
$FILLETRAD
 40
0.0
  9
$AUNITS
 70
     0
  9
$AUPREC
 70
     6
  9
$MENU
  1
.
  9
$ELEVATION
 40
0.0
  9
$PELEVATION
 40
0.0
  9
$THICKNESS
 40
0.0
  9
$LIMCHECK
 70
     0
  9
$BLIPMODE
 70
     0
  9
$CHAMFERA
 40
0.2
  9
$CHAMFERB
 40
0.2
  9
$SKPOLY
 70
     0
  9
$TDCREATE
 40
2457940.350520174
  9
$TDUPDATE
 40
2458142.4965584259
  9
$TDINDWG
 40
0.0833095833
  9
$TDUSRTIMER
 40
0.0833021412
  9
$USRTIMER
 70
     1
  9
$ANGBASE
 50
0.0
  9
$ANGDIR
 70
     0
  9
$PDMODE
 70
     1
  9
$PDSIZE
 40
0.0
  9
$PLINEWID
 40
0.0
  9
$COORDS
 70
     1
  9
$SPLFRAME
 70
     0
  9
$SPLINETYPE
 70
     6
  9
$SPLINESEGS
 70
     4
  9
$ATTDIA
 70
     1
  9
$ATTREQ
 70
     1
  9
$HANDLING
 70
     1
  9
$HANDSEED
  5
529C
  9
$SURFTAB1
 70
     6
  9
$SURFTAB2
 70
     6
  9
$SURFTYPE
 70
     6
  9
$SURFU
 70
     6
  9
$SURFV
 70
     6
  9
$UCSNAME
  2

  9
$UCSORG
 10
0.0
 20
0.0
 30
0.0
  9
$UCSXDIR
 10
1.0
 20
0.0
 30
0.0
  9
$UCSYDIR
 10
0.0
 20
1.0
 30
0.0
  9
$PUCSNAME
  2

  9
$PUCSORG
 10
0.0
 20
0.0
 30
0.0
  9
$PUCSXDIR
 10
1.0
 20
0.0
 30
0.0
  9
$PUCSYDIR
 10
0.0
 20
1.0
 30
0.0
  9
$USERI1
 70
     1
  9
$USERI2
 70
     0
  9
$USERI3
 70
     0
  9
$USERI4
 70
     0
  9
$USERI5
 70
     0
  9
$USERR1
 40
0.0
  9
$USERR2
 40
0.0
  9
$USERR3
 40
0.0
  9
$USERR4
 40
0.0
  9
$USERR5
 40
0.0
  9
$WORLDVIEW
 70
     1
  9
$SHADEDGE
 70
     3
  9
$SHADEDIF
 70
    70
  9
$TILEMODE
 70
     1
  9
$MAXACTVP
 70
    16
  9
$PLIMCHECK
 70
     0
  9
$PEXTMIN
 10
1.0000000000000000E+020
 20
1.0000000000000000E+020
 30
1.0000000000000000E+020
  9
$PEXTMAX
 10
-1.0000000000000000E+020
 20
-1.0000000000000000E+020
 30
-1.0000000000000000E+020
  9
$PLIMMIN
 10
0.0
 20
0.0
  9
$PLIMMAX
 10
420.0
 20
297.0
  9
$UNITMODE
 70
     0
  9
$VISRETAIN
 70
     1
  9
$PLINEGEN
 70
     0
  9
$PSLTSCALE
 70
     1
  0
ENDSEC
  0
SECTION
  2
TABLES
  0
TABLE
  2
VPORT
 70
     1
  0
VPORT
  2
*ACTIVE
 70
     0
 10
0.0
 20
0.0
 11
1.0
 21
1.0
 12
57.606164384818008
 22
4.6093351486649956
 13
0.0
 23
0.0
 14
7.0
 24
7.0
 15
7.0
 25
7.0
 16
0.0
 26
0.0
 36
1.0
 17
0.0
 27
0.0
 37
0.0
 40
276.52399214552128
 41
1.4533622559652919
 42
50.0
 43
0.0
 44
0.0
 50
0.0
 51
0.0
 71
     0
 72
  2000
 73
     1
 74
     0
 75
     0
 76
     1
 77
     0
 78
     0
  0
ENDTAB
  0
TABLE
  2
LTYPE
 70
    17
  0
LTYPE
  2
CONTINUOUS
 70
     0
  3
Solid line
 72
    65
 73
     0
 40
0.0
  0
LTYPE
  2
CENTER2
 70
     0
  3
___ _ ___ _ ___ _ ___ _ ___ _ ___ _ ___ _ ___ _
 72
    65
 73
     4
 40
1.125
 49
0.75
 49
-0.125
 49
0.125
 49
-0.125
  0
LTYPE
  2
HIDDEN2
 70
     0
  3
_ _ _ _ _ _ _ _ _ _ _ _ _ _ _ _ _ _ _ _ _ _ _ _
 72
    65
 73
     2
 40
0.1875
 49
0.125
 49
-0.0625
  0
LTYPE
  2
AMCONSTR
 70
     0
  3
_______________________
 72
    65
 73
     2
 40
9999.0
 49
9999.0
 49
0.0
  0
LTYPE
  2
HIDDEN
 70
     0
  3
Hidden __ __ __ __ __ __ __ __ __ __ __ __ __ _
 72
    65
 73
     2
 40
0.375
 49
0.25
 49
-0.125
  0
LTYPE
  2
PHANTOM2
 70
     0
  3
Phantom (.5x) ___ _ _ ___ _ _ ___ _ _ ___ _ _
 72
    65
 73
     6
 40
1.25
 49
0.625
 49
-0.125
 49
0.125
 49
-0.125
 49
0.125
 49
-0.125
  0
LTYPE
  2
CENTER
 70
     0
  3
Center ____ _ ____ _ ____ _ ____ _ ____ _ ____
 72
    65
 73
     4
 40
2.0
 49
1.25
 49
-0.25
 49
0.25
 49
-0.25
  0
LTYPE
  2
AMZIGZAG2
 70
     0
  3
/\/-/\/-/\/-/\/-/\/-/\/
 72
    65
 73
     2
 40
0.4401
 49
0.0001
 49
-0.4400000000000002
  0
LTYPE
  2
ACANSTGB
 70
     0
  3
__ . . __ . .
 72
    65
 73
     6
 40
0.35433070866
 49
0.15748031496
 49
-0.03937007874
 49
0.03937007874
 49
-0.03937007874
 49
0.03937007874
 49
-0.03937007874
  0
LTYPE
  2
ACANSTGL
 70
     0
  3
_ _ _ _ _
 72
    65
 73
     2
 40
0.11811023622
 49
0.07874015748
 49
-0.03937007874
  0
ENDTAB
  0
TABLE
  2
LAYER
 70
     8
  0
LAYER
  2
0
 70
     0
 62
     7
  6
CONTINUOUS
  0
LAYER
  2
240
 70
     0
 62
     4
  6
CONTINUOUS
  0
LAYER
  2
DEFPOINTS
 70
     0
 62
     7
  6
CONTINUOUS
  0
LAYER
  2
245
 70
     0
 62
     2
  6
CENTER2
  0
LAYER
  2
241
 70
     0
 62
   211
  6
CONTINUOUS
  0
LAYER
  2
243
 70
     0
 62
   211
  6
HIDDEN2
  0
LAYER
  2
247
 70
     0
 62
    60
  6
CONTINUOUS
  0
LAYER
  2
250
 70
     0
 62
     3
  6
CONTINUOUS
  0
ENDTAB
  0
TABLE
  2
STYLE
 70
     6
  0
STYLE
  2
STANDARD
 70
     0
 40
0.0
 41
1.0
 50
0.0
 71
     0
 42
3.0
  3
romans.shx
  4
extfont.shx
  0
STYLE
  2
YOKO
 70
     0
 40
0.0
 41
1.0
 50
0.0
 71
     0
 42
3.0
  3
romans.shx
  4
extfont.shx
  0
STYLE
  2
ACANSGDT
 70
     0
 40
0.0
 41
1.0
 50
0.0
 71
     0
 42
3.0
  3
amgdt.shx
  4

  0
ENDTAB
  0
TABLE
  2
VIEW
 70
     0
  0
ENDTAB
  0
TABLE
  2
UCS
 70
     0
  0
ENDTAB
  0
TABLE
  2
APPID
 70
    44
  0
APPID
  2
ACAD
 70
     0
  0
APPID
  2
ACADANNOTATIVE
 70
     0
  0
APPID
  2
GLOBAL
 70
     0
  0
APPID
  2
DETAIL
 70
     0
  0
APPID
  2
GRPNAME
 70
     0
  0
APPID
  2
GPARA
 70
     0
  0
APPID
  2
MCAD_NO_VIS
 70
     0
  0
APPID
  2
ACAD_TEMP_GRAPHIC
 70
     0
  0
APPID
  2
ACATTRIBSERVICES
 70
     0
  0
APPID
  2
GENIUS_GENSCREG_15
 70
     0
  0
APPID
  2
GENIUS_GENODEF_13
 70
     0
  0
APPID
  2
GENIUS_GENOBJ-N-SDF_13
 70
     0
  0
APPID
  2
GENIUS_GENREC_14
 70
     0
  0
APPID
  2
GENIUS_GENOBJ-N-REC_13
 70
     0
  0
APPID
  2
GENIUS_GENDIMSH_14
 70
     0
  0
APPID
  2
GENIUS_GENOBJ-N-DIM_13
 70
     0
  0
APPID
  2
GENIUS_GENDIM_13
 70
     0
  0
APPID
  2
GENIUS_GENDTOL_13
 70
     0
  0
APPID
  2
GENIUS_GENOLIS_13
 70
     0
  0
APPID
  2
GENIUS_GENOENT_13
 70
     0
  0
APPID
  2
GENIUS_GENOBJ-F-FEM_13
 70
     0
  0
APPID
  2
GENIUS_GENOREF_13
 70
     0
  0
APPID
  2
GENIUS_GEFFEM_13
 70
     0
  0
APPID
  2
GENIUS_GEFFEMP_13
 70
     0
  0
APPID
  2
AD_DRAW
 70
     0
  0
APPID
  2
DESIGNERASSEMBLIES
 70
     0
  0
APPID
  2
ACADM_DIM_EDIT
 70
     0
  0
APPID
  2
AMDT_DM_ADJ
 70
     0
  0
APPID
  2
ITEMNAME
 70
     0
  0
APPID
  2
GENIUS_GENOBJ-N-FIL_13
 70
     0
  0
APPID
  2
GENIUS_GENFIL_13
 70
     0
  0
APPID
  2
GENIUS_GENOBJ-N-CHA_13
 70
     0
  0
APPID
  2
ACAECLAYERSTANDARD
 70
     0
  0
APPID
  2
ACAD_NAV_VCDISPLAY
 70
     0
  0
APPID
  2
ACAD_DSTYLE_DIMJAG
 70
     0
  0
APPID
  2
ACAD_DSTYLE_DIMBREAK
 70
     0
  0
APPID
  2
ACAD_PSEXT
 70
     0
  0
APPID
  2
ACAD_EXEMPT_FROM_CAD_STANDARDS
 70
     0
  0
APPID
  2
ACAD_DSTYLE_DIMINSPECT
 70
     0
  0
APPID
  2
ACAD_MLEADERVER
 70
     0
  0
APPID
  2
ACAD_DSTYLE_DIMARC_LENGTH_
 70
     0
  0
APPID
  2
ACAD_DSTYLE_DIM_LINETYPE
 70
     0
  0
APPID
  2
ACAD_DSTYLE_DIM_EXT1_LINETYPE
 70
     0
  0
APPID
  2
ACAD_DSTYLE_DIM_EXT2_LINETYPE
 70
     0
  0
ENDTAB
  0
TABLE
  2
DIMSTYLE
 70
     9
  0
DIMSTYLE
  2
STANDARD
 70
     0
  3

  4

  5

  6

  7

 40
1.0
 41
0.18
 42
0.0625
 43
0.38
 44
0.18
 45
0.0
 46
0.0
 47
0.0
 48
0.0
140
0.18
141
0.09
142
0.0
143
25.399999999999999
144
1.0
145
0.0
146
1.0
147
0.09
 71
     0
 72
     0
 73
     1
 74
     1
 75
     0
 76
     0
 77
     0
 78
     0
170
     0
171
     2
172
     0
173
     0
174
     0
175
     0
176
     0
177
     0
178
     0
  0
DIMSTYLE
  2
BIGT
 70
     0
  3

  4

  5

  6

  7

 40
1.0
 41
2.2299999999999991
 42
0.5
 43
7.0
 44
1.0
 45
0.0
 46
0.0
 47
0.0
 48
0.01
140
2.799999999999998
141
0.0
142
0.0
143
25.399999999999999
144
1.0
145
0.0
146
1.0
147
1.0
 71
     0
 72
     0
 73
     0
 74
     0
 75
     0
 76
     0
 77
     3
 78
     9
170
     0
171
     2
172
     1
173
     0
174
     1
175
     0
176
   256
177
   256
178
    40
  0
DIMSTYLE
  2
AM_ANSI
 70
     0
  3

  4
mm
  5

  6

  7

 40
1.0
 41
0.12
 42
0.05
 43
0.5
 44
0.1
 45
0.0
 46
0.0
 47
0.1
 48
0.1
140
0.12
141
0.0
142
0.0
143
25.399999999999999
144
1.0
145
0.0
146
0.71
147
0.06
 71
     0
 72
     0
 73
     1
 74
     1
 75
     0
 76
     0
 77
     0
 78
     7
170
     0
171
     2
172
     0
173
     0
174
     0
175
     0
176
   256
177
   256
178
     2
  0
DIMSTYLE
  2
AM_ANSI$3
 70
     0
  3

  4
mm
  5

  6

  7

 40
1.0
 41
0.12
 42
0.05
 43
0.5
 44
0.1
 45
0.0
 46
0.0
 47
0.1
 48
0.1
140
0.12
141
0.0
142
0.0
143
25.399999999999999
144
1.0
145
0.0
146
0.71
147
0.06
 71
     0
 72
     0
 73
     1
 74
     1
 75
     0
 76
     0
 77
     0
 78
     7
170
     0
171
     2
172
     0
173
     0
174
     0
175
     0
176
   256
177
   256
178
     2
  0
DIMSTYLE
  2
AM_ANSI$4
 70
     0
  3

  4
mm
  5

  6

  7

 40
1.0
 41
0.12
 42
0.05
 43
0.5
 44
0.1
 45
0.0
 46
0.0
 47
0.1
 48
0.1
140
0.12
141
0.0
142
0.0
143
25.399999999999999
144
1.0
145
0.0
146
0.71
147
0.06
 71
     0
 72
     0
 73
     1
 74
     1
 75
     0
 76
     0
 77
     0
 78
     7
170
     0
171
     2
172
     0
173
     0
174
     0
175
     0
176
   256
177
   256
178
     2
  0
DIMSTYLE
  2
AM_ANSI$7
 70
     0
  3

  4
mm
  5

  6

  7

 40
1.0
 41
0.12
 42
0.05
 43
0.5
 44
0.1
 45
0.0
 46
0.0
 47
0.1
 48
0.1
140
0.12
141
0.0
142
0.0
143
25.399999999999999
144
1.0
145
0.0
146
0.71
147
0.06
 71
     0
 72
     0
 73
     1
 74
     1
 75
     0
 76
     0
 77
     0
 78
     7
170
     0
171
     2
172
     0
173
     0
174
     0
175
     0
176
   256
177
   256
178
     2
  0
DIMSTYLE
  2
AM_ANSI$SF
 70
     0
  3

  4
mm
  5

  6

  7

 40
1.0
 41
0.12
 42
0.05
 43
0.5
 44
0.1
 45
0.0
 46
0.0
 47
0.1
 48
0.1
140
0.12
141
0.0
142
0.0
143
25.399999999999999
144
1.0
145
0.0
146
0.71
147
0.06
 71
     0
 72
     0
 73
     1
 74
     1
 75
     1
 76
     1
 77
     0
 78
     7
170
     0
171
     2
172
     0
173
     0
174
     0
175
     0
176
   256
177
   256
178
     2
  0
DIMSTYLE
  2
AM_ANSI$SH
 70
     0
  3

  4
mm
  5

  6

  7

 40
1.0
 41
0.12
 42
0.05
 43
0.5
 44
0.1
 45
0.0
 46
0.0
 47
0.1
 48
0.1
140
0.12
141
0.0
142
0.0
143
25.399999999999999
144
1.0
145
0.0
146
0.71
147
0.06
 71
     0
 72
     0
 73
     1
 74
     1
 75
     1
 76
     1
 77
     0
 78
     7
170
     0
171
     2
172
     0
173
     1
174
     0
175
     0
176
   256
177
   256
178
     2
  0
ENDTAB
  0
ENDSEC
  0
SECTION
  2
BLOCKS
  0
BLOCK
  8
0
  2
$MODEL_SPACE
 70
     0
 10
0.0
 20
0.0
 30
0.0
  3
$MODEL_SPACE
  1

  0
ENDBLK
  5
5183
  8
0
  0
BLOCK
 67
     1
  8
0
  2
$PAPER_SPACE
 70
     0
 10
0.0
 20
0.0
 30
0.0
  3
$PAPER_SPACE
  1

  0
ENDBLK
  5
517F
 67
     1
  8
0
  0
BLOCK
  8
0
  2
_OPEN
 70
     0
 10
0.0
 20
0.0
 30
0.0
  3
_OPEN
  1

  0
LINE
  5
3E1A
  8
0
  6
BYBLOCK
 62
     0
 10
-1.0
 20
0.1666666666666666
 30
0.0
 11
0.0
 21
0.0
 31
0.0
  0
LINE
  5
3E1B
  8
0
  6
BYBLOCK
 62
     0
 10
-1.0
 20
-0.1666666666666666
 30
0.0
 11
0.0
 21
0.0
 31
0.0
  0
LINE
  5
3E1C
  8
0
  6
BYBLOCK
 62
     0
 10
0.0
 20
0.0
 30
0.0
 11
-1.0
 21
0.0
 31
0.0
  0
ENDBLK
  5
3E1D
  8
0
  0
BLOCK
  8
0
  2
_ACMFILLEDHALF
 70
     0
 10
0.0
 20
0.0
 30
0.0
  3
_ACMFILLEDHALF
  1

  0
TRACE
  5
508D
  8
240
 62
     0
 10
-0.8
 20
0.0
 30
0.0
 11
-1.0
 21
0.166666666
 31
0.0
 12
0.0
 22
0.0
 32
0.0
 13
0.0
 23
0.0
 33
0.0
  0
LINE
  5
508E
  8
240
 62
     0
 10
-1.0
 20
0.0
 30
0.0
 11
-0.8
 21
0.0
 31
0.0
  0
ENDBLK
  5
508C
  8
0
  0
ENDSEC
  0
SECTION
  2
ENTITIES
  0
LINE
  5
42CA
  8
250
  6
CONTINUOUS
 10
-39.20135676606543
 20
-60.283382249222207
 30
0.0
 11
-66.134690099398753
 21
-60.283382249222207
 31
0.0
1001
ITEMNAME
1000
LNSP2
  0
LINE
  5
42CB
  8
240
  6
CONTINUOUS
 10
0.0000000000000021
 20
-62.500000000000412
 30
0.0
 11
-0.000000000000028
 21
-48.134252505009783
 31
0.0
  0
LINE
  5
42CC
  8
240
  6
CONTINUOUS
 10
-0.0000000000000787
 20
62.500000000000242
 30
0.0
 11
16.752404735808302
 21
62.500000000000021
 31
0.0
  0
LINE
  5
42CD
  8
241
  6
CONTINUOUS
 10
21.875000000000199
 20
-58.499999999999801
 30
0.0
 11
21.874999999999801
 21
-43.150898020782613
 31
0.0
  0
LINE
  5
42CE
  8
240
  6
CONTINUOUS
 10
23.24759526419157
 20
62.499999999999972
 30
0.0
 11
29.000000000000021
 21
62.499999999999972
 31
0.0
  0
LINE
  5
42CF
  8
240
  6
CONTINUOUS
 10
0.0000000000000021
 20
-62.500000000000412
 30
0.0
 11
16.752404735808302
 21
-62.500000000000071
 31
0.0
  0
LINE
  5
42D0
  8
240
  6
CONTINUOUS
 10
23.24759526419157
 20
-62.500000000000021
 30
0.0
 11
21.875000000000831
 21
-60.122595264193897
 31
0.0
  0
LINE
  5
42D1
  8
240
  6
CONTINUOUS
 10
18.124999999999911
 20
-60.122595264191361
 30
0.0
 11
16.752404735808302
 21
-62.500000000000071
 31
0.0
  0
LINE
  5
42D2
  8
240
  6
CONTINUOUS
 10
21.875000000000199
 20
-58.499999999999801
 30
0.0
 11
18.12500000000162
 21
-58.500000000000043
 31
0.0
  0
LINE
  5
42D3
  8
240
  6
CONTINUOUS
 10
23.24759526419157
 20
-62.500000000000021
 30
0.0
 11
29.000000000000139
 21
-62.49999999999995
 31
0.0
  0
LINE
  5
42D4
  8
240
  6
CONTINUOUS
 10
-62.999999999999901
 20
-44.97793987975902
 30
0.0
 11
-62.999999999999979
 21
-12.50999999999997
 31
0.0
  0
LINE
  5
42D5
  8
240
  6
CONTINUOUS
 10
0.0000000000006439
 20
48.134252505009748
 30
0.0
 11
-62.999999999999901
 21
44.977939879759091
 31
0.0
  0
LINE
  5
42D6
  8
240
  6
CONTINUOUS
 10
-62.999999999999901
 20
12.51
 30
0.0
 11
-53.499999999999972
 21
12.51
 31
0.0
  0
ARC
  5
42D7
  8
240
  6
CONTINUOUS
 10
-53.499999999999972
 20
-10.00999999999995
 30
0.0
 40
2.5
 50
270.0
 51
0.0
  0
ARC
  5
42D8
  8
243
  6
HIDDEN2
 10
-46.499999999999879
 20
-10.009999999999961
 30
0.0
 40
2.5
 50
270.0
 51
0.0
  0
LINE
  5
42D9
  8
240
  6
CONTINUOUS
 10
-50.999999999999972
 20
-10.00999999999995
 30
0.0
 11
-51.000000000000078
 21
10.01000000000003
 31
0.0
  0
LINE
  5
42DA
  8
240
  6
CONTINUOUS
 10
-62.999999999999901
 20
12.51
 30
0.0
 11
-62.999999999999901
 21
44.977939879759091
 31
0.0
  0
LINE
  5
42DB
  8
243
  6
HIDDEN2
 10
-43.999999999999879
 20
-10.00999999999995
 30
0.0
 11
-44.000000000001052
 21
10.01000000000003
 31
0.0
  0
LINE
  5
42DC
  8
240
  6
CONTINUOUS
 10
-62.999999999999979
 20
-12.50999999999997
 30
0.0
 11
-53.499999999999972
 21
-12.50999999999997
 31
0.0
  0
LINE
  5
42DD
  8
243
  6
HIDDEN2
 10
-46.499999999999879
 20
-12.50999999999997
 30
0.0
 11
-53.499999999999879
 21
-12.510000000000099
 31
0.0
  0
LINE
  5
42DE
  8
240
  6
CONTINUOUS
 10
0.0000000000006439
 20
48.134252505009748
 30
0.0
 11
-0.0000000000000787
 21
62.500000000000242
 31
0.0
  0
LINE
  5
42DF
  8
240
  6
CONTINUOUS
 10
29.000000000000021
 20
62.499999999999972
 30
0.0
 11
29.00000000000011
 21
52.500000000000099
 31
0.0
  0
LINE
  5
42E0
  8
240
  6
CONTINUOUS
 10
-0.000000000000028
 20
-48.134252505009783
 30
0.0
 11
-62.999999999999901
 21
-44.97793987975902
 31
0.0
  0
LINE
  5
42E1
  8
241
  6
CONTINUOUS
 10
10.00000000000008
 20
-12.500000000000011
 30
0.0
 11
29.000000000000089
 21
-12.50000000000008
 31
0.0
  0
LINE
  5
42E2
  8
241
  6
CONTINUOUS
 10
5.0000000000000844
 20
-7.5000000000000249
 30
0.0
 11
4.9999999999990621
 21
7.5000000000000568
 31
0.0
  0
ARC
  5
42E3
  8
241
  6
CONTINUOUS
 10
10.00000000000008
 20
-7.5000000000000249
 30
0.0
 40
5.0
 50
180.0
 51
270.0
  0
LINE
  5
42E4
  8
241
  6
CONTINUOUS
 10
10.00000000000008
 20
-39.499999999999922
 30
0.0
 11
29.000000000000139
 21
-39.499999999999972
 31
0.0
  0
LINE
  5
42E5
  8
241
  6
CONTINUOUS
 10
4.999999999999968
 20
-48.435524153249141
 30
0.0
 11
16.7524047358066
 21
-48.435524153249361
 31
0.0
  0
LINE
  5
42E6
  8
241
  6
CONTINUOUS
 10
4.999999999999968
 20
-48.435524153249141
 30
0.0
 11
5.0000000000000284
 21
-44.499999999999908
 31
0.0
  0
ARC
  5
42E7
  8
241
  6
CONTINUOUS
 10
10.00000000000008
 20
-44.499999999999908
 30
0.0
 40
5.0
 50
90.0
 51
180.0
  0
LINE
  5
42E8
  8
241
  6
CONTINUOUS
 10
21.875000000000028
 20
-39.500000000000171
 30
0.0
 11
21.87500000000006
 21
-12.499999999999909
 31
0.0
  0
LINE
  5
42E9
  8
241
  6
CONTINUOUS
 10
18.125000000000082
 20
-39.500000000000128
 30
0.0
 11
18.125000000000131
 21
-12.499999999999879
 31
0.0
  0
LINE
  5
42EA
  8
241
  6
CONTINUOUS
 10
16.752404735808302
 20
-62.500000000001663
 30
0.0
 11
16.752404735808302
 21
-48.435524153249361
 31
0.0
  0
LINE
  5
42EB
  8
241
  6
CONTINUOUS
 10
23.24759526419157
 20
-62.500000000001613
 30
0.0
 11
23.24759526419157
 21
-48.435524153249361
 31
0.0
  0
LINE
  5
42EC
  8
241
  6
CONTINUOUS
 10
23.24759526419157
 20
-39.500000000000171
 30
0.0
 11
23.24759526419157
 21
-12.499999999999909
 31
0.0
  0
LINE
  5
42ED
  8
241
  6
CONTINUOUS
 10
16.752404735808302
 20
-39.500000000000128
 30
0.0
 11
16.752404735808302
 21
-12.499999999999879
 31
0.0
  0
LINE
  5
42EE
  8
241
  6
CONTINUOUS
 10
18.12499999999946
 20
-43.15089802078289
 30
0.0
 11
21.874999999999801
 21
-43.150898020782613
 31
0.0
  0
LINE
  5
42EF
  8
241
  6
CONTINUOUS
 10
16.752404735808302
 20
-48.435524153249361
 30
0.0
 11
18.1249999999994
 21
-45.326332978763638
 31
0.0
  0
LINE
  5
42F0
  8
241
  6
CONTINUOUS
 10
21.874999999999801
 20
-45.326332978763638
 30
0.0
 11
23.24759526419157
 21
-48.435524153249183
 31
0.0
  0
LINE
  5
42F1
  8
241
  6
CONTINUOUS
 10
23.247595264196061
 20
-48.435524153249361
 30
0.0
 11
29.000000000000028
 21
-48.435524153249197
 31
0.0
  0
LINE
  5
42F2
  8
240
  6
CONTINUOUS
 10
18.125000000000011
 20
-60.122595264191759
 30
0.0
 11
18.12500000000162
 21
-58.500000000000043
 31
0.0
  0
LINE
  5
42F3
  8
241
  6
CONTINUOUS
 10
18.125000000000011
 20
-58.499999999999943
 30
0.0
 11
18.12499999999946
 21
-43.15089802078289
 31
0.0
  0
LINE
  5
42F4
  8
240
  6
CONTINUOUS
 10
21.875000000000831
 20
-60.122595264193897
 30
0.0
 11
21.87499999999833
 21
-58.500000000000043
 31
0.0
  0
LINE
  5
42F5
  8
241
  6
CONTINUOUS
 10
-0.0000000000000284
 20
-47.933851703406383
 30
0.0
 11
-0.0000000000000284
 21
48.134252505009719
 31
0.0
  0
LINE
  5
42F6
  8
240
  6
CONTINUOUS
 10
23.247595264191631
 20
62.500000000000021
 30
0.0
 11
21.875000000000881
 21
60.122595264193961
 31
0.0
  0
LINE
  5
42F7
  8
240
  6
CONTINUOUS
 10
18.124999999999972
 20
60.122595264191361
 30
0.0
 11
16.752404735808369
 21
62.500000000000071
 31
0.0
  0
LINE
  5
42F8
  8
240
  6
CONTINUOUS
 10
21.875000000000309
 20
58.499999999999801
 30
0.0
 11
18.12500000000168
 21
58.500000000000043
 31
0.0
  0
LINE
  5
42F9
  8
240
  6
CONTINUOUS
 10
18.125000000000082
 20
60.122595264191801
 30
0.0
 11
18.12500000000168
 21
58.500000000000043
 31
0.0
  0
LINE
  5
42FA
  8
240
  6
CONTINUOUS
 10
21.875000000000881
 20
60.122595264193961
 30
0.0
 11
21.87499999999838
 21
58.500000000000021
 31
0.0
  0
LINE
  5
42FB
  8
241
  6
CONTINUOUS
 10
10.00000000000011
 20
12.50000000000005
 30
0.0
 11
29.000000000000089
 21
12.50000000000008
 31
0.0
  0
ARC
  5
42FC
  8
241
  6
CONTINUOUS
 10
10.00000000000008
 20
7.500000000000056
 30
0.0
 40
5.0
 50
90.0
 51
180.0
  0
LINE
  5
42FD
  8
241
  6
CONTINUOUS
 10
21.87500000000006
 20
12.49999999999984
 30
0.0
 11
21.875000000000139
 21
58.499999999999801
 31
0.0
  0
LINE
  5
42FE
  8
241
  6
CONTINUOUS
 10
23.24759526419157
 20
12.49999999999984
 30
0.0
 11
23.247595264191752
 21
62.499999999999972
 31
0.0
  0
LINE
  5
42FF
  8
241
  6
CONTINUOUS
 10
18.125000000000131
 20
12.49999999999981
 30
0.0
 11
18.125000000000199
 21
58.500000000000043
 31
0.0
  0
LINE
  5
4300
  8
241
  6
CONTINUOUS
 10
16.752404735808302
 20
12.49999999999981
 30
0.0
 11
16.752404735808479
 21
62.500000000000021
 31
0.0
  0
ARC
  5
4301
  8
240
  6
CONTINUOUS
 10
-53.499999999999972
 20
10.010000000000071
 30
0.0
 40
2.5
 50
0.0
 51
90.0
  0
ARC
  5
4302
  8
243
  6
HIDDEN2
 10
-46.499999999999879
 20
10.010000000000071
 30
0.0
 40
2.5
 50
0.0
 51
90.0
  0
LINE
  5
4303
  8
243
  6
HIDDEN2
 10
-46.499999999999879
 20
12.510000000000071
 30
0.0
 11
-53.499999999999879
 21
12.510000000000201
 31
0.0
  0
LINE
  5
4304
  8
240
  6
CONTINUOUS
 10
29.000000000000139
 20
-62.49999999999995
 30
0.0
 11
29.000000000000171
 21
-52.49999999999995
 31
0.0
  0
TEXT
  5
4305
  8
250
  6
CONTINUOUS
 10
-63.868023432732109
 20
-59.283382249222221
 30
0.0
 40
2.799999999999998
  1
HSK-A125
  7
YOKO
1001
ITEMNAME
1000
LNSP3
  0
POLYLINE
  5
4306
  8
250
  6
CONTINUOUS
 66
     1
 10
0.0
 20
0.0
 30
0.0
1001
ACAD
1000
DSTYLE
1002
{
1070
    41
1040
2.0
1002
}
  0
VERTEX
  5
4307
  8
250
  6
CONTINUOUS
 10
-32.282204286245992
 20
-48.299058608858793
 30
0.0
  0
VERTEX
  5
4308
  8
250
  6
CONTINUOUS
 10
-39.20135676606543
 20
-60.283382249222207
 30
0.0
  0
SEQEND
  5
4309
  8
250
  6
CONTINUOUS
  0
LINE
  5
430A
  8
250
  6
CONTINUOUS
 10
-32.570879420840797
 20
-48.1323919421921
 30
0.0
 11
-31.282204286245989
 21
-46.567007801289897
 31
0.0
  0
LINE
  5
430B
  8
250
  6
CONTINUOUS
 10
-31.993529151651181
 20
-48.46572527552545
 30
0.0
 11
-31.282204286245989
 21
-46.567007801289897
 31
0.0
  0
LINE
  5
430C
  8
250
  6
CONTINUOUS
 10
-31.282204286245989
 20
-46.567007801289897
 30
0.0
 11
-32.282204286245992
 21
-48.299058608858793
 31
0.0
  0
LINE
  5
430D
  8
247
  6
CONTINUOUS
 10
12.0
 20
-28.250000000070049
 30
0.0
 11
12.0
 21
-21.557692308030042
 31
0.0
  0
ARC
  5
430E
  8
247
  6
CONTINUOUS
 10
10.25000000006998
 20
-28.250000000070049
 30
0.0
 40
1.7499999999299991
 50
180.0
 51
0.0
  0
ARC
  5
430F
  8
247
  6
CONTINUOUS
 10
10.25000000007004
 20
-21.557692308030042
 30
0.0
 40
1.7499999999299991
 50
0.0
 51
180.0
  0
LINE
  5
4310
  8
247
  6
CONTINUOUS
 10
8.5000000001400693
 20
-27.384615384720021
 30
0.0
 11
11.500000000020011
 21
-28.244851541962031
 31
0.0
  0
LINE
  5
4311
  8
247
  6
CONTINUOUS
 10
9.9230769231600142
 20
-26.484983818335831
 30
0.0
 11
9.9230769231600142
 21
-27.792676125975859
 31
0.0
  0
ARC
  5
4312
  8
247
  6
CONTINUOUS
 10
9.049598667702984
 20
-26.14514381608981
 30
0.0
 40
0.5538165441895349
 50
72.997889675292413
 51
172.92416621851351
  0
ARC
  5
4313
  8
247
  6
CONTINUOUS
 10
8.9360330444658338
 20
-26.56687832302881
 30
0.0
 40
0.9904354236226808
 50
4.7429368522022131
 51
73.849226273266424
1001
GENIUS_GENOBJ-N-FIL_13
1002
{
1000
OWNER
1000
GEN
1002
}
1001
GENIUS_GENODEF_13
1002
{
1000
HIER
1070
     0
1002
}
1002
{
1000
MANEDIT
1070
     0
1002
}
1002
{
1000
NOSEL
1070
     0
1002
}
1002
{
1000
BEHIND
1070
     0
1002
}
1002
{
1000
OTHER
1070
     0
1002
}
1002
{
1000
REACTOR
1002
}
  0
LINE
  5
4314
  8
247
  6
CONTINUOUS
 10
11.500000000020011
 20
-26.93715923432201
 30
0.0
 11
11.500000000020011
 21
-28.244851541962031
 31
0.0
  0
LINE
  5
4315
  8
247
  6
CONTINUOUS
 10
8.5000000001400693
 20
-27.384615384720021
 30
0.0
 11
8.5000000001400693
 21
-26.07692307708
 31
0.0
  0
ARC
  5
4316
  8
247
  6
CONTINUOUS
 10
10.4820242326656
 20
-26.560919636546959
 30
0.0
 40
0.5640818586791229
 50
65.990941652528889
 51
172.26344345906909
  0
ARC
  5
4317
  8
247
  6
CONTINUOUS
 10
10.48742903918663
 20
-27.0382626853471
 30
0.0
 40
1.0176059446230981
 50
5.701985164256504
 51
77.277338436822205
1001
GENIUS_GENOBJ-N-FIL_13
1002
{
1000
OWNER
1000
GEN
1002
}
1001
GENIUS_GENODEF_13
1002
{
1000
HIER
1070
     0
1002
}
1002
{
1000
MANEDIT
1070
     0
1002
}
1002
{
1000
NOSEL
1070
     0
1002
}
1002
{
1000
BEHIND
1070
     0
1002
}
1002
{
1000
OTHER
1070
     0
1002
}
1002
{
1000
REACTOR
1002
}
  0
LINE
  5
4318
  8
247
  6
CONTINUOUS
 10
11.500000000020011
 20
-25.28331308054204
 30
0.0
 11
8.5000000001400693
 21
-24.42307692330003
 31
0.0
  0
LINE
  5
4319
  8
247
  6
CONTINUOUS
 10
8.5000000001400693
 20
-22.000000000319979
 30
0.0
 11
8.5000000001400693
 21
-22.565736619456569
 31
0.0
  0
LINE
  5
431A
  8
247
  6
CONTINUOUS
 10
11.500000000020011
 20
-23.4615384618
 30
0.0
 11
11.500000000020011
 21
-22.846153846440028
 31
0.0
  0
ARC
  5
431B
  8
247
  6
CONTINUOUS
 10
10.58328513597337
 20
-21.708791209122872
 30
0.0
 40
2.2526500823422122
 50
202.3594881415263
 51
254.99324854284609
  0
ARC
  5
431C
  8
247
  6
CONTINUOUS
 10
9.3083126551945341
 20
-22.37406947921324
 30
0.0
 40
0.8906723995727782
 50
94.994589319075374
 51
155.1663289573041
1001
GENIUS_GENOBJ-N-FIL_13
1002
{
1000
OWNER
1000
GEN
1002
}
1001
GENIUS_GENODEF_13
1002
{
1000
HIER
1070
     0
1002
}
1002
{
1000
MANEDIT
1070
     0
1002
}
1002
{
1000
NOSEL
1070
     0
1002
}
1002
{
1000
BEHIND
1070
     0
1002
}
1002
{
1000
OTHER
1070
     0
1002
}
1002
{
1000
REACTOR
1002
}
  0
ARC
  5
431D
  8
247
  6
CONTINUOUS
 10
10.16014588866779
 20
-23.226458886212569
 30
0.0
 40
1.392781735586712
 50
15.846096555780679
 51
82.325137004169122
  0
ARC
  5
431E
  8
247
  6
CONTINUOUS
 10
10.45924343152728
 20
-22.642212725840359
 30
0.0
 40
1.324563662670287
 50
249.7136016704969
 51
321.78874565640581
1001
GENIUS_GENOBJ-N-FIL_13
1002
{
1000
OWNER
1000
GEN
1002
}
1001
GENIUS_GENODEF_13
1002
{
1000
HIER
1070
     0
1002
}
1002
{
1000
MANEDIT
1070
     0
1002
}
1002
{
1000
NOSEL
1070
     0
1002
}
1002
{
1000
BEHIND
1070
     0
1002
}
1002
{
1000
OTHER
1070
     0
1002
}
1002
{
1000
REACTOR
1002
}
  0
LINE
  5
431F
  8
247
  6
CONTINUOUS
 10
10.34615384621998
 20
-22.538461538759972
 30
0.0
 11
10.34615384621998
 21
-21.846153846479972
 31
0.0
  0
LINE
  5
4320
  8
247
  6
CONTINUOUS
 10
8.500000000139952
 20
-28.250000000070049
 30
0.0
 11
8.500000000139952
 21
-27.576923077020052
 31
0.0
  0
LINE
  5
4321
  8
241
  6
CONTINUOUS
 10
29.000000000000171
 20
-52.499999999999922
 30
0.0
 11
29.00000000000006
 21
52.500000000000412
 31
0.0
  0
TEXT
  5
4322
  8
241
  6
CONTINUOUS
 10
-71.999999999999687
 20
91.0
 30
0.0
 40
5.0
  1
HSK-A125-HMC2.000J-6
  7
YOKO
 11
-71.999999999999687
 21
91.0
 31
0.0
 73
     1
  0
LINE
  5
4323
  8
245
  6
CENTER2
 10
-63.0
 20
0.0
 30
0.0
 11
161.0
 21
0.0
 31
0.0
  0
LINE
  5
434C
  8
240
  6
CONTINUOUS
 10
29.000000000000171
 20
-52.49999999999995
 30
0.0
 11
45.000000000000057
 21
-52.499999999999893
 31
0.0
  0
LINE
  5
434D
  8
240
  6
CONTINUOUS
 10
74.700000000013318
 20
-37.108153576203108
 30
0.0
 11
72.699999999986701
 21
-37.139281127520498
 31
0.0
  0
LINE
  5
4350
  8
240
  6
CONTINUOUS
 10
67.700000000000259
 20
-49.499999999999922
 30
0.0
 11
67.700000000000188
 21
-40.950000000000529
 31
0.0
  0
ARC
  5
4351
  8
240
  6
CONTINUOUS
 10
71.700000000000131
 20
-40.9500000000005
 30
0.0
 40
4.0
 50
89.999999999996732
 51
180.0
  0
LINE
  5
4353
  8
240
  6
CONTINUOUS
 10
47.000000000000128
 20
-49.499999999999929
 30
0.0
 11
67.700000000000259
 21
-49.499999999999922
 31
0.0
  0
ARC
  5
4354
  8
240
  6
CONTINUOUS
 10
47.000000000000128
 20
-51.499999999999943
 30
0.0
 40
2.0
 50
90.0
 51
180.0
  0
LINE
  5
4356
  8
240
  6
CONTINUOUS
 10
45.000000000000057
 20
-52.499999999999893
 30
0.0
 11
45.000000000000057
 21
-51.499999999999943
 31
0.0
  0
LINE
  5
4358
  8
241
  6
CONTINUOUS
 10
53.599999999998779
 20
-49.500000000000199
 30
0.0
 11
53.600000000008997
 21
49.500000000000021
 31
0.0
  0
LINE
  5
4359
  8
241
  6
CONTINUOUS
 10
52.400000000000801
 20
-49.500000000000178
 30
0.0
 11
52.400000000017528
 21
49.500000000000021
 31
0.0
  0
LINE
  5
43C1
  8
240
  6
CONTINUOUS
 10
29.00000000000011
 20
52.500000000000099
 30
0.0
 11
45.000000000000213
 21
52.5
 31
0.0
  0
LINE
  5
43C2
  8
240
  6
CONTINUOUS
 10
67.700000000000387
 20
49.499999999999979
 30
0.0
 11
67.700000000000287
 21
40.949999999997992
 31
0.0
  0
ARC
  5
43C4
  8
240
  6
CONTINUOUS
 10
47.000000000000249
 20
51.500000000000021
 30
0.0
 40
2.0
 50
179.9999999999998
 51
269.99999999999972
  0
LINE
  5
43C5
  8
240
  6
CONTINUOUS
 10
45.000000000000213
 20
52.5
 30
0.0
 11
45.000000000000199
 21
51.50000000000005
 31
0.0
  0
LINE
  5
43C6
  8
240
  6
CONTINUOUS
 10
47.000000000000249
 20
49.500000000000021
 30
0.0
 11
67.700000000000387
 21
49.499999999999979
 31
0.0
  0
LINE
  5
43C7
  8
241
  6
CONTINUOUS
 10
45.000000000000057
 20
-51.499999999999943
 30
0.0
 11
45.000000000000199
 21
51.50000000000005
 31
0.0
  0
LINE
  5
46B6
  8
240
  6
CONTINUOUS
 10
154.4000000000095
 20
44.733186891875462
 30
0.0
 11
154.40000000000941
 21
-44.733186891875462
 31
0.0
1001
GRPNAME
1000
PASTMD1C
  0
LINE
  5
46B7
  8
241
  6
CONTINUOUS
 10
126.5660254037938
 20
-51.749999999999929
 30
0.0
 11
126.5660254037938
 21
51.749999999999929
 31
0.0
  0
LINE
  5
46BA
  8
241
  6
CONTINUOUS
 10
124.7000000000114
 20
-52.249999999999893
 30
0.0
 11
124.7000000000114
 21
-38.924768746200762
 31
0.0
  0
ARC
  5
46D1
  8
240
  6
CONTINUOUS
 10
149.4000000000095
 20
44.733186891875462
 30
0.0
 40
5.0
 50
0.0
 51
85.000000000000185
1001
GRPNAME
1000
PASTMD1C
  0
LINE
  5
46D2
  8
240
  6
CONTINUOUS
 10
74.700000000009098
 20
47.499999999995367
 30
0.0
 11
74.700000000009624
 21
37.108153576199101
 31
0.0
  0
ARC
  5
46D3
  8
240
  6
CONTINUOUS
 10
77.700000000009396
 20
51.000000000000171
 30
0.0
 40
2.0
 50
90.0
 51
180.0
  0
LINE
  5
46D4
  8
240
  6
CONTINUOUS
 10
75.700000000009396
 20
48.500000000000171
 30
0.0
 11
75.700000000009396
 21
51.000000000000171
 31
0.0
  0
LINE
  5
46D5
  8
240
  6
CONTINUOUS
 10
75.700000000009396
 20
48.500000000000171
 30
0.0
 11
74.700000000009098
 21
47.499999999995367
 31
0.0
  0
LINE
  5
46D6
  8
240
  6
CONTINUOUS
 10
81.400000000009342
 20
52.300000000000182
 30
0.0
 11
82.500000000009365
 21
52.300000000000182
 31
0.0
  0
LINE
  5
46D7
  8
240
  6
CONTINUOUS
 10
77.700000000009396
 20
53.000000000000171
 30
0.0
 11
80.700000000009396
 21
53.000000000000171
 31
0.0
  0
LINE
  5
46D8
  8
240
  6
CONTINUOUS
 10
80.700000000009339
 20
53.000000000000171
 30
0.0
 11
81.400000000009342
 21
52.300000000000182
 31
0.0
  0
LINE
  5
46D9
  8
240
  6
CONTINUOUS
 10
82.700000000009396
 20
52.500000000000171
 30
0.0
 11
82.500000000009365
 21
52.300000000000182
 31
0.0
  0
LINE
  5
46DA
  8
240
  6
CONTINUOUS
 10
104.7000000000094
 20
52.499999999999929
 30
0.0
 11
82.700000000019287
 21
52.499999999999972
 31
0.0
  0
LINE
  5
46DB
  8
240
  6
CONTINUOUS
 10
107.00000000000939
 20
51.54999999999994
 30
0.0
 11
107.7000000000094
 21
52.249999999999943
 31
0.0
  0
LINE
  5
46DC
  8
240
  6
CONTINUOUS
 10
105.6500000000093
 20
51.54999999999994
 30
0.0
 11
104.7000000000092
 21
52.499999999999929
 31
0.0
  0
LINE
  5
46DD
  8
240
  6
CONTINUOUS
 10
105.6500000000093
 20
51.54999999999994
 30
0.0
 11
107.00000000000939
 21
51.54999999999994
 31
0.0
  0
LINE
  5
46DE
  8
240
  6
CONTINUOUS
 10
124.7000000000114
 20
52.249999999999893
 30
0.0
 11
126.5660254037937
 21
51.749999999999929
 31
0.0
  0
LINE
  5
46DF
  8
240
  6
CONTINUOUS
 10
107.7000000000094
 20
52.249999999999943
 30
0.0
 11
124.7000000000114
 21
52.249999999999893
 31
0.0
  0
LINE
  5
46E0
  8
240
  6
CONTINUOUS
 10
126.5660254037938
 20
51.749999999999929
 30
0.0
 11
149.8357787137478
 21
49.714160382334171
 31
0.0
  0
ARC
  5
46E6
  8
240
  6
CONTINUOUS
 10
77.700000000009396
 20
-51.000000000000171
 30
0.0
 40
2.0
 50
180.0
 51
270.0
  0
LINE
  5
46E7
  8
240
  6
CONTINUOUS
 10
75.700000000009396
 20
-51.000000000000171
 30
0.0
 11
75.700000000009396
 21
-48.500000000000192
 31
0.0
  0
LINE
  5
46E8
  8
240
  6
CONTINUOUS
 10
75.700000000009396
 20
-48.500000000000171
 30
0.0
 11
74.70000000001383
 21
-47.499999999999801
 31
0.0
  0
LINE
  5
46E9
  8
240
  6
CONTINUOUS
 10
81.400000000009342
 20
-52.300000000000182
 30
0.0
 11
82.500000000009365
 21
-52.300000000000182
 31
0.0
  0
LINE
  5
46EA
  8
240
  6
CONTINUOUS
 10
77.700000000009396
 20
-53.000000000000171
 30
0.0
 11
80.700000000009396
 21
-53.000000000000171
 31
0.0
  0
LINE
  5
46EB
  8
240
  6
CONTINUOUS
 10
80.700000000009339
 20
-53.000000000000171
 30
0.0
 11
81.400000000009342
 21
-52.300000000000182
 31
0.0
  0
LINE
  5
46EC
  8
240
  6
CONTINUOUS
 10
82.700000000009396
 20
-52.500000000000171
 30
0.0
 11
82.500000000009365
 21
-52.300000000000182
 31
0.0
  0
LINE
  5
46ED
  8
240
  6
CONTINUOUS
 10
104.7000000000094
 20
-52.499999999999929
 30
0.0
 11
82.700000000019287
 21
-52.499999999999972
 31
0.0
  0
ARC
  5
46EE
  8
240
  6
CONTINUOUS
 10
149.4000000000095
 20
-44.733186891875462
 30
0.0
 40
5.0
 50
274.99999999999972
 51
0.0
1001
GRPNAME
1000
PASTMD1C
  0
LINE
  5
46EF
  8
240
  6
CONTINUOUS
 10
107.00000000000939
 20
-51.54999999999994
 30
0.0
 11
107.7000000000094
 21
-52.249999999999943
 31
0.0
  0
LINE
  5
46F0
  8
240
  6
CONTINUOUS
 10
105.6500000000093
 20
-51.54999999999994
 30
0.0
 11
104.7000000000092
 21
-52.499999999999929
 31
0.0
  0
LINE
  5
46F1
  8
240
  6
CONTINUOUS
 10
105.6500000000093
 20
-51.54999999999994
 30
0.0
 11
107.00000000000939
 21
-51.54999999999994
 31
0.0
  0
LINE
  5
46F2
  8
240
  6
CONTINUOUS
 10
124.7000000000114
 20
-52.249999999999893
 30
0.0
 11
126.5660254037937
 21
-51.749999999999929
 31
0.0
  0
LINE
  5
46F3
  8
240
  6
CONTINUOUS
 10
107.7000000000094
 20
-52.249999999999943
 30
0.0
 11
124.7000000000114
 21
-52.249999999999893
 31
0.0
  0
LINE
  5
46F4
  8
240
  6
CONTINUOUS
 10
126.5660254037938
 20
-51.749999999999929
 30
0.0
 11
149.8357787137478
 21
-49.714160382334171
 31
0.0
  0
LINE
  5
46F5
  8
241
  6
CONTINUOUS
 10
107.7000000000094
 20
-52.250000000004867
 30
0.0
 11
107.7000000000092
 21
-39.151992363811701
 31
0.0
  0
LINE
  5
46F8
  8
241
  6
CONTINUOUS
 10
104.7000000000094
 20
-52.500000000000959
 30
0.0
 11
104.7000000000094
 21
52.500000000000959
 31
0.0
  0
LINE
  5
46F9
  8
241
  6
CONTINUOUS
 10
82.700000000019315
 20
-52.500000000014289
 30
0.0
 11
82.700000000019415
 21
52.499999999999979
 31
0.0
  0
LINE
  5
46FC
  8
241
  6
CONTINUOUS
 10
80.700000000009396
 20
-52.99999999999887
 30
0.0
 11
80.700000000009339
 21
53.000000000000178
 31
0.0
  0
LINE
  5
46FD
  8
241
  6
CONTINUOUS
 10
110.00000000000939
 20
-4.0000000000000551
 30
0.0
 11
122.0000000000105
 21
-4.0000000000000551
 31
0.0
  0
ARC
  5
46FE
  8
241
  6
CONTINUOUS
 10
122.0000000000105
 20
-0.0000000000000568
 30
0.0
 40
4.0
 50
270.0
 51
90.0
  0
ARC
  5
46FF
  8
241
  6
CONTINUOUS
 10
110.00000000000939
 20
-0.0000000000000568
 30
0.0
 40
4.0
 50
90.0
 51
270.0
  0
LINE
  5
4704
  8
241
  6
CONTINUOUS
 10
110.00000000000939
 20
-4.5000000000000844
 30
0.0
 11
122.0000000000105
 21
-4.5000000000000844
 31
0.0
  0
ARC
  5
4705
  8
241
  6
CONTINUOUS
 10
122.0000000000105
 20
-0.0000000000000568
 30
0.0
 40
4.5
 50
270.0
 51
90.0
  0
ARC
  5
4706
  8
241
  6
CONTINUOUS
 10
110.00000000000939
 20
-0.0000000000000568
 30
0.0
 40
4.5
 50
90.0
 51
270.0
  0
LINE
  5
4707
  8
241
  6
CONTINUOUS
 10
110.00000000000961
 20
-34.009477945981807
 30
0.0
 11
122.0000000000103
 21
-34.009477945981807
 31
0.0
  0
LINE
  5
4708
  8
241
  6
CONTINUOUS
 10
109.9999947765202
 20
-39.666332195474702
 30
0.0
 11
122.0000000000103
 21
-39.666332195474702
 31
0.0
  0
POLYLINE
  5
4709
  8
241
  6
CONTINUOUS
 66
     1
 10
0.0
 20
0.0
 30
0.0
 70
     8
  0
VERTEX
  5
4B5D
  8
241
 10
122.0
 20
-39.6663
 30
0.0
 70
    32
  0
VERTEX
  5
4B5E
  8
241
 10
122.098
 20
-39.665500000000002
 30
0.0
 70
    32
  0
VERTEX
  5
4B5F
  8
241
 10
122.196
 20
-39.6629
 30
0.0
 70
    32
  0
VERTEX
  5
4B60
  8
241
 10
122.294
 20
-39.65870000000001
 30
0.0
 70
    32
  0
VERTEX
  5
4B61
  8
241
 10
122.392
 20
-39.652700000000003
 30
0.0
 70
    32
  0
VERTEX
  5
4B62
  8
241
 10
122.48999999999999
 20
-39.645099999999999
 30
0.0
 70
    32
  0
VERTEX
  5
4B63
  8
241
 10
122.587
 20
-39.6357
 30
0.0
 70
    32
  0
VERTEX
  5
4B64
  8
241
 10
122.684
 20
-39.624699999999997
 30
0.0
 70
    32
  0
VERTEX
  5
4B65
  8
241
 10
122.78
 20
-39.612000000000002
 30
0.0
 70
    32
  0
VERTEX
  5
4B66
  8
241
 10
122.876
 20
-39.5976
 30
0.0
 70
    32
  0
VERTEX
  5
4B67
  8
241
 10
122.97199999999999
 20
-39.581600000000002
 30
0.0
 70
    32
  0
VERTEX
  5
4B68
  8
241
 10
123.06699999999999
 20
-39.563899999999997
 30
0.0
 70
    32
  0
VERTEX
  5
4B69
  8
241
 10
123.161
 20
-39.544499999999999
 30
0.0
 70
    32
  0
VERTEX
  5
4B6A
  8
241
 10
123.255
 20
-39.523600000000002
 30
0.0
 70
    32
  0
VERTEX
  5
4B6B
  8
241
 10
123.348
 20
-39.500999999999998
 30
0.0
 70
    32
  0
VERTEX
  5
4B6C
  8
241
 10
123.44
 20
-39.476799999999997
 30
0.0
 70
    32
  0
VERTEX
  5
4B6D
  8
241
 10
123.53100000000001
 20
-39.451000000000001
 30
0.0
 70
    32
  0
VERTEX
  5
4B6E
  8
241
 10
123.621
 20
-39.423699999999997
 30
0.0
 70
    32
  0
VERTEX
  5
4B6F
  8
241
 10
123.70999999999999
 20
-39.394799999999996
 30
0.0
 70
    32
  0
VERTEX
  5
4B70
  8
241
 10
123.798
 20
-39.3643
 30
0.0
 70
    32
  0
VERTEX
  5
4B71
  8
241
 10
123.886
 20
-39.3324
 30
0.0
 70
    32
  0
VERTEX
  5
4B72
  8
241
 10
123.97199999999999
 20
-39.298900000000003
 30
0.0
 70
    32
  0
VERTEX
  5
4B73
  8
241
 10
124.056
 20
-39.2639
 30
0.0
 70
    32
  0
VERTEX
  5
4B74
  8
241
 10
124.14
 20
-39.227499999999999
 30
0.0
 70
    32
  0
VERTEX
  5
4B75
  8
241
 10
124.22199999999999
 20
-39.189700000000002
 30
0.0
 70
    32
  0
VERTEX
  5
4B76
  8
241
 10
124.303
 20
-39.150399999999998
 30
0.0
 70
    32
  0
VERTEX
  5
4B77
  8
241
 10
124.383
 20
-39.109699999999997
 30
0.0
 70
    32
  0
VERTEX
  5
4B78
  8
241
 10
124.461
 20
-39.067700000000002
 30
0.0
 70
    32
  0
VERTEX
  5
4B79
  8
241
 10
124.538
 20
-39.024299999999997
 30
0.0
 70
    32
  0
VERTEX
  5
4B7A
  8
241
 10
124.613
 20
-38.979599999999998
 30
0.0
 70
    32
  0
VERTEX
  5
4B7B
  8
241
 10
124.68600000000001
 20
-38.933599999999998
 30
0.0
 70
    32
  0
VERTEX
  5
4B7C
  8
241
 10
124.758
 20
-38.886400000000002
 30
0.0
 70
    32
  0
VERTEX
  5
4B7D
  8
241
 10
124.828
 20
-38.837899999999998
 30
0.0
 70
    32
  0
VERTEX
  5
4B7E
  8
241
 10
124.89700000000001
 20
-38.78820000000001
 30
0.0
 70
    32
  0
VERTEX
  5
4B7F
  8
241
 10
124.964
 20
-38.737400000000001
 30
0.0
 70
    32
  0
VERTEX
  5
4B80
  8
241
 10
125.029
 20
-38.685400000000001
 30
0.0
 70
    32
  0
VERTEX
  5
4B81
  8
241
 10
125.092
 20
-38.632199999999997
 30
0.0
 70
    32
  0
VERTEX
  5
4B82
  8
241
 10
125.15300000000001
 20
-38.57800000000001
 30
0.0
 70
    32
  0
VERTEX
  5
4B83
  8
241
 10
125.21299999999999
 20
-38.522799999999997
 30
0.0
 70
    32
  0
VERTEX
  5
4B84
  8
241
 10
125.27
 20
-38.466500000000003
 30
0.0
 70
    32
  0
VERTEX
  5
4B85
  8
241
 10
125.32599999999999
 20
-38.409300000000002
 30
0.0
 70
    32
  0
VERTEX
  5
4B86
  8
241
 10
125.379
 20
-38.351100000000002
 30
0.0
 70
    32
  0
VERTEX
  5
4B87
  8
241
 10
125.431
 20
-38.292000000000002
 30
0.0
 70
    32
  0
VERTEX
  5
4B88
  8
241
 10
125.48
 20
-38.231999999999999
 30
0.0
 70
    32
  0
VERTEX
  5
4B89
  8
241
 10
125.52800000000001
 20
-38.171199999999999
 30
0.0
 70
    32
  0
VERTEX
  5
4B8A
  8
241
 10
125.57299999999999
 20
-38.1096
 30
0.0
 70
    32
  0
VERTEX
  5
4B8B
  8
241
 10
125.616
 20
-38.047199999999997
 30
0.0
 70
    32
  0
VERTEX
  5
4B8C
  8
241
 10
125.657
 20
-37.984099999999998
 30
0.0
 70
    32
  0
VERTEX
  5
4B8D
  8
241
 10
125.696
 20
-37.920299999999997
 30
0.0
 70
    32
  0
VERTEX
  5
4B8E
  8
241
 10
125.732
 20
-37.855800000000002
 30
0.0
 70
    32
  0
VERTEX
  5
4B8F
  8
241
 10
125.76600000000001
 20
-37.790799999999997
 30
0.0
 70
    32
  0
VERTEX
  5
4B90
  8
241
 10
125.798
 20
-37.725099999999998
 30
0.0
 70
    32
  0
VERTEX
  5
4B91
  8
241
 10
125.828
 20
-37.658999999999999
 30
0.0
 70
    32
  0
VERTEX
  5
4B92
  8
241
 10
125.855
 20
-37.592300000000002
 30
0.0
 70
    32
  0
VERTEX
  5
4B93
  8
241
 10
125.88
 20
-37.525199999999998
 30
0.0
 70
    32
  0
VERTEX
  5
4B94
  8
241
 10
125.90300000000001
 20
-37.457599999999999
 30
0.0
 70
    32
  0
VERTEX
  5
4B95
  8
241
 10
125.923
 20
-37.389699999999998
 30
0.0
 70
    32
  0
VERTEX
  5
4B96
  8
241
 10
125.941
 20
-37.3215
 30
0.0
 70
    32
  0
VERTEX
  5
4B97
  8
241
 10
125.95699999999999
 20
-37.252899999999997
 30
0.0
 70
    32
  0
VERTEX
  5
4B98
  8
241
 10
125.97
 20
-37.184100000000001
 30
0.0
 70
    32
  0
VERTEX
  5
4B99
  8
241
 10
125.98099999999999
 20
-37.115099999999998
 30
0.0
 70
    32
  0
VERTEX
  5
4B9A
  8
241
 10
125.989
 20
-37.045999999999999
 30
0.0
 70
    32
  0
VERTEX
  5
4B9B
  8
241
 10
125.995
 20
-36.976700000000001
 30
0.0
 70
    32
  0
VERTEX
  5
4B9C
  8
241
 10
125.999
 20
-36.907299999999999
 30
0.0
 70
    32
  0
VERTEX
  5
4B9D
  8
241
 10
126.0
 20
-36.837899999999998
 30
0.0
 70
    32
  0
VERTEX
  5
4B9E
  8
241
 10
125.999
 20
-36.768500000000003
 30
0.0
 70
    32
  0
VERTEX
  5
4B9F
  8
241
 10
125.995
 20
-36.699100000000001
 30
0.0
 70
    32
  0
VERTEX
  5
4BA0
  8
241
 10
125.989
 20
-36.62980000000001
 30
0.0
 70
    32
  0
VERTEX
  5
4BA1
  8
241
 10
125.98099999999999
 20
-36.560699999999997
 30
0.0
 70
    32
  0
VERTEX
  5
4BA2
  8
241
 10
125.97
 20
-36.491700000000002
 30
0.0
 70
    32
  0
VERTEX
  5
4BA3
  8
241
 10
125.95699999999999
 20
-36.422899999999998
 30
0.0
 70
    32
  0
VERTEX
  5
4BA4
  8
241
 10
125.941
 20
-36.354399999999998
 30
0.0
 70
    32
  0
VERTEX
  5
4BA5
  8
241
 10
125.923
 20
-36.286099999999998
 30
0.0
 70
    32
  0
VERTEX
  5
4BA6
  8
241
 10
125.90300000000001
 20
-36.218200000000003
 30
0.0
 70
    32
  0
VERTEX
  5
4BA7
  8
241
 10
125.88
 20
-36.150700000000001
 30
0.0
 70
    32
  0
VERTEX
  5
4BA8
  8
241
 10
125.855
 20
-36.083500000000001
 30
0.0
 70
    32
  0
VERTEX
  5
4BA9
  8
241
 10
125.828
 20
-36.0169
 30
0.0
 70
    32
  0
VERTEX
  5
4BAA
  8
241
 10
125.798
 20
-35.950699999999998
 30
0.0
 70
    32
  0
VERTEX
  5
4BAB
  8
241
 10
125.76600000000001
 20
-35.884999999999998
 30
0.0
 70
    32
  0
VERTEX
  5
4BAC
  8
241
 10
125.732
 20
-35.82
 30
0.0
 70
    32
  0
VERTEX
  5
4BAD
  8
241
 10
125.696
 20
-35.755499999999998
 30
0.0
 70
    32
  0
VERTEX
  5
4BAE
  8
241
 10
125.657
 20
-35.691699999999997
 30
0.0
 70
    32
  0
VERTEX
  5
4BAF
  8
241
 10
125.616
 20
-35.628599999999999
 30
0.0
 70
    32
  0
VERTEX
  5
4BB0
  8
241
 10
125.57299999999999
 20
-35.566200000000009
 30
0.0
 70
    32
  0
VERTEX
  5
4BB1
  8
241
 10
125.52800000000001
 20
-35.504600000000011
 30
0.0
 70
    32
  0
VERTEX
  5
4BB2
  8
241
 10
125.48
 20
-35.44380000000001
 30
0.0
 70
    32
  0
VERTEX
  5
4BB3
  8
241
 10
125.431
 20
-35.383800000000001
 30
0.0
 70
    32
  0
VERTEX
  5
4BB4
  8
241
 10
125.379
 20
-35.3247
 30
0.0
 70
    32
  0
VERTEX
  5
4BB5
  8
241
 10
125.32599999999999
 20
-35.266500000000001
 30
0.0
 70
    32
  0
VERTEX
  5
4BB6
  8
241
 10
125.27
 20
-35.209299999999999
 30
0.0
 70
    32
  0
VERTEX
  5
4BB7
  8
241
 10
125.21299999999999
 20
-35.152999999999999
 30
0.0
 70
    32
  0
VERTEX
  5
4BB8
  8
241
 10
125.15300000000001
 20
-35.097799999999999
 30
0.0
 70
    32
  0
VERTEX
  5
4BB9
  8
241
 10
125.092
 20
-35.043599999999998
 30
0.0
 70
    32
  0
VERTEX
  5
4BBA
  8
241
 10
125.029
 20
-34.990499999999997
 30
0.0
 70
    32
  0
VERTEX
  5
4BBB
  8
241
 10
124.964
 20
-34.938400000000001
 30
0.0
 70
    32
  0
VERTEX
  5
4BBC
  8
241
 10
124.89700000000001
 20
-34.887599999999999
 30
0.0
 70
    32
  0
VERTEX
  5
4BBD
  8
241
 10
124.828
 20
-34.837899999999998
 30
0.0
 70
    32
  0
VERTEX
  5
4BBE
  8
241
 10
124.758
 20
-34.789400000000001
 30
0.0
 70
    32
  0
VERTEX
  5
4BBF
  8
241
 10
124.68600000000001
 20
-34.742199999999997
 30
0.0
 70
    32
  0
VERTEX
  5
4BC0
  8
241
 10
124.613
 20
-34.696199999999997
 30
0.0
 70
    32
  0
VERTEX
  5
4BC1
  8
241
 10
124.538
 20
-34.651499999999999
 30
0.0
 70
    32
  0
VERTEX
  5
4BC2
  8
241
 10
124.461
 20
-34.6081
 30
0.0
 70
    32
  0
VERTEX
  5
4BC3
  8
241
 10
124.383
 20
-34.566099999999999
 30
0.0
 70
    32
  0
VERTEX
  5
4BC4
  8
241
 10
124.303
 20
-34.525399999999998
 30
0.0
 70
    32
  0
VERTEX
  5
4BC5
  8
241
 10
124.22199999999999
 20
-34.486199999999997
 30
0.0
 70
    32
  0
VERTEX
  5
4BC6
  8
241
 10
124.14
 20
-34.448300000000003
 30
0.0
 70
    32
  0
VERTEX
  5
4BC7
  8
241
 10
124.056
 20
-34.41190000000001
 30
0.0
 70
    32
  0
VERTEX
  5
4BC8
  8
241
 10
123.97199999999999
 20
-34.376899999999999
 30
0.0
 70
    32
  0
VERTEX
  5
4BC9
  8
241
 10
123.886
 20
-34.343499999999999
 30
0.0
 70
    32
  0
VERTEX
  5
4BCA
  8
241
 10
123.798
 20
-34.311500000000009
 30
0.0
 70
    32
  0
VERTEX
  5
4BCB
  8
241
 10
123.70999999999999
 20
-34.280999999999999
 30
0.0
 70
    32
  0
VERTEX
  5
4BCC
  8
241
 10
123.621
 20
-34.252099999999999
 30
0.0
 70
    32
  0
VERTEX
  5
4BCD
  8
241
 10
123.53100000000001
 20
-34.224800000000002
 30
0.0
 70
    32
  0
VERTEX
  5
4BCE
  8
241
 10
123.44
 20
-34.198999999999998
 30
0.0
 70
    32
  0
VERTEX
  5
4BCF
  8
241
 10
123.348
 20
-34.174799999999998
 30
0.0
 70
    32
  0
VERTEX
  5
4BD0
  8
241
 10
123.255
 20
-34.152200000000001
 30
0.0
 70
    32
  0
VERTEX
  5
4BD1
  8
241
 10
123.161
 20
-34.13130000000001
 30
0.0
 70
    32
  0
VERTEX
  5
4BD2
  8
241
 10
123.06699999999999
 20
-34.111899999999999
 30
0.0
 70
    32
  0
VERTEX
  5
4BD3
  8
241
 10
122.97199999999999
 20
-34.094200000000001
 30
0.0
 70
    32
  0
VERTEX
  5
4BD4
  8
241
 10
122.876
 20
-34.078200000000002
 30
0.0
 70
    32
  0
VERTEX
  5
4BD5
  8
241
 10
122.78
 20
-34.063800000000001
 30
0.0
 70
    32
  0
VERTEX
  5
4BD6
  8
241
 10
122.684
 20
-34.051099999999998
 30
0.0
 70
    32
  0
VERTEX
  5
4BD7
  8
241
 10
122.587
 20
-34.040100000000002
 30
0.0
 70
    32
  0
VERTEX
  5
4BD8
  8
241
 10
122.48999999999999
 20
-34.030700000000003
 30
0.0
 70
    32
  0
VERTEX
  5
4BD9
  8
241
 10
122.392
 20
-34.023099999999999
 30
0.0
 70
    32
  0
VERTEX
  5
4BDA
  8
241
 10
122.294
 20
-34.017099999999999
 30
0.0
 70
    32
  0
VERTEX
  5
4BDB
  8
241
 10
122.196
 20
-34.012900000000002
 30
0.0
 70
    32
  0
VERTEX
  5
4BDC
  8
241
 10
122.098
 20
-34.010300000000001
 30
0.0
 70
    32
  0
VERTEX
  5
4BDD
  8
241
 10
122.0
 20
-34.009500000000003
 30
0.0
 70
    32
  0
SEQEND
  5
4BDE
  8
241
  0
POLYLINE
  5
470A
  8
241
  6
CONTINUOUS
 66
     1
 10
0.0
 20
0.0
 30
0.0
 70
     8
  0
VERTEX
  5
4BDF
  8
241
 10
110.0
 20
-34.009500000000003
 30
0.0
 70
    32
  0
VERTEX
  5
4BE0
  8
241
 10
109.902
 20
-34.010300000000001
 30
0.0
 70
    32
  0
VERTEX
  5
4BE1
  8
241
 10
109.804
 20
-34.012900000000002
 30
0.0
 70
    32
  0
VERTEX
  5
4BE2
  8
241
 10
109.706
 20
-34.017099999999999
 30
0.0
 70
    32
  0
VERTEX
  5
4BE3
  8
241
 10
109.608
 20
-34.023099999999999
 30
0.0
 70
    32
  0
VERTEX
  5
4BE4
  8
241
 10
109.51000000000001
 20
-34.030700000000003
 30
0.0
 70
    32
  0
VERTEX
  5
4BE5
  8
241
 10
109.413
 20
-34.040100000000002
 30
0.0
 70
    32
  0
VERTEX
  5
4BE6
  8
241
 10
109.316
 20
-34.051099999999998
 30
0.0
 70
    32
  0
VERTEX
  5
4BE7
  8
241
 10
109.22
 20
-34.063800000000001
 30
0.0
 70
    32
  0
VERTEX
  5
4BE8
  8
241
 10
109.124
 20
-34.078200000000002
 30
0.0
 70
    32
  0
VERTEX
  5
4BE9
  8
241
 10
109.02800000000001
 20
-34.094200000000001
 30
0.0
 70
    32
  0
VERTEX
  5
4BEA
  8
241
 10
108.93300000000001
 20
-34.111899999999999
 30
0.0
 70
    32
  0
VERTEX
  5
4BEB
  8
241
 10
108.839
 20
-34.13130000000001
 30
0.0
 70
    32
  0
VERTEX
  5
4BEC
  8
241
 10
108.745
 20
-34.152200000000001
 30
0.0
 70
    32
  0
VERTEX
  5
4BED
  8
241
 10
108.652
 20
-34.174799999999998
 30
0.0
 70
    32
  0
VERTEX
  5
4BEE
  8
241
 10
108.56
 20
-34.198999999999998
 30
0.0
 70
    32
  0
VERTEX
  5
4BEF
  8
241
 10
108.46899999999999
 20
-34.224800000000002
 30
0.0
 70
    32
  0
VERTEX
  5
4BF0
  8
241
 10
108.379
 20
-34.252099999999999
 30
0.0
 70
    32
  0
VERTEX
  5
4BF1
  8
241
 10
108.29000000000001
 20
-34.280999999999999
 30
0.0
 70
    32
  0
VERTEX
  5
4BF2
  8
241
 10
108.202
 20
-34.311500000000009
 30
0.0
 70
    32
  0
VERTEX
  5
4BF3
  8
241
 10
108.114
 20
-34.343499999999999
 30
0.0
 70
    32
  0
VERTEX
  5
4BF4
  8
241
 10
108.02800000000001
 20
-34.376899999999999
 30
0.0
 70
    32
  0
VERTEX
  5
4BF5
  8
241
 10
107.944
 20
-34.41190000000001
 30
0.0
 70
    32
  0
VERTEX
  5
4BF6
  8
241
 10
107.86
 20
-34.448300000000003
 30
0.0
 70
    32
  0
VERTEX
  5
4BF7
  8
241
 10
107.77800000000001
 20
-34.486199999999997
 30
0.0
 70
    32
  0
VERTEX
  5
4BF8
  8
241
 10
107.697
 20
-34.525399999999998
 30
0.0
 70
    32
  0
VERTEX
  5
4BF9
  8
241
 10
107.617
 20
-34.566099999999999
 30
0.0
 70
    32
  0
VERTEX
  5
4BFA
  8
241
 10
107.539
 20
-34.6081
 30
0.0
 70
    32
  0
VERTEX
  5
4BFB
  8
241
 10
107.462
 20
-34.651499999999999
 30
0.0
 70
    32
  0
VERTEX
  5
4BFC
  8
241
 10
107.387
 20
-34.696199999999997
 30
0.0
 70
    32
  0
VERTEX
  5
4BFD
  8
241
 10
107.31399999999999
 20
-34.742199999999997
 30
0.0
 70
    32
  0
VERTEX
  5
4BFE
  8
241
 10
107.242
 20
-34.789400000000001
 30
0.0
 70
    32
  0
VERTEX
  5
4BFF
  8
241
 10
107.172
 20
-34.837899999999998
 30
0.0
 70
    32
  0
VERTEX
  5
4C00
  8
241
 10
107.10299999999999
 20
-34.887599999999999
 30
0.0
 70
    32
  0
VERTEX
  5
4C01
  8
241
 10
107.036
 20
-34.938499999999998
 30
0.0
 70
    32
  0
VERTEX
  5
4C02
  8
241
 10
106.971
 20
-34.990499999999997
 30
0.0
 70
    32
  0
VERTEX
  5
4C03
  8
241
 10
106.908
 20
-35.043599999999998
 30
0.0
 70
    32
  0
VERTEX
  5
4C04
  8
241
 10
106.84699999999999
 20
-35.097799999999999
 30
0.0
 70
    32
  0
VERTEX
  5
4C05
  8
241
 10
106.78700000000001
 20
-35.152999999999999
 30
0.0
 70
    32
  0
VERTEX
  5
4C06
  8
241
 10
106.73
 20
-35.209299999999999
 30
0.0
 70
    32
  0
VERTEX
  5
4C07
  8
241
 10
106.67400000000001
 20
-35.266500000000001
 30
0.0
 70
    32
  0
VERTEX
  5
4C08
  8
241
 10
106.621
 20
-35.3247
 30
0.0
 70
    32
  0
VERTEX
  5
4C09
  8
241
 10
106.569
 20
-35.383800000000001
 30
0.0
 70
    32
  0
VERTEX
  5
4C0A
  8
241
 10
106.52
 20
-35.44380000000001
 30
0.0
 70
    32
  0
VERTEX
  5
4C0B
  8
241
 10
106.47199999999999
 20
-35.504600000000011
 30
0.0
 70
    32
  0
VERTEX
  5
4C0C
  8
241
 10
106.42700000000001
 20
-35.566200000000009
 30
0.0
 70
    32
  0
VERTEX
  5
4C0D
  8
241
 10
106.384
 20
-35.628599999999999
 30
0.0
 70
    32
  0
VERTEX
  5
4C0E
  8
241
 10
106.343
 20
-35.691699999999997
 30
0.0
 70
    32
  0
VERTEX
  5
4C0F
  8
241
 10
106.304
 20
-35.755499999999998
 30
0.0
 70
    32
  0
VERTEX
  5
4C10
  8
241
 10
106.268
 20
-35.82
 30
0.0
 70
    32
  0
VERTEX
  5
4C11
  8
241
 10
106.23399999999999
 20
-35.884999999999998
 30
0.0
 70
    32
  0
VERTEX
  5
4C12
  8
241
 10
106.202
 20
-35.950699999999998
 30
0.0
 70
    32
  0
VERTEX
  5
4C13
  8
241
 10
106.172
 20
-36.0169
 30
0.0
 70
    32
  0
VERTEX
  5
4C14
  8
241
 10
106.145
 20
-36.083500000000001
 30
0.0
 70
    32
  0
VERTEX
  5
4C15
  8
241
 10
106.12
 20
-36.150700000000001
 30
0.0
 70
    32
  0
VERTEX
  5
4C16
  8
241
 10
106.09699999999999
 20
-36.218200000000003
 30
0.0
 70
    32
  0
VERTEX
  5
4C17
  8
241
 10
106.077
 20
-36.286099999999998
 30
0.0
 70
    32
  0
VERTEX
  5
4C18
  8
241
 10
106.059
 20
-36.354399999999998
 30
0.0
 70
    32
  0
VERTEX
  5
4C19
  8
241
 10
106.04300000000001
 20
-36.422899999999998
 30
0.0
 70
    32
  0
VERTEX
  5
4C1A
  8
241
 10
106.03
 20
-36.491700000000002
 30
0.0
 70
    32
  0
VERTEX
  5
4C1B
  8
241
 10
106.01900000000001
 20
-36.560699999999997
 30
0.0
 70
    32
  0
VERTEX
  5
4C1C
  8
241
 10
106.011
 20
-36.62980000000001
 30
0.0
 70
    32
  0
VERTEX
  5
4C1D
  8
241
 10
106.005
 20
-36.699100000000001
 30
0.0
 70
    32
  0
VERTEX
  5
4C1E
  8
241
 10
106.001
 20
-36.768500000000003
 30
0.0
 70
    32
  0
VERTEX
  5
4C1F
  8
241
 10
106.0
 20
-36.837899999999998
 30
0.0
 70
    32
  0
VERTEX
  5
4C20
  8
241
 10
106.001
 20
-36.907299999999999
 30
0.0
 70
    32
  0
VERTEX
  5
4C21
  8
241
 10
106.005
 20
-36.976700000000001
 30
0.0
 70
    32
  0
VERTEX
  5
4C22
  8
241
 10
106.011
 20
-37.045999999999999
 30
0.0
 70
    32
  0
VERTEX
  5
4C23
  8
241
 10
106.01900000000001
 20
-37.115099999999998
 30
0.0
 70
    32
  0
VERTEX
  5
4C24
  8
241
 10
106.03
 20
-37.184100000000001
 30
0.0
 70
    32
  0
VERTEX
  5
4C25
  8
241
 10
106.04300000000001
 20
-37.252899999999997
 30
0.0
 70
    32
  0
VERTEX
  5
4C26
  8
241
 10
106.059
 20
-37.3215
 30
0.0
 70
    32
  0
VERTEX
  5
4C27
  8
241
 10
106.077
 20
-37.389699999999998
 30
0.0
 70
    32
  0
VERTEX
  5
4C28
  8
241
 10
106.09699999999999
 20
-37.457599999999999
 30
0.0
 70
    32
  0
VERTEX
  5
4C29
  8
241
 10
106.12
 20
-37.525199999999998
 30
0.0
 70
    32
  0
VERTEX
  5
4C2A
  8
241
 10
106.145
 20
-37.592300000000002
 30
0.0
 70
    32
  0
VERTEX
  5
4C2B
  8
241
 10
106.172
 20
-37.658999999999999
 30
0.0
 70
    32
  0
VERTEX
  5
4C2C
  8
241
 10
106.202
 20
-37.725099999999998
 30
0.0
 70
    32
  0
VERTEX
  5
4C2D
  8
241
 10
106.23399999999999
 20
-37.790799999999997
 30
0.0
 70
    32
  0
VERTEX
  5
4C2E
  8
241
 10
106.268
 20
-37.855800000000002
 30
0.0
 70
    32
  0
VERTEX
  5
4C2F
  8
241
 10
106.304
 20
-37.920299999999997
 30
0.0
 70
    32
  0
VERTEX
  5
4C30
  8
241
 10
106.343
 20
-37.984099999999998
 30
0.0
 70
    32
  0
VERTEX
  5
4C31
  8
241
 10
106.384
 20
-38.047199999999997
 30
0.0
 70
    32
  0
VERTEX
  5
4C32
  8
241
 10
106.42700000000001
 20
-38.1096
 30
0.0
 70
    32
  0
VERTEX
  5
4C33
  8
241
 10
106.47199999999999
 20
-38.171199999999999
 30
0.0
 70
    32
  0
VERTEX
  5
4C34
  8
241
 10
106.52
 20
-38.231999999999999
 30
0.0
 70
    32
  0
VERTEX
  5
4C35
  8
241
 10
106.569
 20
-38.292000000000002
 30
0.0
 70
    32
  0
VERTEX
  5
4C36
  8
241
 10
106.621
 20
-38.351100000000002
 30
0.0
 70
    32
  0
VERTEX
  5
4C37
  8
241
 10
106.67400000000001
 20
-38.409300000000002
 30
0.0
 70
    32
  0
VERTEX
  5
4C38
  8
241
 10
106.73
 20
-38.466500000000003
 30
0.0
 70
    32
  0
VERTEX
  5
4C39
  8
241
 10
106.78700000000001
 20
-38.522799999999997
 30
0.0
 70
    32
  0
VERTEX
  5
4C3A
  8
241
 10
106.84699999999999
 20
-38.57800000000001
 30
0.0
 70
    32
  0
VERTEX
  5
4C3B
  8
241
 10
106.908
 20
-38.632199999999997
 30
0.0
 70
    32
  0
VERTEX
  5
4C3C
  8
241
 10
106.971
 20
-38.685400000000001
 30
0.0
 70
    32
  0
VERTEX
  5
4C3D
  8
241
 10
107.036
 20
-38.737400000000001
 30
0.0
 70
    32
  0
VERTEX
  5
4C3E
  8
241
 10
107.10299999999999
 20
-38.78820000000001
 30
0.0
 70
    32
  0
VERTEX
  5
4C3F
  8
241
 10
107.172
 20
-38.837899999999998
 30
0.0
 70
    32
  0
VERTEX
  5
4C40
  8
241
 10
107.242
 20
-38.886400000000002
 30
0.0
 70
    32
  0
VERTEX
  5
4C41
  8
241
 10
107.31399999999999
 20
-38.933599999999998
 30
0.0
 70
    32
  0
VERTEX
  5
4C42
  8
241
 10
107.387
 20
-38.979599999999998
 30
0.0
 70
    32
  0
VERTEX
  5
4C43
  8
241
 10
107.462
 20
-39.024299999999997
 30
0.0
 70
    32
  0
VERTEX
  5
4C44
  8
241
 10
107.539
 20
-39.067700000000002
 30
0.0
 70
    32
  0
VERTEX
  5
4C45
  8
241
 10
107.617
 20
-39.109699999999997
 30
0.0
 70
    32
  0
VERTEX
  5
4C46
  8
241
 10
107.697
 20
-39.150399999999998
 30
0.0
 70
    32
  0
VERTEX
  5
4C47
  8
241
 10
107.77800000000001
 20
-39.189700000000002
 30
0.0
 70
    32
  0
VERTEX
  5
4C48
  8
241
 10
107.86
 20
-39.227499999999999
 30
0.0
 70
    32
  0
VERTEX
  5
4C49
  8
241
 10
107.944
 20
-39.2639
 30
0.0
 70
    32
  0
VERTEX
  5
4C4A
  8
241
 10
108.02800000000001
 20
-39.298900000000003
 30
0.0
 70
    32
  0
VERTEX
  5
4C4B
  8
241
 10
108.114
 20
-39.3324
 30
0.0
 70
    32
  0
VERTEX
  5
4C4C
  8
241
 10
108.202
 20
-39.3643
 30
0.0
 70
    32
  0
VERTEX
  5
4C4D
  8
241
 10
108.29000000000001
 20
-39.394799999999996
 30
0.0
 70
    32
  0
VERTEX
  5
4C4E
  8
241
 10
108.379
 20
-39.423699999999997
 30
0.0
 70
    32
  0
VERTEX
  5
4C4F
  8
241
 10
108.46899999999999
 20
-39.451000000000001
 30
0.0
 70
    32
  0
VERTEX
  5
4C50
  8
241
 10
108.56
 20
-39.476799999999997
 30
0.0
 70
    32
  0
VERTEX
  5
4C51
  8
241
 10
108.652
 20
-39.500999999999998
 30
0.0
 70
    32
  0
VERTEX
  5
4C52
  8
241
 10
108.745
 20
-39.523600000000002
 30
0.0
 70
    32
  0
VERTEX
  5
4C53
  8
241
 10
108.839
 20
-39.544499999999999
 30
0.0
 70
    32
  0
VERTEX
  5
4C54
  8
241
 10
108.93300000000001
 20
-39.563899999999997
 30
0.0
 70
    32
  0
VERTEX
  5
4C55
  8
241
 10
109.02800000000001
 20
-39.581600000000002
 30
0.0
 70
    32
  0
VERTEX
  5
4C56
  8
241
 10
109.124
 20
-39.5976
 30
0.0
 70
    32
  0
VERTEX
  5
4C57
  8
241
 10
109.22
 20
-39.612000000000002
 30
0.0
 70
    32
  0
VERTEX
  5
4C58
  8
241
 10
109.316
 20
-39.624699999999997
 30
0.0
 70
    32
  0
VERTEX
  5
4C59
  8
241
 10
109.413
 20
-39.6357
 30
0.0
 70
    32
  0
VERTEX
  5
4C5A
  8
241
 10
109.51000000000001
 20
-39.645099999999999
 30
0.0
 70
    32
  0
VERTEX
  5
4C5B
  8
241
 10
109.608
 20
-39.652700000000003
 30
0.0
 70
    32
  0
VERTEX
  5
4C5C
  8
241
 10
109.706
 20
-39.65870000000001
 30
0.0
 70
    32
  0
VERTEX
  5
4C5D
  8
241
 10
109.804
 20
-39.6629
 30
0.0
 70
    32
  0
VERTEX
  5
4C5E
  8
241
 10
109.902
 20
-39.665500000000002
 30
0.0
 70
    32
  0
VERTEX
  5
4C5F
  8
241
 10
110.0
 20
-39.6663
 30
0.0
 70
    32
  0
SEQEND
  5
4C60
  8
241
  0
LINE
  5
470B
  8
241
  6
CONTINUOUS
 10
109.9999947765205
 20
-37.087750673235057
 30
0.0
 11
122.0000000000105
 21
-37.087750673235057
 31
0.0
  0
POLYLINE
  5
470C
  8
241
  6
CONTINUOUS
 66
     1
 10
0.0
 20
0.0
 30
0.0
 70
     8
  0
VERTEX
  5
4C61
  8
241
 10
122.0
 20
-37.087800000000001
 30
0.0
 70
    32
  0
VERTEX
  5
4C62
  8
241
 10
122.03400000000001
 20
-37.087600000000002
 30
0.0
 70
    32
  0
VERTEX
  5
4C63
  8
241
 10
122.069
 20
-37.087299999999999
 30
0.0
 70
    32
  0
VERTEX
  5
4C64
  8
241
 10
122.10299999999999
 20
-37.086799999999997
 30
0.0
 70
    32
  0
VERTEX
  5
4C65
  8
241
 10
122.137
 20
-37.086100000000002
 30
0.0
 70
    32
  0
VERTEX
  5
4C66
  8
241
 10
122.17100000000001
 20
-37.0852
 30
0.0
 70
    32
  0
VERTEX
  5
4C67
  8
241
 10
122.206
 20
-37.08400000000001
 30
0.0
 70
    32
  0
VERTEX
  5
4C68
  8
241
 10
122.23999999999999
 20
-37.08270000000001
 30
0.0
 70
    32
  0
VERTEX
  5
4C69
  8
241
 10
122.274
 20
-37.081099999999999
 30
0.0
 70
    32
  0
VERTEX
  5
4C6A
  8
241
 10
122.30800000000001
 20
-37.079300000000011
 30
0.0
 70
    32
  0
VERTEX
  5
4C6B
  8
241
 10
122.343
 20
-37.077399999999997
 30
0.0
 70
    32
  0
VERTEX
  5
4C6C
  8
241
 10
122.377
 20
-37.075200000000009
 30
0.0
 70
    32
  0
VERTEX
  5
4C6D
  8
241
 10
122.411
 20
-37.072800000000001
 30
0.0
 70
    32
  0
VERTEX
  5
4C6E
  8
241
 10
122.44499999999999
 20
-37.0702
 30
0.0
 70
    32
  0
VERTEX
  5
4C6F
  8
241
 10
122.479
 20
-37.067399999999999
 30
0.0
 70
    32
  0
VERTEX
  5
4C70
  8
241
 10
122.51300000000001
 20
-37.064399999999999
 30
0.0
 70
    32
  0
VERTEX
  5
4C71
  8
241
 10
122.547
 20
-37.061199999999999
 30
0.0
 70
    32
  0
VERTEX
  5
4C72
  8
241
 10
122.581
 20
-37.0578
 30
0.0
 70
    32
  0
VERTEX
  5
4C73
  8
241
 10
122.61499999999999
 20
-37.054099999999998
 30
0.0
 70
    32
  0
VERTEX
  5
4C74
  8
241
 10
122.649
 20
-37.0503
 30
0.0
 70
    32
  0
VERTEX
  5
4C75
  8
241
 10
122.68300000000001
 20
-37.046300000000002
 30
0.0
 70
    32
  0
VERTEX
  5
4C76
  8
241
 10
122.71599999999999
 20
-37.042000000000002
 30
0.0
 70
    32
  0
VERTEX
  5
4C77
  8
241
 10
122.75
 20
-37.037599999999998
 30
0.0
 70
    32
  0
VERTEX
  5
4C78
  8
241
 10
122.78400000000001
 20
-37.032899999999998
 30
0.0
 70
    32
  0
VERTEX
  5
4C79
  8
241
 10
122.81699999999999
 20
-37.028100000000002
 30
0.0
 70
    32
  0
VERTEX
  5
4C7A
  8
241
 10
122.851
 20
-37.02300000000001
 30
0.0
 70
    32
  0
VERTEX
  5
4C7B
  8
241
 10
122.884
 20
-37.017800000000001
 30
0.0
 70
    32
  0
VERTEX
  5
4C7C
  8
241
 10
122.91800000000001
 20
-37.01230000000001
 30
0.0
 70
    32
  0
VERTEX
  5
4C7D
  8
241
 10
122.95099999999999
 20
-37.006599999999999
 30
0.0
 70
    32
  0
VERTEX
  5
4C7E
  8
241
 10
122.98399999999999
 20
-37.000799999999998
 30
0.0
 70
    32
  0
VERTEX
  5
4C7F
  8
241
 10
123.018
 20
-36.994700000000002
 30
0.0
 70
    32
  0
VERTEX
  5
4C80
  8
241
 10
123.051
 20
-36.988399999999999
 30
0.0
 70
    32
  0
VERTEX
  5
4C81
  8
241
 10
123.084
 20
-36.981999999999999
 30
0.0
 70
    32
  0
VERTEX
  5
4C82
  8
241
 10
123.117
 20
-36.975299999999997
 30
0.0
 70
    32
  0
VERTEX
  5
4C83
  8
241
 10
123.15000000000001
 20
-36.968400000000003
 30
0.0
 70
    32
  0
VERTEX
  5
4C84
  8
241
 10
123.182
 20
-36.961300000000001
 30
0.0
 70
    32
  0
VERTEX
  5
4C85
  8
241
 10
123.215
 20
-36.954099999999997
 30
0.0
 70
    32
  0
VERTEX
  5
4C86
  8
241
 10
123.248
 20
-36.946599999999997
 30
0.0
 70
    32
  0
VERTEX
  5
4C87
  8
241
 10
123.28
 20
-36.938899999999997
 30
0.0
 70
    32
  0
VERTEX
  5
4C88
  8
241
 10
123.313
 20
-36.931100000000001
 30
0.0
 70
    32
  0
VERTEX
  5
4C89
  8
241
 10
123.345
 20
-36.923000000000002
 30
0.0
 70
    32
  0
VERTEX
  5
4C8A
  8
241
 10
123.377
 20
-36.9148
 30
0.0
 70
    32
  0
VERTEX
  5
4C8B
  8
241
 10
123.41
 20
-36.906300000000002
 30
0.0
 70
    32
  0
VERTEX
  5
4C8C
  8
241
 10
123.44199999999999
 20
-36.8977
 30
0.0
 70
    32
  0
VERTEX
  5
4C8D
  8
241
 10
123.474
 20
-36.88880000000001
 30
0.0
 70
    32
  0
VERTEX
  5
4C8E
  8
241
 10
123.505
 20
-36.879800000000003
 30
0.0
 70
    32
  0
VERTEX
  5
4C8F
  8
241
 10
123.53700000000001
 20
-36.87060000000001
 30
0.0
 70
    32
  0
VERTEX
  5
4C90
  8
241
 10
123.569
 20
-36.861199999999997
 30
0.0
 70
    32
  0
VERTEX
  5
4C91
  8
241
 10
123.59999999999999
 20
-36.851599999999998
 30
0.0
 70
    32
  0
VERTEX
  5
4C92
  8
241
 10
123.63200000000001
 20
-36.841799999999999
 30
0.0
 70
    32
  0
VERTEX
  5
4C93
  8
241
 10
123.663
 20
-36.831800000000001
 30
0.0
 70
    32
  0
VERTEX
  5
4C94
  8
241
 10
123.694
 20
-36.821599999999997
 30
0.0
 70
    32
  0
VERTEX
  5
4C95
  8
241
 10
123.72499999999999
 20
-36.811300000000003
 30
0.0
 70
    32
  0
VERTEX
  5
4C96
  8
241
 10
123.756
 20
-36.800699999999999
 30
0.0
 70
    32
  0
VERTEX
  5
4C97
  8
241
 10
123.78700000000001
 20
-36.789999999999999
 30
0.0
 70
    32
  0
VERTEX
  5
4C98
  8
241
 10
123.81699999999999
 20
-36.779000000000011
 30
0.0
 70
    32
  0
VERTEX
  5
4C99
  8
241
 10
123.848
 20
-36.767899999999997
 30
0.0
 70
    32
  0
VERTEX
  5
4C9A
  8
241
 10
123.878
 20
-36.756599999999999
 30
0.0
 70
    32
  0
VERTEX
  5
4C9B
  8
241
 10
123.908
 20
-36.745199999999997
 30
0.0
 70
    32
  0
VERTEX
  5
4C9C
  8
241
 10
123.938
 20
-36.733499999999999
 30
0.0
 70
    32
  0
VERTEX
  5
4C9D
  8
241
 10
123.968
 20
-36.721699999999998
 30
0.0
 70
    32
  0
VERTEX
  5
4C9E
  8
241
 10
123.998
 20
-36.709600000000002
 30
0.0
 70
    32
  0
VERTEX
  5
4C9F
  8
241
 10
124.02800000000001
 20
-36.697400000000002
 30
0.0
 70
    32
  0
VERTEX
  5
4CA0
  8
241
 10
124.057
 20
-36.685000000000002
 30
0.0
 70
    32
  0
VERTEX
  5
4CA1
  8
241
 10
124.086
 20
-36.672499999999999
 30
0.0
 70
    32
  0
VERTEX
  5
4CA2
  8
241
 10
124.116
 20
-36.659700000000001
 30
0.0
 70
    32
  0
VERTEX
  5
4CA3
  8
241
 10
124.145
 20
-36.646799999999999
 30
0.0
 70
    32
  0
VERTEX
  5
4CA4
  8
241
 10
124.17400000000001
 20
-36.633699999999997
 30
0.0
 70
    32
  0
VERTEX
  5
4CA5
  8
241
 10
124.202
 20
-36.6205
 30
0.0
 70
    32
  0
VERTEX
  5
4CA6
  8
241
 10
124.23099999999999
 20
-36.606999999999999
 30
0.0
 70
    32
  0
VERTEX
  5
4CA7
  8
241
 10
124.259
 20
-36.593400000000003
 30
0.0
 70
    32
  0
VERTEX
  5
4CA8
  8
241
 10
124.28700000000001
 20
-36.579599999999999
 30
0.0
 70
    32
  0
VERTEX
  5
4CA9
  8
241
 10
124.315
 20
-36.5657
 30
0.0
 70
    32
  0
VERTEX
  5
4CAA
  8
241
 10
124.343
 20
-36.551600000000001
 30
0.0
 70
    32
  0
VERTEX
  5
4CAB
  8
241
 10
124.371
 20
-36.537300000000002
 30
0.0
 70
    32
  0
VERTEX
  5
4CAC
  8
241
 10
124.399
 20
-36.522799999999997
 30
0.0
 70
    32
  0
VERTEX
  5
4CAD
  8
241
 10
124.426
 20
-36.508200000000002
 30
0.0
 70
    32
  0
VERTEX
  5
4CAE
  8
241
 10
124.453
 20
-36.493400000000001
 30
0.0
 70
    32
  0
VERTEX
  5
4CAF
  8
241
 10
124.48
 20
-36.478400000000001
 30
0.0
 70
    32
  0
VERTEX
  5
4CB0
  8
241
 10
124.50700000000001
 20
-36.463299999999997
 30
0.0
 70
    32
  0
VERTEX
  5
4CB1
  8
241
 10
124.53400000000001
 20
-36.448
 30
0.0
 70
    32
  0
VERTEX
  5
4CB2
  8
241
 10
124.56
 20
-36.432600000000001
 30
0.0
 70
    32
  0
VERTEX
  5
4CB3
  8
241
 10
124.586
 20
-36.417000000000002
 30
0.0
 70
    32
  0
VERTEX
  5
4CB4
  8
241
 10
124.61199999999999
 20
-36.401200000000003
 30
0.0
 70
    32
  0
VERTEX
  5
4CB5
  8
241
 10
124.63800000000001
 20
-36.385300000000001
 30
0.0
 70
    32
  0
VERTEX
  5
4CB6
  8
241
 10
124.664
 20
-36.369300000000003
 30
0.0
 70
    32
  0
VERTEX
  5
4CB7
  8
241
 10
124.68899999999999
 20
-36.353000000000002
 30
0.0
 70
    32
  0
VERTEX
  5
4CB8
  8
241
 10
124.715
 20
-36.336599999999997
 30
0.0
 70
    32
  0
VERTEX
  5
4CB9
  8
241
 10
124.73999999999999
 20
-36.320099999999996
 30
0.0
 70
    32
  0
VERTEX
  5
4CBA
  8
241
 10
124.765
 20
-36.303400000000003
 30
0.0
 70
    32
  0
VERTEX
  5
4CBB
  8
241
 10
124.789
 20
-36.2866
 30
0.0
 70
    32
  0
VERTEX
  5
4CBC
  8
241
 10
124.81399999999999
 20
-36.269599999999997
 30
0.0
 70
    32
  0
VERTEX
  5
4CBD
  8
241
 10
124.83799999999999
 20
-36.252499999999998
 30
0.0
 70
    32
  0
VERTEX
  5
4CBE
  8
241
 10
124.86199999999999
 20
-36.235199999999999
 30
0.0
 70
    32
  0
VERTEX
  5
4CBF
  8
241
 10
124.886
 20
-36.217799999999997
 30
0.0
 70
    32
  0
VERTEX
  5
4CC0
  8
241
 10
124.91
 20
-36.200200000000002
 30
0.0
 70
    32
  0
VERTEX
  5
4CC1
  8
241
 10
124.93300000000001
 20
-36.182499999999997
 30
0.0
 70
    32
  0
VERTEX
  5
4CC2
  8
241
 10
124.956
 20
-36.1646
 30
0.0
 70
    32
  0
VERTEX
  5
4CC3
  8
241
 10
124.979
 20
-36.146599999999999
 30
0.0
 70
    32
  0
VERTEX
  5
4CC4
  8
241
 10
125.002
 20
-36.128500000000003
 30
0.0
 70
    32
  0
VERTEX
  5
4CC5
  8
241
 10
125.02500000000001
 20
-36.110199999999999
 30
0.0
 70
    32
  0
VERTEX
  5
4CC6
  8
241
 10
125.047
 20
-36.091799999999999
 30
0.0
 70
    32
  0
VERTEX
  5
4CC7
  8
241
 10
125.069
 20
-36.07330000000001
 30
0.0
 70
    32
  0
VERTEX
  5
4CC8
  8
241
 10
125.09099999999999
 20
-36.054600000000001
 30
0.0
 70
    32
  0
VERTEX
  5
4CC9
  8
241
 10
125.113
 20
-36.035800000000002
 30
0.0
 70
    32
  0
VERTEX
  5
4CCA
  8
241
 10
125.134
 20
-36.0169
 30
0.0
 70
    32
  0
VERTEX
  5
4CCB
  8
241
 10
125.155
 20
-35.997799999999998
 30
0.0
 70
    32
  0
VERTEX
  5
4CCC
  8
241
 10
125.176
 20
-35.9786
 30
0.0
 70
    32
  0
VERTEX
  5
4CCD
  8
241
 10
125.197
 20
-35.959299999999999
 30
0.0
 70
    32
  0
VERTEX
  5
4CCE
  8
241
 10
125.217
 20
-35.939900000000002
 30
0.0
 70
    32
  0
VERTEX
  5
4CCF
  8
241
 10
125.238
 20
-35.920299999999997
 30
0.0
 70
    32
  0
VERTEX
  5
4CD0
  8
241
 10
125.258
 20
-35.900599999999997
 30
0.0
 70
    32
  0
VERTEX
  5
4CD1
  8
241
 10
125.277
 20
-35.880800000000001
 30
0.0
 70
    32
  0
VERTEX
  5
4CD2
  8
241
 10
125.297
 20
-35.860900000000001
 30
0.0
 70
    32
  0
VERTEX
  5
4CD3
  8
241
 10
125.316
 20
-35.840800000000002
 30
0.0
 70
    32
  0
VERTEX
  5
4CD4
  8
241
 10
125.33499999999999
 20
-35.820599999999999
 30
0.0
 70
    32
  0
VERTEX
  5
4CD5
  8
241
 10
125.354
 20
-35.80040000000001
 30
0.0
 70
    32
  0
VERTEX
  5
4CD6
  8
241
 10
125.373
 20
-35.780000000000001
 30
0.0
 70
    32
  0
VERTEX
  5
4CD7
  8
241
 10
125.39100000000001
 20
-35.75950000000001
 30
0.0
 70
    32
  0
VERTEX
  5
4CD8
  8
241
 10
125.40900000000001
 20
-35.738900000000001
 30
0.0
 70
    32
  0
VERTEX
  5
4CD9
  8
241
 10
125.42700000000001
 20
-35.7181
 30
0.0
 70
    32
  0
VERTEX
  5
4CDA
  8
241
 10
125.444
 20
-35.697299999999998
 30
0.0
 70
    32
  0
VERTEX
  5
4CDB
  8
241
 10
125.462
 20
-35.676400000000001
 30
0.0
 70
    32
  0
VERTEX
  5
4CDC
  8
241
 10
125.479
 20
-35.655299999999997
 30
0.0
 70
    32
  0
VERTEX
  5
4CDD
  8
241
 10
125.496
 20
-35.6342
 30
0.0
 70
    32
  0
VERTEX
  5
4CDE
  8
241
 10
125.512
 20
-35.61290000000001
 30
0.0
 70
    32
  0
VERTEX
  5
4CDF
  8
241
 10
125.52800000000001
 20
-35.5916
 30
0.0
 70
    32
  0
VERTEX
  5
4CE0
  8
241
 10
125.544
 20
-35.5702
 30
0.0
 70
    32
  0
VERTEX
  5
4CE1
  8
241
 10
125.56
 20
-35.5486
 30
0.0
 70
    32
  0
SEQEND
  5
4CE2
  8
241
  0
POLYLINE
  5
470D
  8
241
  6
CONTINUOUS
 66
     1
 10
0.0
 20
0.0
 30
0.0
 70
     8
  0
VERTEX
  5
4CE3
  8
241
 10
106.44
 20
-35.5486
 30
0.0
 70
    32
  0
VERTEX
  5
4CE4
  8
241
 10
106.456
 20
-35.5702
 30
0.0
 70
    32
  0
VERTEX
  5
4CE5
  8
241
 10
106.47199999999999
 20
-35.5916
 30
0.0
 70
    32
  0
VERTEX
  5
4CE6
  8
241
 10
106.488
 20
-35.61290000000001
 30
0.0
 70
    32
  0
VERTEX
  5
4CE7
  8
241
 10
106.504
 20
-35.6342
 30
0.0
 70
    32
  0
VERTEX
  5
4CE8
  8
241
 10
106.521
 20
-35.655299999999997
 30
0.0
 70
    32
  0
VERTEX
  5
4CE9
  8
241
 10
106.538
 20
-35.676400000000001
 30
0.0
 70
    32
  0
VERTEX
  5
4CEA
  8
241
 10
106.556
 20
-35.697299999999998
 30
0.0
 70
    32
  0
VERTEX
  5
4CEB
  8
241
 10
106.57299999999999
 20
-35.7181
 30
0.0
 70
    32
  0
VERTEX
  5
4CEC
  8
241
 10
106.59099999999999
 20
-35.738900000000001
 30
0.0
 70
    32
  0
VERTEX
  5
4CED
  8
241
 10
106.60899999999999
 20
-35.75950000000001
 30
0.0
 70
    32
  0
VERTEX
  5
4CEE
  8
241
 10
106.627
 20
-35.780000000000001
 30
0.0
 70
    32
  0
VERTEX
  5
4CEF
  8
241
 10
106.646
 20
-35.80040000000001
 30
0.0
 70
    32
  0
VERTEX
  5
4CF0
  8
241
 10
106.66500000000001
 20
-35.820599999999999
 30
0.0
 70
    32
  0
VERTEX
  5
4CF1
  8
241
 10
106.684
 20
-35.840800000000002
 30
0.0
 70
    32
  0
VERTEX
  5
4CF2
  8
241
 10
106.703
 20
-35.860900000000001
 30
0.0
 70
    32
  0
VERTEX
  5
4CF3
  8
241
 10
106.723
 20
-35.880800000000001
 30
0.0
 70
    32
  0
VERTEX
  5
4CF4
  8
241
 10
106.742
 20
-35.900599999999997
 30
0.0
 70
    32
  0
VERTEX
  5
4CF5
  8
241
 10
106.762
 20
-35.920299999999997
 30
0.0
 70
    32
  0
VERTEX
  5
4CF6
  8
241
 10
106.783
 20
-35.939900000000002
 30
0.0
 70
    32
  0
VERTEX
  5
4CF7
  8
241
 10
106.803
 20
-35.959299999999999
 30
0.0
 70
    32
  0
VERTEX
  5
4CF8
  8
241
 10
106.824
 20
-35.9786
 30
0.0
 70
    32
  0
VERTEX
  5
4CF9
  8
241
 10
106.845
 20
-35.997799999999998
 30
0.0
 70
    32
  0
VERTEX
  5
4CFA
  8
241
 10
106.866
 20
-36.0169
 30
0.0
 70
    32
  0
VERTEX
  5
4CFB
  8
241
 10
106.887
 20
-36.035800000000002
 30
0.0
 70
    32
  0
VERTEX
  5
4CFC
  8
241
 10
106.90900000000001
 20
-36.054600000000001
 30
0.0
 70
    32
  0
VERTEX
  5
4CFD
  8
241
 10
106.931
 20
-36.07330000000001
 30
0.0
 70
    32
  0
VERTEX
  5
4CFE
  8
241
 10
106.953
 20
-36.091799999999999
 30
0.0
 70
    32
  0
VERTEX
  5
4CFF
  8
241
 10
106.97499999999999
 20
-36.110199999999999
 30
0.0
 70
    32
  0
VERTEX
  5
4D00
  8
241
 10
106.998
 20
-36.128500000000003
 30
0.0
 70
    32
  0
VERTEX
  5
4D01
  8
241
 10
107.021
 20
-36.146599999999999
 30
0.0
 70
    32
  0
VERTEX
  5
4D02
  8
241
 10
107.044
 20
-36.1646
 30
0.0
 70
    32
  0
VERTEX
  5
4D03
  8
241
 10
107.06699999999999
 20
-36.182499999999997
 30
0.0
 70
    32
  0
VERTEX
  5
4D04
  8
241
 10
107.09
 20
-36.200200000000002
 30
0.0
 70
    32
  0
VERTEX
  5
4D05
  8
241
 10
107.114
 20
-36.217799999999997
 30
0.0
 70
    32
  0
VERTEX
  5
4D06
  8
241
 10
107.13800000000001
 20
-36.235199999999999
 30
0.0
 70
    32
  0
VERTEX
  5
4D07
  8
241
 10
107.16200000000001
 20
-36.252499999999998
 30
0.0
 70
    32
  0
VERTEX
  5
4D08
  8
241
 10
107.18600000000001
 20
-36.269599999999997
 30
0.0
 70
    32
  0
VERTEX
  5
4D09
  8
241
 10
107.211
 20
-36.2866
 30
0.0
 70
    32
  0
VERTEX
  5
4D0A
  8
241
 10
107.235
 20
-36.303400000000003
 30
0.0
 70
    32
  0
VERTEX
  5
4D0B
  8
241
 10
107.26000000000001
 20
-36.320099999999996
 30
0.0
 70
    32
  0
VERTEX
  5
4D0C
  8
241
 10
107.285
 20
-36.336599999999997
 30
0.0
 70
    32
  0
VERTEX
  5
4D0D
  8
241
 10
107.31100000000001
 20
-36.353000000000002
 30
0.0
 70
    32
  0
VERTEX
  5
4D0E
  8
241
 10
107.336
 20
-36.369300000000003
 30
0.0
 70
    32
  0
VERTEX
  5
4D0F
  8
241
 10
107.36199999999999
 20
-36.385300000000001
 30
0.0
 70
    32
  0
VERTEX
  5
4D10
  8
241
 10
107.38800000000001
 20
-36.401200000000003
 30
0.0
 70
    32
  0
VERTEX
  5
4D11
  8
241
 10
107.414
 20
-36.417000000000002
 30
0.0
 70
    32
  0
VERTEX
  5
4D12
  8
241
 10
107.44
 20
-36.432600000000001
 30
0.0
 70
    32
  0
VERTEX
  5
4D13
  8
241
 10
107.46599999999999
 20
-36.448
 30
0.0
 70
    32
  0
VERTEX
  5
4D14
  8
241
 10
107.49299999999999
 20
-36.463299999999997
 30
0.0
 70
    32
  0
VERTEX
  5
4D15
  8
241
 10
107.52
 20
-36.478400000000001
 30
0.0
 70
    32
  0
VERTEX
  5
4D16
  8
241
 10
107.547
 20
-36.493400000000001
 30
0.0
 70
    32
  0
VERTEX
  5
4D17
  8
241
 10
107.574
 20
-36.508200000000002
 30
0.0
 70
    32
  0
VERTEX
  5
4D18
  8
241
 10
107.601
 20
-36.522799999999997
 30
0.0
 70
    32
  0
VERTEX
  5
4D19
  8
241
 10
107.629
 20
-36.537300000000002
 30
0.0
 70
    32
  0
VERTEX
  5
4D1A
  8
241
 10
107.657
 20
-36.551600000000001
 30
0.0
 70
    32
  0
VERTEX
  5
4D1B
  8
241
 10
107.685
 20
-36.5657
 30
0.0
 70
    32
  0
VERTEX
  5
4D1C
  8
241
 10
107.71299999999999
 20
-36.579599999999999
 30
0.0
 70
    32
  0
VERTEX
  5
4D1D
  8
241
 10
107.741
 20
-36.593400000000003
 30
0.0
 70
    32
  0
VERTEX
  5
4D1E
  8
241
 10
107.76900000000001
 20
-36.606999999999999
 30
0.0
 70
    32
  0
VERTEX
  5
4D1F
  8
241
 10
107.798
 20
-36.6205
 30
0.0
 70
    32
  0
VERTEX
  5
4D20
  8
241
 10
107.82599999999999
 20
-36.633699999999997
 30
0.0
 70
    32
  0
VERTEX
  5
4D21
  8
241
 10
107.855
 20
-36.646799999999999
 30
0.0
 70
    32
  0
VERTEX
  5
4D22
  8
241
 10
107.884
 20
-36.659700000000001
 30
0.0
 70
    32
  0
VERTEX
  5
4D23
  8
241
 10
107.914
 20
-36.672499999999999
 30
0.0
 70
    32
  0
VERTEX
  5
4D24
  8
241
 10
107.943
 20
-36.685000000000002
 30
0.0
 70
    32
  0
VERTEX
  5
4D25
  8
241
 10
107.97199999999999
 20
-36.697400000000002
 30
0.0
 70
    32
  0
VERTEX
  5
4D26
  8
241
 10
108.002
 20
-36.709600000000002
 30
0.0
 70
    32
  0
VERTEX
  5
4D27
  8
241
 10
108.032
 20
-36.721699999999998
 30
0.0
 70
    32
  0
VERTEX
  5
4D28
  8
241
 10
108.062
 20
-36.733499999999999
 30
0.0
 70
    32
  0
VERTEX
  5
4D29
  8
241
 10
108.092
 20
-36.745199999999997
 30
0.0
 70
    32
  0
VERTEX
  5
4D2A
  8
241
 10
108.122
 20
-36.756599999999999
 30
0.0
 70
    32
  0
VERTEX
  5
4D2B
  8
241
 10
108.152
 20
-36.767899999999997
 30
0.0
 70
    32
  0
VERTEX
  5
4D2C
  8
241
 10
108.18300000000001
 20
-36.779000000000011
 30
0.0
 70
    32
  0
VERTEX
  5
4D2D
  8
241
 10
108.21299999999999
 20
-36.789999999999999
 30
0.0
 70
    32
  0
VERTEX
  5
4D2E
  8
241
 10
108.244
 20
-36.800699999999999
 30
0.0
 70
    32
  0
VERTEX
  5
4D2F
  8
241
 10
108.27500000000001
 20
-36.811300000000003
 30
0.0
 70
    32
  0
VERTEX
  5
4D30
  8
241
 10
108.306
 20
-36.821599999999997
 30
0.0
 70
    32
  0
VERTEX
  5
4D31
  8
241
 10
108.337
 20
-36.831800000000001
 30
0.0
 70
    32
  0
VERTEX
  5
4D32
  8
241
 10
108.36799999999999
 20
-36.841799999999999
 30
0.0
 70
    32
  0
VERTEX
  5
4D33
  8
241
 10
108.40000000000001
 20
-36.851599999999998
 30
0.0
 70
    32
  0
VERTEX
  5
4D34
  8
241
 10
108.431
 20
-36.861199999999997
 30
0.0
 70
    32
  0
VERTEX
  5
4D35
  8
241
 10
108.46299999999999
 20
-36.87060000000001
 30
0.0
 70
    32
  0
VERTEX
  5
4D36
  8
241
 10
108.495
 20
-36.879800000000003
 30
0.0
 70
    32
  0
VERTEX
  5
4D37
  8
241
 10
108.526
 20
-36.88880000000001
 30
0.0
 70
    32
  0
VERTEX
  5
4D38
  8
241
 10
108.55800000000001
 20
-36.8977
 30
0.0
 70
    32
  0
VERTEX
  5
4D39
  8
241
 10
108.59
 20
-36.906300000000002
 30
0.0
 70
    32
  0
VERTEX
  5
4D3A
  8
241
 10
108.623
 20
-36.9148
 30
0.0
 70
    32
  0
VERTEX
  5
4D3B
  8
241
 10
108.655
 20
-36.923000000000002
 30
0.0
 70
    32
  0
VERTEX
  5
4D3C
  8
241
 10
108.687
 20
-36.931100000000001
 30
0.0
 70
    32
  0
VERTEX
  5
4D3D
  8
241
 10
108.72
 20
-36.938899999999997
 30
0.0
 70
    32
  0
VERTEX
  5
4D3E
  8
241
 10
108.752
 20
-36.946599999999997
 30
0.0
 70
    32
  0
VERTEX
  5
4D3F
  8
241
 10
108.785
 20
-36.954099999999997
 30
0.0
 70
    32
  0
VERTEX
  5
4D40
  8
241
 10
108.818
 20
-36.961300000000001
 30
0.0
 70
    32
  0
VERTEX
  5
4D41
  8
241
 10
108.84999999999999
 20
-36.968400000000003
 30
0.0
 70
    32
  0
VERTEX
  5
4D42
  8
241
 10
108.883
 20
-36.975299999999997
 30
0.0
 70
    32
  0
VERTEX
  5
4D43
  8
241
 10
108.916
 20
-36.981999999999999
 30
0.0
 70
    32
  0
VERTEX
  5
4D44
  8
241
 10
108.949
 20
-36.988399999999999
 30
0.0
 70
    32
  0
VERTEX
  5
4D45
  8
241
 10
108.982
 20
-36.994700000000002
 30
0.0
 70
    32
  0
VERTEX
  5
4D46
  8
241
 10
109.01600000000001
 20
-37.000799999999998
 30
0.0
 70
    32
  0
VERTEX
  5
4D47
  8
241
 10
109.04900000000001
 20
-37.006599999999999
 30
0.0
 70
    32
  0
VERTEX
  5
4D48
  8
241
 10
109.08199999999999
 20
-37.01230000000001
 30
0.0
 70
    32
  0
VERTEX
  5
4D49
  8
241
 10
109.116
 20
-37.017800000000001
 30
0.0
 70
    32
  0
VERTEX
  5
4D4A
  8
241
 10
109.149
 20
-37.02300000000001
 30
0.0
 70
    32
  0
VERTEX
  5
4D4B
  8
241
 10
109.18300000000001
 20
-37.028100000000002
 30
0.0
 70
    32
  0
VERTEX
  5
4D4C
  8
241
 10
109.21599999999999
 20
-37.032899999999998
 30
0.0
 70
    32
  0
VERTEX
  5
4D4D
  8
241
 10
109.25
 20
-37.037599999999998
 30
0.0
 70
    32
  0
VERTEX
  5
4D4E
  8
241
 10
109.28400000000001
 20
-37.042000000000002
 30
0.0
 70
    32
  0
VERTEX
  5
4D4F
  8
241
 10
109.31699999999999
 20
-37.046300000000002
 30
0.0
 70
    32
  0
VERTEX
  5
4D50
  8
241
 10
109.351
 20
-37.0503
 30
0.0
 70
    32
  0
VERTEX
  5
4D51
  8
241
 10
109.38500000000001
 20
-37.054099999999998
 30
0.0
 70
    32
  0
VERTEX
  5
4D52
  8
241
 10
109.419
 20
-37.0578
 30
0.0
 70
    32
  0
VERTEX
  5
4D53
  8
241
 10
109.453
 20
-37.061199999999999
 30
0.0
 70
    32
  0
VERTEX
  5
4D54
  8
241
 10
109.48699999999999
 20
-37.064399999999999
 30
0.0
 70
    32
  0
VERTEX
  5
4D55
  8
241
 10
109.521
 20
-37.067399999999999
 30
0.0
 70
    32
  0
VERTEX
  5
4D56
  8
241
 10
109.55500000000001
 20
-37.0702
 30
0.0
 70
    32
  0
VERTEX
  5
4D57
  8
241
 10
109.589
 20
-37.072800000000001
 30
0.0
 70
    32
  0
VERTEX
  5
4D58
  8
241
 10
109.623
 20
-37.075200000000009
 30
0.0
 70
    32
  0
VERTEX
  5
4D59
  8
241
 10
109.657
 20
-37.077399999999997
 30
0.0
 70
    32
  0
VERTEX
  5
4D5A
  8
241
 10
109.69199999999999
 20
-37.079300000000011
 30
0.0
 70
    32
  0
VERTEX
  5
4D5B
  8
241
 10
109.726
 20
-37.081099999999999
 30
0.0
 70
    32
  0
VERTEX
  5
4D5C
  8
241
 10
109.76000000000001
 20
-37.08270000000001
 30
0.0
 70
    32
  0
VERTEX
  5
4D5D
  8
241
 10
109.794
 20
-37.08400000000001
 30
0.0
 70
    32
  0
VERTEX
  5
4D5E
  8
241
 10
109.82899999999999
 20
-37.0852
 30
0.0
 70
    32
  0
VERTEX
  5
4D5F
  8
241
 10
109.863
 20
-37.086100000000002
 30
0.0
 70
    32
  0
VERTEX
  5
4D60
  8
241
 10
109.89700000000001
 20
-37.086799999999997
 30
0.0
 70
    32
  0
VERTEX
  5
4D61
  8
241
 10
109.931
 20
-37.087299999999999
 30
0.0
 70
    32
  0
VERTEX
  5
4D62
  8
241
 10
109.96599999999999
 20
-37.087600000000002
 30
0.0
 70
    32
  0
VERTEX
  5
4D63
  8
241
 10
110.0
 20
-37.087800000000001
 30
0.0
 70
    32
  0
SEQEND
  5
4D64
  8
241
  0
LINE
  5
470E
  8
241
  6
CONTINUOUS
 10
124.7000000000114
 20
-34.751041395256948
 30
0.0
 11
124.7000000000114
 21
-3.599999999999397
 31
0.0
  0
LINE
  5
470F
  8
241
  6
CONTINUOUS
 10
107.7000000000092
 20
-34.523817777646002
 30
0.0
 11
107.7000000000094
 21
-3.8678159211627281
 31
0.0
  0
LINE
  5
4722
  8
240
  6
CONTINUOUS
 10
72.699999999986701
 20
-37.139281127520498
 30
0.0
 11
72.37215547013075
 21
-36.949999999985643
 31
0.0
  0
LINE
  5
4723
  8
240
  6
CONTINUOUS
 10
72.37215547013075
 20
-36.949999999985643
 30
0.0
 11
71.699999999995981
 21
-36.949999999994759
 31
0.0
  0
LINE
  5
472D
  8
240
  6
CONTINUOUS
 10
74.700000000036752
 20
37.108153576198681
 30
0.0
 11
72.700000000010164
 21
37.139281127517322
 31
0.0
  0
ARC
  5
472E
  8
240
  6
CONTINUOUS
 10
71.700000000025994
 20
40.949999999997942
 30
0.0
 40
4.0
 50
179.99999999996379
 51
269.99999999996709
  0
LINE
  5
472F
  8
240
  6
CONTINUOUS
 10
72.700000000010164
 20
37.139281127517322
 30
0.0
 11
72.37215547015407
 21
36.949999999982673
 31
0.0
  0
LINE
  5
4730
  8
240
  6
CONTINUOUS
 10
72.37215547015407
 20
36.949999999982673
 30
0.0
 11
71.700000000019315
 21
36.94999999999223
 31
0.0
  0
LINE
  5
4731
  8
240
  6
CONTINUOUS
 10
74.700000000013318
 20
-37.108153576203108
 30
0.0
 11
74.70000000001383
 21
-47.499999999999801
 31
0.0
  0
LINE
  5
4733
  8
241
  6
CONTINUOUS
 10
124.7000000000114
 20
52.249999999999893
 30
0.0
 11
124.7000000000114
 21
38.924768746200762
 31
0.0
  0
LINE
  5
4734
  8
241
  6
CONTINUOUS
 10
107.7000000000094
 20
52.250000000004867
 30
0.0
 11
107.7000000000092
 21
39.151992363811701
 31
0.0
  0
LINE
  5
4736
  8
241
  6
CONTINUOUS
 10
110.00000000000939
 20
4.0000000000000551
 30
0.0
 11
122.0000000000105
 21
4.0000000000000551
 31
0.0
  0
LINE
  5
4739
  8
241
  6
CONTINUOUS
 10
110.00000000000939
 20
4.5000000000000844
 30
0.0
 11
122.0000000000105
 21
4.5000000000000844
 31
0.0
  0
LINE
  5
473C
  8
241
  6
CONTINUOUS
 10
110.00000000000961
 20
34.009477945981807
 30
0.0
 11
122.0000000000103
 21
34.009477945981807
 31
0.0
  0
LINE
  5
473D
  8
241
  6
CONTINUOUS
 10
109.9999947765202
 20
39.666332195474702
 30
0.0
 11
122.0000000000103
 21
39.666332195474702
 31
0.0
  0
POLYLINE
  5
473E
  8
241
  6
CONTINUOUS
 66
     1
 10
0.0
 20
0.0
 30
0.0
 70
     8
  0
VERTEX
  5
4D65
  8
241
 10
122.0
 20
39.6663
 30
0.0
 70
    32
  0
VERTEX
  5
4D66
  8
241
 10
122.098
 20
39.665500000000002
 30
0.0
 70
    32
  0
VERTEX
  5
4D67
  8
241
 10
122.196
 20
39.6629
 30
0.0
 70
    32
  0
VERTEX
  5
4D68
  8
241
 10
122.294
 20
39.65870000000001
 30
0.0
 70
    32
  0
VERTEX
  5
4D69
  8
241
 10
122.392
 20
39.652700000000003
 30
0.0
 70
    32
  0
VERTEX
  5
4D6A
  8
241
 10
122.48999999999999
 20
39.645099999999999
 30
0.0
 70
    32
  0
VERTEX
  5
4D6B
  8
241
 10
122.587
 20
39.6357
 30
0.0
 70
    32
  0
VERTEX
  5
4D6C
  8
241
 10
122.684
 20
39.624699999999997
 30
0.0
 70
    32
  0
VERTEX
  5
4D6D
  8
241
 10
122.78
 20
39.612000000000002
 30
0.0
 70
    32
  0
VERTEX
  5
4D6E
  8
241
 10
122.876
 20
39.5976
 30
0.0
 70
    32
  0
VERTEX
  5
4D6F
  8
241
 10
122.97199999999999
 20
39.581600000000002
 30
0.0
 70
    32
  0
VERTEX
  5
4D70
  8
241
 10
123.06699999999999
 20
39.563899999999997
 30
0.0
 70
    32
  0
VERTEX
  5
4D71
  8
241
 10
123.161
 20
39.544499999999999
 30
0.0
 70
    32
  0
VERTEX
  5
4D72
  8
241
 10
123.255
 20
39.523600000000002
 30
0.0
 70
    32
  0
VERTEX
  5
4D73
  8
241
 10
123.348
 20
39.500999999999998
 30
0.0
 70
    32
  0
VERTEX
  5
4D74
  8
241
 10
123.44
 20
39.476799999999997
 30
0.0
 70
    32
  0
VERTEX
  5
4D75
  8
241
 10
123.53100000000001
 20
39.451000000000001
 30
0.0
 70
    32
  0
VERTEX
  5
4D76
  8
241
 10
123.621
 20
39.423699999999997
 30
0.0
 70
    32
  0
VERTEX
  5
4D77
  8
241
 10
123.70999999999999
 20
39.394799999999996
 30
0.0
 70
    32
  0
VERTEX
  5
4D78
  8
241
 10
123.798
 20
39.3643
 30
0.0
 70
    32
  0
VERTEX
  5
4D79
  8
241
 10
123.886
 20
39.3324
 30
0.0
 70
    32
  0
VERTEX
  5
4D7A
  8
241
 10
123.97199999999999
 20
39.298900000000003
 30
0.0
 70
    32
  0
VERTEX
  5
4D7B
  8
241
 10
124.056
 20
39.2639
 30
0.0
 70
    32
  0
VERTEX
  5
4D7C
  8
241
 10
124.14
 20
39.227499999999999
 30
0.0
 70
    32
  0
VERTEX
  5
4D7D
  8
241
 10
124.22199999999999
 20
39.189700000000002
 30
0.0
 70
    32
  0
VERTEX
  5
4D7E
  8
241
 10
124.303
 20
39.150399999999998
 30
0.0
 70
    32
  0
VERTEX
  5
4D7F
  8
241
 10
124.383
 20
39.109699999999997
 30
0.0
 70
    32
  0
VERTEX
  5
4D80
  8
241
 10
124.461
 20
39.067700000000002
 30
0.0
 70
    32
  0
VERTEX
  5
4D81
  8
241
 10
124.538
 20
39.024299999999997
 30
0.0
 70
    32
  0
VERTEX
  5
4D82
  8
241
 10
124.613
 20
38.979599999999998
 30
0.0
 70
    32
  0
VERTEX
  5
4D83
  8
241
 10
124.68600000000001
 20
38.933599999999998
 30
0.0
 70
    32
  0
VERTEX
  5
4D84
  8
241
 10
124.758
 20
38.886400000000002
 30
0.0
 70
    32
  0
VERTEX
  5
4D85
  8
241
 10
124.828
 20
38.837899999999998
 30
0.0
 70
    32
  0
VERTEX
  5
4D86
  8
241
 10
124.89700000000001
 20
38.78820000000001
 30
0.0
 70
    32
  0
VERTEX
  5
4D87
  8
241
 10
124.964
 20
38.737400000000001
 30
0.0
 70
    32
  0
VERTEX
  5
4D88
  8
241
 10
125.029
 20
38.685400000000001
 30
0.0
 70
    32
  0
VERTEX
  5
4D89
  8
241
 10
125.092
 20
38.632199999999997
 30
0.0
 70
    32
  0
VERTEX
  5
4D8A
  8
241
 10
125.15300000000001
 20
38.57800000000001
 30
0.0
 70
    32
  0
VERTEX
  5
4D8B
  8
241
 10
125.21299999999999
 20
38.522799999999997
 30
0.0
 70
    32
  0
VERTEX
  5
4D8C
  8
241
 10
125.27
 20
38.466500000000003
 30
0.0
 70
    32
  0
VERTEX
  5
4D8D
  8
241
 10
125.32599999999999
 20
38.409300000000002
 30
0.0
 70
    32
  0
VERTEX
  5
4D8E
  8
241
 10
125.379
 20
38.351100000000002
 30
0.0
 70
    32
  0
VERTEX
  5
4D8F
  8
241
 10
125.431
 20
38.292000000000002
 30
0.0
 70
    32
  0
VERTEX
  5
4D90
  8
241
 10
125.48
 20
38.231999999999999
 30
0.0
 70
    32
  0
VERTEX
  5
4D91
  8
241
 10
125.52800000000001
 20
38.171199999999999
 30
0.0
 70
    32
  0
VERTEX
  5
4D92
  8
241
 10
125.57299999999999
 20
38.1096
 30
0.0
 70
    32
  0
VERTEX
  5
4D93
  8
241
 10
125.616
 20
38.047199999999997
 30
0.0
 70
    32
  0
VERTEX
  5
4D94
  8
241
 10
125.657
 20
37.984099999999998
 30
0.0
 70
    32
  0
VERTEX
  5
4D95
  8
241
 10
125.696
 20
37.920299999999997
 30
0.0
 70
    32
  0
VERTEX
  5
4D96
  8
241
 10
125.732
 20
37.855800000000002
 30
0.0
 70
    32
  0
VERTEX
  5
4D97
  8
241
 10
125.76600000000001
 20
37.790799999999997
 30
0.0
 70
    32
  0
VERTEX
  5
4D98
  8
241
 10
125.798
 20
37.725099999999998
 30
0.0
 70
    32
  0
VERTEX
  5
4D99
  8
241
 10
125.828
 20
37.658999999999999
 30
0.0
 70
    32
  0
VERTEX
  5
4D9A
  8
241
 10
125.855
 20
37.592300000000002
 30
0.0
 70
    32
  0
VERTEX
  5
4D9B
  8
241
 10
125.88
 20
37.525199999999998
 30
0.0
 70
    32
  0
VERTEX
  5
4D9C
  8
241
 10
125.90300000000001
 20
37.457599999999999
 30
0.0
 70
    32
  0
VERTEX
  5
4D9D
  8
241
 10
125.923
 20
37.389699999999998
 30
0.0
 70
    32
  0
VERTEX
  5
4D9E
  8
241
 10
125.941
 20
37.3215
 30
0.0
 70
    32
  0
VERTEX
  5
4D9F
  8
241
 10
125.95699999999999
 20
37.252899999999997
 30
0.0
 70
    32
  0
VERTEX
  5
4DA0
  8
241
 10
125.97
 20
37.184100000000001
 30
0.0
 70
    32
  0
VERTEX
  5
4DA1
  8
241
 10
125.98099999999999
 20
37.115099999999998
 30
0.0
 70
    32
  0
VERTEX
  5
4DA2
  8
241
 10
125.989
 20
37.045999999999999
 30
0.0
 70
    32
  0
VERTEX
  5
4DA3
  8
241
 10
125.995
 20
36.976700000000001
 30
0.0
 70
    32
  0
VERTEX
  5
4DA4
  8
241
 10
125.999
 20
36.907299999999999
 30
0.0
 70
    32
  0
VERTEX
  5
4DA5
  8
241
 10
126.0
 20
36.837899999999998
 30
0.0
 70
    32
  0
VERTEX
  5
4DA6
  8
241
 10
125.999
 20
36.768500000000003
 30
0.0
 70
    32
  0
VERTEX
  5
4DA7
  8
241
 10
125.995
 20
36.699100000000001
 30
0.0
 70
    32
  0
VERTEX
  5
4DA8
  8
241
 10
125.989
 20
36.62980000000001
 30
0.0
 70
    32
  0
VERTEX
  5
4DA9
  8
241
 10
125.98099999999999
 20
36.560699999999997
 30
0.0
 70
    32
  0
VERTEX
  5
4DAA
  8
241
 10
125.97
 20
36.491700000000002
 30
0.0
 70
    32
  0
VERTEX
  5
4DAB
  8
241
 10
125.95699999999999
 20
36.422899999999998
 30
0.0
 70
    32
  0
VERTEX
  5
4DAC
  8
241
 10
125.941
 20
36.354399999999998
 30
0.0
 70
    32
  0
VERTEX
  5
4DAD
  8
241
 10
125.923
 20
36.286099999999998
 30
0.0
 70
    32
  0
VERTEX
  5
4DAE
  8
241
 10
125.90300000000001
 20
36.218200000000003
 30
0.0
 70
    32
  0
VERTEX
  5
4DAF
  8
241
 10
125.88
 20
36.150700000000001
 30
0.0
 70
    32
  0
VERTEX
  5
4DB0
  8
241
 10
125.855
 20
36.083500000000001
 30
0.0
 70
    32
  0
VERTEX
  5
4DB1
  8
241
 10
125.828
 20
36.0169
 30
0.0
 70
    32
  0
VERTEX
  5
4DB2
  8
241
 10
125.798
 20
35.950699999999998
 30
0.0
 70
    32
  0
VERTEX
  5
4DB3
  8
241
 10
125.76600000000001
 20
35.884999999999998
 30
0.0
 70
    32
  0
VERTEX
  5
4DB4
  8
241
 10
125.732
 20
35.82
 30
0.0
 70
    32
  0
VERTEX
  5
4DB5
  8
241
 10
125.696
 20
35.755499999999998
 30
0.0
 70
    32
  0
VERTEX
  5
4DB6
  8
241
 10
125.657
 20
35.691699999999997
 30
0.0
 70
    32
  0
VERTEX
  5
4DB7
  8
241
 10
125.616
 20
35.628599999999999
 30
0.0
 70
    32
  0
VERTEX
  5
4DB8
  8
241
 10
125.57299999999999
 20
35.566200000000009
 30
0.0
 70
    32
  0
VERTEX
  5
4DB9
  8
241
 10
125.52800000000001
 20
35.504600000000011
 30
0.0
 70
    32
  0
VERTEX
  5
4DBA
  8
241
 10
125.48
 20
35.44380000000001
 30
0.0
 70
    32
  0
VERTEX
  5
4DBB
  8
241
 10
125.431
 20
35.383800000000001
 30
0.0
 70
    32
  0
VERTEX
  5
4DBC
  8
241
 10
125.379
 20
35.3247
 30
0.0
 70
    32
  0
VERTEX
  5
4DBD
  8
241
 10
125.32599999999999
 20
35.266500000000001
 30
0.0
 70
    32
  0
VERTEX
  5
4DBE
  8
241
 10
125.27
 20
35.209299999999999
 30
0.0
 70
    32
  0
VERTEX
  5
4DBF
  8
241
 10
125.21299999999999
 20
35.152999999999999
 30
0.0
 70
    32
  0
VERTEX
  5
4DC0
  8
241
 10
125.15300000000001
 20
35.097799999999999
 30
0.0
 70
    32
  0
VERTEX
  5
4DC1
  8
241
 10
125.092
 20
35.043599999999998
 30
0.0
 70
    32
  0
VERTEX
  5
4DC2
  8
241
 10
125.029
 20
34.990499999999997
 30
0.0
 70
    32
  0
VERTEX
  5
4DC3
  8
241
 10
124.964
 20
34.938400000000001
 30
0.0
 70
    32
  0
VERTEX
  5
4DC4
  8
241
 10
124.89700000000001
 20
34.887599999999999
 30
0.0
 70
    32
  0
VERTEX
  5
4DC5
  8
241
 10
124.828
 20
34.837899999999998
 30
0.0
 70
    32
  0
VERTEX
  5
4DC6
  8
241
 10
124.758
 20
34.789400000000001
 30
0.0
 70
    32
  0
VERTEX
  5
4DC7
  8
241
 10
124.68600000000001
 20
34.742199999999997
 30
0.0
 70
    32
  0
VERTEX
  5
4DC8
  8
241
 10
124.613
 20
34.696199999999997
 30
0.0
 70
    32
  0
VERTEX
  5
4DC9
  8
241
 10
124.538
 20
34.651499999999999
 30
0.0
 70
    32
  0
VERTEX
  5
4DCA
  8
241
 10
124.461
 20
34.6081
 30
0.0
 70
    32
  0
VERTEX
  5
4DCB
  8
241
 10
124.383
 20
34.566099999999999
 30
0.0
 70
    32
  0
VERTEX
  5
4DCC
  8
241
 10
124.303
 20
34.525399999999998
 30
0.0
 70
    32
  0
VERTEX
  5
4DCD
  8
241
 10
124.22199999999999
 20
34.486199999999997
 30
0.0
 70
    32
  0
VERTEX
  5
4DCE
  8
241
 10
124.14
 20
34.448300000000003
 30
0.0
 70
    32
  0
VERTEX
  5
4DCF
  8
241
 10
124.056
 20
34.41190000000001
 30
0.0
 70
    32
  0
VERTEX
  5
4DD0
  8
241
 10
123.97199999999999
 20
34.376899999999999
 30
0.0
 70
    32
  0
VERTEX
  5
4DD1
  8
241
 10
123.886
 20
34.343499999999999
 30
0.0
 70
    32
  0
VERTEX
  5
4DD2
  8
241
 10
123.798
 20
34.311500000000009
 30
0.0
 70
    32
  0
VERTEX
  5
4DD3
  8
241
 10
123.70999999999999
 20
34.280999999999999
 30
0.0
 70
    32
  0
VERTEX
  5
4DD4
  8
241
 10
123.621
 20
34.252099999999999
 30
0.0
 70
    32
  0
VERTEX
  5
4DD5
  8
241
 10
123.53100000000001
 20
34.224800000000002
 30
0.0
 70
    32
  0
VERTEX
  5
4DD6
  8
241
 10
123.44
 20
34.198999999999998
 30
0.0
 70
    32
  0
VERTEX
  5
4DD7
  8
241
 10
123.348
 20
34.174799999999998
 30
0.0
 70
    32
  0
VERTEX
  5
4DD8
  8
241
 10
123.255
 20
34.152200000000001
 30
0.0
 70
    32
  0
VERTEX
  5
4DD9
  8
241
 10
123.161
 20
34.13130000000001
 30
0.0
 70
    32
  0
VERTEX
  5
4DDA
  8
241
 10
123.06699999999999
 20
34.111899999999999
 30
0.0
 70
    32
  0
VERTEX
  5
4DDB
  8
241
 10
122.97199999999999
 20
34.094200000000001
 30
0.0
 70
    32
  0
VERTEX
  5
4DDC
  8
241
 10
122.876
 20
34.078200000000002
 30
0.0
 70
    32
  0
VERTEX
  5
4DDD
  8
241
 10
122.78
 20
34.063800000000001
 30
0.0
 70
    32
  0
VERTEX
  5
4DDE
  8
241
 10
122.684
 20
34.051099999999998
 30
0.0
 70
    32
  0
VERTEX
  5
4DDF
  8
241
 10
122.587
 20
34.040100000000002
 30
0.0
 70
    32
  0
VERTEX
  5
4DE0
  8
241
 10
122.48999999999999
 20
34.030700000000003
 30
0.0
 70
    32
  0
VERTEX
  5
4DE1
  8
241
 10
122.392
 20
34.023099999999999
 30
0.0
 70
    32
  0
VERTEX
  5
4DE2
  8
241
 10
122.294
 20
34.017099999999999
 30
0.0
 70
    32
  0
VERTEX
  5
4DE3
  8
241
 10
122.196
 20
34.012900000000002
 30
0.0
 70
    32
  0
VERTEX
  5
4DE4
  8
241
 10
122.098
 20
34.010300000000001
 30
0.0
 70
    32
  0
VERTEX
  5
4DE5
  8
241
 10
122.0
 20
34.009500000000003
 30
0.0
 70
    32
  0
SEQEND
  5
4DE6
  8
241
  0
POLYLINE
  5
473F
  8
241
  6
CONTINUOUS
 66
     1
 10
0.0
 20
0.0
 30
0.0
 70
     8
  0
VERTEX
  5
4DE7
  8
241
 10
110.0
 20
34.009500000000003
 30
0.0
 70
    32
  0
VERTEX
  5
4DE8
  8
241
 10
109.902
 20
34.010300000000001
 30
0.0
 70
    32
  0
VERTEX
  5
4DE9
  8
241
 10
109.804
 20
34.012900000000002
 30
0.0
 70
    32
  0
VERTEX
  5
4DEA
  8
241
 10
109.706
 20
34.017099999999999
 30
0.0
 70
    32
  0
VERTEX
  5
4DEB
  8
241
 10
109.608
 20
34.023099999999999
 30
0.0
 70
    32
  0
VERTEX
  5
4DEC
  8
241
 10
109.51000000000001
 20
34.030700000000003
 30
0.0
 70
    32
  0
VERTEX
  5
4DED
  8
241
 10
109.413
 20
34.040100000000002
 30
0.0
 70
    32
  0
VERTEX
  5
4DEE
  8
241
 10
109.316
 20
34.051099999999998
 30
0.0
 70
    32
  0
VERTEX
  5
4DEF
  8
241
 10
109.22
 20
34.063800000000001
 30
0.0
 70
    32
  0
VERTEX
  5
4DF0
  8
241
 10
109.124
 20
34.078200000000002
 30
0.0
 70
    32
  0
VERTEX
  5
4DF1
  8
241
 10
109.02800000000001
 20
34.094200000000001
 30
0.0
 70
    32
  0
VERTEX
  5
4DF2
  8
241
 10
108.93300000000001
 20
34.111899999999999
 30
0.0
 70
    32
  0
VERTEX
  5
4DF3
  8
241
 10
108.839
 20
34.13130000000001
 30
0.0
 70
    32
  0
VERTEX
  5
4DF4
  8
241
 10
108.745
 20
34.152200000000001
 30
0.0
 70
    32
  0
VERTEX
  5
4DF5
  8
241
 10
108.652
 20
34.174799999999998
 30
0.0
 70
    32
  0
VERTEX
  5
4DF6
  8
241
 10
108.56
 20
34.198999999999998
 30
0.0
 70
    32
  0
VERTEX
  5
4DF7
  8
241
 10
108.46899999999999
 20
34.224800000000002
 30
0.0
 70
    32
  0
VERTEX
  5
4DF8
  8
241
 10
108.379
 20
34.252099999999999
 30
0.0
 70
    32
  0
VERTEX
  5
4DF9
  8
241
 10
108.29000000000001
 20
34.280999999999999
 30
0.0
 70
    32
  0
VERTEX
  5
4DFA
  8
241
 10
108.202
 20
34.311500000000009
 30
0.0
 70
    32
  0
VERTEX
  5
4DFB
  8
241
 10
108.114
 20
34.343499999999999
 30
0.0
 70
    32
  0
VERTEX
  5
4DFC
  8
241
 10
108.02800000000001
 20
34.376899999999999
 30
0.0
 70
    32
  0
VERTEX
  5
4DFD
  8
241
 10
107.944
 20
34.41190000000001
 30
0.0
 70
    32
  0
VERTEX
  5
4DFE
  8
241
 10
107.86
 20
34.448300000000003
 30
0.0
 70
    32
  0
VERTEX
  5
4DFF
  8
241
 10
107.77800000000001
 20
34.486199999999997
 30
0.0
 70
    32
  0
VERTEX
  5
4E00
  8
241
 10
107.697
 20
34.525399999999998
 30
0.0
 70
    32
  0
VERTEX
  5
4E01
  8
241
 10
107.617
 20
34.566099999999999
 30
0.0
 70
    32
  0
VERTEX
  5
4E02
  8
241
 10
107.539
 20
34.6081
 30
0.0
 70
    32
  0
VERTEX
  5
4E03
  8
241
 10
107.462
 20
34.651499999999999
 30
0.0
 70
    32
  0
VERTEX
  5
4E04
  8
241
 10
107.387
 20
34.696199999999997
 30
0.0
 70
    32
  0
VERTEX
  5
4E05
  8
241
 10
107.31399999999999
 20
34.742199999999997
 30
0.0
 70
    32
  0
VERTEX
  5
4E06
  8
241
 10
107.242
 20
34.789400000000001
 30
0.0
 70
    32
  0
VERTEX
  5
4E07
  8
241
 10
107.172
 20
34.837899999999998
 30
0.0
 70
    32
  0
VERTEX
  5
4E08
  8
241
 10
107.10299999999999
 20
34.887599999999999
 30
0.0
 70
    32
  0
VERTEX
  5
4E09
  8
241
 10
107.036
 20
34.938499999999998
 30
0.0
 70
    32
  0
VERTEX
  5
4E0A
  8
241
 10
106.971
 20
34.990499999999997
 30
0.0
 70
    32
  0
VERTEX
  5
4E0B
  8
241
 10
106.908
 20
35.043599999999998
 30
0.0
 70
    32
  0
VERTEX
  5
4E0C
  8
241
 10
106.84699999999999
 20
35.097799999999999
 30
0.0
 70
    32
  0
VERTEX
  5
4E0D
  8
241
 10
106.78700000000001
 20
35.152999999999999
 30
0.0
 70
    32
  0
VERTEX
  5
4E0E
  8
241
 10
106.73
 20
35.209299999999999
 30
0.0
 70
    32
  0
VERTEX
  5
4E0F
  8
241
 10
106.67400000000001
 20
35.266500000000001
 30
0.0
 70
    32
  0
VERTEX
  5
4E10
  8
241
 10
106.621
 20
35.3247
 30
0.0
 70
    32
  0
VERTEX
  5
4E11
  8
241
 10
106.569
 20
35.383800000000001
 30
0.0
 70
    32
  0
VERTEX
  5
4E12
  8
241
 10
106.52
 20
35.44380000000001
 30
0.0
 70
    32
  0
VERTEX
  5
4E13
  8
241
 10
106.47199999999999
 20
35.504600000000011
 30
0.0
 70
    32
  0
VERTEX
  5
4E14
  8
241
 10
106.42700000000001
 20
35.566200000000009
 30
0.0
 70
    32
  0
VERTEX
  5
4E15
  8
241
 10
106.384
 20
35.628599999999999
 30
0.0
 70
    32
  0
VERTEX
  5
4E16
  8
241
 10
106.343
 20
35.691699999999997
 30
0.0
 70
    32
  0
VERTEX
  5
4E17
  8
241
 10
106.304
 20
35.755499999999998
 30
0.0
 70
    32
  0
VERTEX
  5
4E18
  8
241
 10
106.268
 20
35.82
 30
0.0
 70
    32
  0
VERTEX
  5
4E19
  8
241
 10
106.23399999999999
 20
35.884999999999998
 30
0.0
 70
    32
  0
VERTEX
  5
4E1A
  8
241
 10
106.202
 20
35.950699999999998
 30
0.0
 70
    32
  0
VERTEX
  5
4E1B
  8
241
 10
106.172
 20
36.0169
 30
0.0
 70
    32
  0
VERTEX
  5
4E1C
  8
241
 10
106.145
 20
36.083500000000001
 30
0.0
 70
    32
  0
VERTEX
  5
4E1D
  8
241
 10
106.12
 20
36.150700000000001
 30
0.0
 70
    32
  0
VERTEX
  5
4E1E
  8
241
 10
106.09699999999999
 20
36.218200000000003
 30
0.0
 70
    32
  0
VERTEX
  5
4E1F
  8
241
 10
106.077
 20
36.286099999999998
 30
0.0
 70
    32
  0
VERTEX
  5
4E20
  8
241
 10
106.059
 20
36.354399999999998
 30
0.0
 70
    32
  0
VERTEX
  5
4E21
  8
241
 10
106.04300000000001
 20
36.422899999999998
 30
0.0
 70
    32
  0
VERTEX
  5
4E22
  8
241
 10
106.03
 20
36.491700000000002
 30
0.0
 70
    32
  0
VERTEX
  5
4E23
  8
241
 10
106.01900000000001
 20
36.560699999999997
 30
0.0
 70
    32
  0
VERTEX
  5
4E24
  8
241
 10
106.011
 20
36.62980000000001
 30
0.0
 70
    32
  0
VERTEX
  5
4E25
  8
241
 10
106.005
 20
36.699100000000001
 30
0.0
 70
    32
  0
VERTEX
  5
4E26
  8
241
 10
106.001
 20
36.768500000000003
 30
0.0
 70
    32
  0
VERTEX
  5
4E27
  8
241
 10
106.0
 20
36.837899999999998
 30
0.0
 70
    32
  0
VERTEX
  5
4E28
  8
241
 10
106.001
 20
36.907299999999999
 30
0.0
 70
    32
  0
VERTEX
  5
4E29
  8
241
 10
106.005
 20
36.976700000000001
 30
0.0
 70
    32
  0
VERTEX
  5
4E2A
  8
241
 10
106.011
 20
37.045999999999999
 30
0.0
 70
    32
  0
VERTEX
  5
4E2B
  8
241
 10
106.01900000000001
 20
37.115099999999998
 30
0.0
 70
    32
  0
VERTEX
  5
4E2C
  8
241
 10
106.03
 20
37.184100000000001
 30
0.0
 70
    32
  0
VERTEX
  5
4E2D
  8
241
 10
106.04300000000001
 20
37.252899999999997
 30
0.0
 70
    32
  0
VERTEX
  5
4E2E
  8
241
 10
106.059
 20
37.3215
 30
0.0
 70
    32
  0
VERTEX
  5
4E2F
  8
241
 10
106.077
 20
37.389699999999998
 30
0.0
 70
    32
  0
VERTEX
  5
4E30
  8
241
 10
106.09699999999999
 20
37.457599999999999
 30
0.0
 70
    32
  0
VERTEX
  5
4E31
  8
241
 10
106.12
 20
37.525199999999998
 30
0.0
 70
    32
  0
VERTEX
  5
4E32
  8
241
 10
106.145
 20
37.592300000000002
 30
0.0
 70
    32
  0
VERTEX
  5
4E33
  8
241
 10
106.172
 20
37.658999999999999
 30
0.0
 70
    32
  0
VERTEX
  5
4E34
  8
241
 10
106.202
 20
37.725099999999998
 30
0.0
 70
    32
  0
VERTEX
  5
4E35
  8
241
 10
106.23399999999999
 20
37.790799999999997
 30
0.0
 70
    32
  0
VERTEX
  5
4E36
  8
241
 10
106.268
 20
37.855800000000002
 30
0.0
 70
    32
  0
VERTEX
  5
4E37
  8
241
 10
106.304
 20
37.920299999999997
 30
0.0
 70
    32
  0
VERTEX
  5
4E38
  8
241
 10
106.343
 20
37.984099999999998
 30
0.0
 70
    32
  0
VERTEX
  5
4E39
  8
241
 10
106.384
 20
38.047199999999997
 30
0.0
 70
    32
  0
VERTEX
  5
4E3A
  8
241
 10
106.42700000000001
 20
38.1096
 30
0.0
 70
    32
  0
VERTEX
  5
4E3B
  8
241
 10
106.47199999999999
 20
38.171199999999999
 30
0.0
 70
    32
  0
VERTEX
  5
4E3C
  8
241
 10
106.52
 20
38.231999999999999
 30
0.0
 70
    32
  0
VERTEX
  5
4E3D
  8
241
 10
106.569
 20
38.292000000000002
 30
0.0
 70
    32
  0
VERTEX
  5
4E3E
  8
241
 10
106.621
 20
38.351100000000002
 30
0.0
 70
    32
  0
VERTEX
  5
4E3F
  8
241
 10
106.67400000000001
 20
38.409300000000002
 30
0.0
 70
    32
  0
VERTEX
  5
4E40
  8
241
 10
106.73
 20
38.466500000000003
 30
0.0
 70
    32
  0
VERTEX
  5
4E41
  8
241
 10
106.78700000000001
 20
38.522799999999997
 30
0.0
 70
    32
  0
VERTEX
  5
4E42
  8
241
 10
106.84699999999999
 20
38.57800000000001
 30
0.0
 70
    32
  0
VERTEX
  5
4E43
  8
241
 10
106.908
 20
38.632199999999997
 30
0.0
 70
    32
  0
VERTEX
  5
4E44
  8
241
 10
106.971
 20
38.685400000000001
 30
0.0
 70
    32
  0
VERTEX
  5
4E45
  8
241
 10
107.036
 20
38.737400000000001
 30
0.0
 70
    32
  0
VERTEX
  5
4E46
  8
241
 10
107.10299999999999
 20
38.78820000000001
 30
0.0
 70
    32
  0
VERTEX
  5
4E47
  8
241
 10
107.172
 20
38.837899999999998
 30
0.0
 70
    32
  0
VERTEX
  5
4E48
  8
241
 10
107.242
 20
38.886400000000002
 30
0.0
 70
    32
  0
VERTEX
  5
4E49
  8
241
 10
107.31399999999999
 20
38.933599999999998
 30
0.0
 70
    32
  0
VERTEX
  5
4E4A
  8
241
 10
107.387
 20
38.979599999999998
 30
0.0
 70
    32
  0
VERTEX
  5
4E4B
  8
241
 10
107.462
 20
39.024299999999997
 30
0.0
 70
    32
  0
VERTEX
  5
4E4C
  8
241
 10
107.539
 20
39.067700000000002
 30
0.0
 70
    32
  0
VERTEX
  5
4E4D
  8
241
 10
107.617
 20
39.109699999999997
 30
0.0
 70
    32
  0
VERTEX
  5
4E4E
  8
241
 10
107.697
 20
39.150399999999998
 30
0.0
 70
    32
  0
VERTEX
  5
4E4F
  8
241
 10
107.77800000000001
 20
39.189700000000002
 30
0.0
 70
    32
  0
VERTEX
  5
4E50
  8
241
 10
107.86
 20
39.227499999999999
 30
0.0
 70
    32
  0
VERTEX
  5
4E51
  8
241
 10
107.944
 20
39.2639
 30
0.0
 70
    32
  0
VERTEX
  5
4E52
  8
241
 10
108.02800000000001
 20
39.298900000000003
 30
0.0
 70
    32
  0
VERTEX
  5
4E53
  8
241
 10
108.114
 20
39.3324
 30
0.0
 70
    32
  0
VERTEX
  5
4E54
  8
241
 10
108.202
 20
39.3643
 30
0.0
 70
    32
  0
VERTEX
  5
4E55
  8
241
 10
108.29000000000001
 20
39.394799999999996
 30
0.0
 70
    32
  0
VERTEX
  5
4E56
  8
241
 10
108.379
 20
39.423699999999997
 30
0.0
 70
    32
  0
VERTEX
  5
4E57
  8
241
 10
108.46899999999999
 20
39.451000000000001
 30
0.0
 70
    32
  0
VERTEX
  5
4E58
  8
241
 10
108.56
 20
39.476799999999997
 30
0.0
 70
    32
  0
VERTEX
  5
4E59
  8
241
 10
108.652
 20
39.500999999999998
 30
0.0
 70
    32
  0
VERTEX
  5
4E5A
  8
241
 10
108.745
 20
39.523600000000002
 30
0.0
 70
    32
  0
VERTEX
  5
4E5B
  8
241
 10
108.839
 20
39.544499999999999
 30
0.0
 70
    32
  0
VERTEX
  5
4E5C
  8
241
 10
108.93300000000001
 20
39.563899999999997
 30
0.0
 70
    32
  0
VERTEX
  5
4E5D
  8
241
 10
109.02800000000001
 20
39.581600000000002
 30
0.0
 70
    32
  0
VERTEX
  5
4E5E
  8
241
 10
109.124
 20
39.5976
 30
0.0
 70
    32
  0
VERTEX
  5
4E5F
  8
241
 10
109.22
 20
39.612000000000002
 30
0.0
 70
    32
  0
VERTEX
  5
4E60
  8
241
 10
109.316
 20
39.624699999999997
 30
0.0
 70
    32
  0
VERTEX
  5
4E61
  8
241
 10
109.413
 20
39.6357
 30
0.0
 70
    32
  0
VERTEX
  5
4E62
  8
241
 10
109.51000000000001
 20
39.645099999999999
 30
0.0
 70
    32
  0
VERTEX
  5
4E63
  8
241
 10
109.608
 20
39.652700000000003
 30
0.0
 70
    32
  0
VERTEX
  5
4E64
  8
241
 10
109.706
 20
39.65870000000001
 30
0.0
 70
    32
  0
VERTEX
  5
4E65
  8
241
 10
109.804
 20
39.6629
 30
0.0
 70
    32
  0
VERTEX
  5
4E66
  8
241
 10
109.902
 20
39.665500000000002
 30
0.0
 70
    32
  0
VERTEX
  5
4E67
  8
241
 10
110.0
 20
39.6663
 30
0.0
 70
    32
  0
SEQEND
  5
4E68
  8
241
  0
LINE
  5
4740
  8
241
  6
CONTINUOUS
 10
109.9999947765205
 20
37.087750673235057
 30
0.0
 11
122.0000000000105
 21
37.087750673235057
 31
0.0
  0
POLYLINE
  5
4741
  8
241
  6
CONTINUOUS
 66
     1
 10
0.0
 20
0.0
 30
0.0
 70
     8
  0
VERTEX
  5
4E69
  8
241
 10
122.0
 20
37.087800000000001
 30
0.0
 70
    32
  0
VERTEX
  5
4E6A
  8
241
 10
122.03400000000001
 20
37.087600000000002
 30
0.0
 70
    32
  0
VERTEX
  5
4E6B
  8
241
 10
122.069
 20
37.087299999999999
 30
0.0
 70
    32
  0
VERTEX
  5
4E6C
  8
241
 10
122.10299999999999
 20
37.086799999999997
 30
0.0
 70
    32
  0
VERTEX
  5
4E6D
  8
241
 10
122.137
 20
37.086100000000002
 30
0.0
 70
    32
  0
VERTEX
  5
4E6E
  8
241
 10
122.17100000000001
 20
37.0852
 30
0.0
 70
    32
  0
VERTEX
  5
4E6F
  8
241
 10
122.206
 20
37.08400000000001
 30
0.0
 70
    32
  0
VERTEX
  5
4E70
  8
241
 10
122.23999999999999
 20
37.08270000000001
 30
0.0
 70
    32
  0
VERTEX
  5
4E71
  8
241
 10
122.274
 20
37.081099999999999
 30
0.0
 70
    32
  0
VERTEX
  5
4E72
  8
241
 10
122.30800000000001
 20
37.079300000000011
 30
0.0
 70
    32
  0
VERTEX
  5
4E73
  8
241
 10
122.343
 20
37.077399999999997
 30
0.0
 70
    32
  0
VERTEX
  5
4E74
  8
241
 10
122.377
 20
37.075200000000009
 30
0.0
 70
    32
  0
VERTEX
  5
4E75
  8
241
 10
122.411
 20
37.072800000000001
 30
0.0
 70
    32
  0
VERTEX
  5
4E76
  8
241
 10
122.44499999999999
 20
37.0702
 30
0.0
 70
    32
  0
VERTEX
  5
4E77
  8
241
 10
122.479
 20
37.067399999999999
 30
0.0
 70
    32
  0
VERTEX
  5
4E78
  8
241
 10
122.51300000000001
 20
37.064399999999999
 30
0.0
 70
    32
  0
VERTEX
  5
4E79
  8
241
 10
122.547
 20
37.061199999999999
 30
0.0
 70
    32
  0
VERTEX
  5
4E7A
  8
241
 10
122.581
 20
37.0578
 30
0.0
 70
    32
  0
VERTEX
  5
4E7B
  8
241
 10
122.61499999999999
 20
37.054099999999998
 30
0.0
 70
    32
  0
VERTEX
  5
4E7C
  8
241
 10
122.649
 20
37.0503
 30
0.0
 70
    32
  0
VERTEX
  5
4E7D
  8
241
 10
122.68300000000001
 20
37.046300000000002
 30
0.0
 70
    32
  0
VERTEX
  5
4E7E
  8
241
 10
122.71599999999999
 20
37.042000000000002
 30
0.0
 70
    32
  0
VERTEX
  5
4E7F
  8
241
 10
122.75
 20
37.037599999999998
 30
0.0
 70
    32
  0
VERTEX
  5
4E80
  8
241
 10
122.78400000000001
 20
37.032899999999998
 30
0.0
 70
    32
  0
VERTEX
  5
4E81
  8
241
 10
122.81699999999999
 20
37.028100000000002
 30
0.0
 70
    32
  0
VERTEX
  5
4E82
  8
241
 10
122.851
 20
37.02300000000001
 30
0.0
 70
    32
  0
VERTEX
  5
4E83
  8
241
 10
122.884
 20
37.017800000000001
 30
0.0
 70
    32
  0
VERTEX
  5
4E84
  8
241
 10
122.91800000000001
 20
37.01230000000001
 30
0.0
 70
    32
  0
VERTEX
  5
4E85
  8
241
 10
122.95099999999999
 20
37.006599999999999
 30
0.0
 70
    32
  0
VERTEX
  5
4E86
  8
241
 10
122.98399999999999
 20
37.000799999999998
 30
0.0
 70
    32
  0
VERTEX
  5
4E87
  8
241
 10
123.018
 20
36.994700000000002
 30
0.0
 70
    32
  0
VERTEX
  5
4E88
  8
241
 10
123.051
 20
36.988399999999999
 30
0.0
 70
    32
  0
VERTEX
  5
4E89
  8
241
 10
123.084
 20
36.981999999999999
 30
0.0
 70
    32
  0
VERTEX
  5
4E8A
  8
241
 10
123.117
 20
36.975299999999997
 30
0.0
 70
    32
  0
VERTEX
  5
4E8B
  8
241
 10
123.15000000000001
 20
36.968400000000003
 30
0.0
 70
    32
  0
VERTEX
  5
4E8C
  8
241
 10
123.182
 20
36.961300000000001
 30
0.0
 70
    32
  0
VERTEX
  5
4E8D
  8
241
 10
123.215
 20
36.954099999999997
 30
0.0
 70
    32
  0
VERTEX
  5
4E8E
  8
241
 10
123.248
 20
36.946599999999997
 30
0.0
 70
    32
  0
VERTEX
  5
4E8F
  8
241
 10
123.28
 20
36.938899999999997
 30
0.0
 70
    32
  0
VERTEX
  5
4E90
  8
241
 10
123.313
 20
36.931100000000001
 30
0.0
 70
    32
  0
VERTEX
  5
4E91
  8
241
 10
123.345
 20
36.923000000000002
 30
0.0
 70
    32
  0
VERTEX
  5
4E92
  8
241
 10
123.377
 20
36.9148
 30
0.0
 70
    32
  0
VERTEX
  5
4E93
  8
241
 10
123.41
 20
36.906300000000002
 30
0.0
 70
    32
  0
VERTEX
  5
4E94
  8
241
 10
123.44199999999999
 20
36.8977
 30
0.0
 70
    32
  0
VERTEX
  5
4E95
  8
241
 10
123.474
 20
36.88880000000001
 30
0.0
 70
    32
  0
VERTEX
  5
4E96
  8
241
 10
123.505
 20
36.879800000000003
 30
0.0
 70
    32
  0
VERTEX
  5
4E97
  8
241
 10
123.53700000000001
 20
36.87060000000001
 30
0.0
 70
    32
  0
VERTEX
  5
4E98
  8
241
 10
123.569
 20
36.861199999999997
 30
0.0
 70
    32
  0
VERTEX
  5
4E99
  8
241
 10
123.59999999999999
 20
36.851599999999998
 30
0.0
 70
    32
  0
VERTEX
  5
4E9A
  8
241
 10
123.63200000000001
 20
36.841799999999999
 30
0.0
 70
    32
  0
VERTEX
  5
4E9B
  8
241
 10
123.663
 20
36.831800000000001
 30
0.0
 70
    32
  0
VERTEX
  5
4E9C
  8
241
 10
123.694
 20
36.821599999999997
 30
0.0
 70
    32
  0
VERTEX
  5
4E9D
  8
241
 10
123.72499999999999
 20
36.811300000000003
 30
0.0
 70
    32
  0
VERTEX
  5
4E9E
  8
241
 10
123.756
 20
36.800699999999999
 30
0.0
 70
    32
  0
VERTEX
  5
4E9F
  8
241
 10
123.78700000000001
 20
36.789999999999999
 30
0.0
 70
    32
  0
VERTEX
  5
4EA0
  8
241
 10
123.81699999999999
 20
36.779000000000011
 30
0.0
 70
    32
  0
VERTEX
  5
4EA1
  8
241
 10
123.848
 20
36.767899999999997
 30
0.0
 70
    32
  0
VERTEX
  5
4EA2
  8
241
 10
123.878
 20
36.756599999999999
 30
0.0
 70
    32
  0
VERTEX
  5
4EA3
  8
241
 10
123.908
 20
36.745199999999997
 30
0.0
 70
    32
  0
VERTEX
  5
4EA4
  8
241
 10
123.938
 20
36.733499999999999
 30
0.0
 70
    32
  0
VERTEX
  5
4EA5
  8
241
 10
123.968
 20
36.721699999999998
 30
0.0
 70
    32
  0
VERTEX
  5
4EA6
  8
241
 10
123.998
 20
36.709600000000002
 30
0.0
 70
    32
  0
VERTEX
  5
4EA7
  8
241
 10
124.02800000000001
 20
36.697400000000002
 30
0.0
 70
    32
  0
VERTEX
  5
4EA8
  8
241
 10
124.057
 20
36.685000000000002
 30
0.0
 70
    32
  0
VERTEX
  5
4EA9
  8
241
 10
124.086
 20
36.672499999999999
 30
0.0
 70
    32
  0
VERTEX
  5
4EAA
  8
241
 10
124.116
 20
36.659700000000001
 30
0.0
 70
    32
  0
VERTEX
  5
4EAB
  8
241
 10
124.145
 20
36.646799999999999
 30
0.0
 70
    32
  0
VERTEX
  5
4EAC
  8
241
 10
124.17400000000001
 20
36.633699999999997
 30
0.0
 70
    32
  0
VERTEX
  5
4EAD
  8
241
 10
124.202
 20
36.6205
 30
0.0
 70
    32
  0
VERTEX
  5
4EAE
  8
241
 10
124.23099999999999
 20
36.606999999999999
 30
0.0
 70
    32
  0
VERTEX
  5
4EAF
  8
241
 10
124.259
 20
36.593400000000003
 30
0.0
 70
    32
  0
VERTEX
  5
4EB0
  8
241
 10
124.28700000000001
 20
36.579599999999999
 30
0.0
 70
    32
  0
VERTEX
  5
4EB1
  8
241
 10
124.315
 20
36.5657
 30
0.0
 70
    32
  0
VERTEX
  5
4EB2
  8
241
 10
124.343
 20
36.551600000000001
 30
0.0
 70
    32
  0
VERTEX
  5
4EB3
  8
241
 10
124.371
 20
36.537300000000002
 30
0.0
 70
    32
  0
VERTEX
  5
4EB4
  8
241
 10
124.399
 20
36.522799999999997
 30
0.0
 70
    32
  0
VERTEX
  5
4EB5
  8
241
 10
124.426
 20
36.508200000000002
 30
0.0
 70
    32
  0
VERTEX
  5
4EB6
  8
241
 10
124.453
 20
36.493400000000001
 30
0.0
 70
    32
  0
VERTEX
  5
4EB7
  8
241
 10
124.48
 20
36.478400000000001
 30
0.0
 70
    32
  0
VERTEX
  5
4EB8
  8
241
 10
124.50700000000001
 20
36.463299999999997
 30
0.0
 70
    32
  0
VERTEX
  5
4EB9
  8
241
 10
124.53400000000001
 20
36.448
 30
0.0
 70
    32
  0
VERTEX
  5
4EBA
  8
241
 10
124.56
 20
36.432600000000001
 30
0.0
 70
    32
  0
VERTEX
  5
4EBB
  8
241
 10
124.586
 20
36.417000000000002
 30
0.0
 70
    32
  0
VERTEX
  5
4EBC
  8
241
 10
124.61199999999999
 20
36.401200000000003
 30
0.0
 70
    32
  0
VERTEX
  5
4EBD
  8
241
 10
124.63800000000001
 20
36.385300000000001
 30
0.0
 70
    32
  0
VERTEX
  5
4EBE
  8
241
 10
124.664
 20
36.369300000000003
 30
0.0
 70
    32
  0
VERTEX
  5
4EBF
  8
241
 10
124.68899999999999
 20
36.353000000000002
 30
0.0
 70
    32
  0
VERTEX
  5
4EC0
  8
241
 10
124.715
 20
36.336599999999997
 30
0.0
 70
    32
  0
VERTEX
  5
4EC1
  8
241
 10
124.73999999999999
 20
36.320099999999996
 30
0.0
 70
    32
  0
VERTEX
  5
4EC2
  8
241
 10
124.765
 20
36.303400000000003
 30
0.0
 70
    32
  0
VERTEX
  5
4EC3
  8
241
 10
124.789
 20
36.2866
 30
0.0
 70
    32
  0
VERTEX
  5
4EC4
  8
241
 10
124.81399999999999
 20
36.269599999999997
 30
0.0
 70
    32
  0
VERTEX
  5
4EC5
  8
241
 10
124.83799999999999
 20
36.252499999999998
 30
0.0
 70
    32
  0
VERTEX
  5
4EC6
  8
241
 10
124.86199999999999
 20
36.235199999999999
 30
0.0
 70
    32
  0
VERTEX
  5
4EC7
  8
241
 10
124.886
 20
36.217799999999997
 30
0.0
 70
    32
  0
VERTEX
  5
4EC8
  8
241
 10
124.91
 20
36.200200000000002
 30
0.0
 70
    32
  0
VERTEX
  5
4EC9
  8
241
 10
124.93300000000001
 20
36.182499999999997
 30
0.0
 70
    32
  0
VERTEX
  5
4ECA
  8
241
 10
124.956
 20
36.1646
 30
0.0
 70
    32
  0
VERTEX
  5
4ECB
  8
241
 10
124.979
 20
36.146599999999999
 30
0.0
 70
    32
  0
VERTEX
  5
4ECC
  8
241
 10
125.002
 20
36.128500000000003
 30
0.0
 70
    32
  0
VERTEX
  5
4ECD
  8
241
 10
125.02500000000001
 20
36.110199999999999
 30
0.0
 70
    32
  0
VERTEX
  5
4ECE
  8
241
 10
125.047
 20
36.091799999999999
 30
0.0
 70
    32
  0
VERTEX
  5
4ECF
  8
241
 10
125.069
 20
36.07330000000001
 30
0.0
 70
    32
  0
VERTEX
  5
4ED0
  8
241
 10
125.09099999999999
 20
36.054600000000001
 30
0.0
 70
    32
  0
VERTEX
  5
4ED1
  8
241
 10
125.113
 20
36.035800000000002
 30
0.0
 70
    32
  0
VERTEX
  5
4ED2
  8
241
 10
125.134
 20
36.0169
 30
0.0
 70
    32
  0
VERTEX
  5
4ED3
  8
241
 10
125.155
 20
35.997799999999998
 30
0.0
 70
    32
  0
VERTEX
  5
4ED4
  8
241
 10
125.176
 20
35.9786
 30
0.0
 70
    32
  0
VERTEX
  5
4ED5
  8
241
 10
125.197
 20
35.959299999999999
 30
0.0
 70
    32
  0
VERTEX
  5
4ED6
  8
241
 10
125.217
 20
35.939900000000002
 30
0.0
 70
    32
  0
VERTEX
  5
4ED7
  8
241
 10
125.238
 20
35.920299999999997
 30
0.0
 70
    32
  0
VERTEX
  5
4ED8
  8
241
 10
125.258
 20
35.900599999999997
 30
0.0
 70
    32
  0
VERTEX
  5
4ED9
  8
241
 10
125.277
 20
35.880800000000001
 30
0.0
 70
    32
  0
VERTEX
  5
4EDA
  8
241
 10
125.297
 20
35.860900000000001
 30
0.0
 70
    32
  0
VERTEX
  5
4EDB
  8
241
 10
125.316
 20
35.840800000000002
 30
0.0
 70
    32
  0
VERTEX
  5
4EDC
  8
241
 10
125.33499999999999
 20
35.820599999999999
 30
0.0
 70
    32
  0
VERTEX
  5
4EDD
  8
241
 10
125.354
 20
35.80040000000001
 30
0.0
 70
    32
  0
VERTEX
  5
4EDE
  8
241
 10
125.373
 20
35.780000000000001
 30
0.0
 70
    32
  0
VERTEX
  5
4EDF
  8
241
 10
125.39100000000001
 20
35.75950000000001
 30
0.0
 70
    32
  0
VERTEX
  5
4EE0
  8
241
 10
125.40900000000001
 20
35.738900000000001
 30
0.0
 70
    32
  0
VERTEX
  5
4EE1
  8
241
 10
125.42700000000001
 20
35.7181
 30
0.0
 70
    32
  0
VERTEX
  5
4EE2
  8
241
 10
125.444
 20
35.697299999999998
 30
0.0
 70
    32
  0
VERTEX
  5
4EE3
  8
241
 10
125.462
 20
35.676400000000001
 30
0.0
 70
    32
  0
VERTEX
  5
4EE4
  8
241
 10
125.479
 20
35.655299999999997
 30
0.0
 70
    32
  0
VERTEX
  5
4EE5
  8
241
 10
125.496
 20
35.6342
 30
0.0
 70
    32
  0
VERTEX
  5
4EE6
  8
241
 10
125.512
 20
35.61290000000001
 30
0.0
 70
    32
  0
VERTEX
  5
4EE7
  8
241
 10
125.52800000000001
 20
35.5916
 30
0.0
 70
    32
  0
VERTEX
  5
4EE8
  8
241
 10
125.544
 20
35.5702
 30
0.0
 70
    32
  0
VERTEX
  5
4EE9
  8
241
 10
125.56
 20
35.5486
 30
0.0
 70
    32
  0
SEQEND
  5
4EEA
  8
241
  0
POLYLINE
  5
4742
  8
241
  6
CONTINUOUS
 66
     1
 10
0.0
 20
0.0
 30
0.0
 70
     8
  0
VERTEX
  5
4EEB
  8
241
 10
106.44
 20
35.5486
 30
0.0
 70
    32
  0
VERTEX
  5
4EEC
  8
241
 10
106.456
 20
35.5702
 30
0.0
 70
    32
  0
VERTEX
  5
4EED
  8
241
 10
106.47199999999999
 20
35.5916
 30
0.0
 70
    32
  0
VERTEX
  5
4EEE
  8
241
 10
106.488
 20
35.61290000000001
 30
0.0
 70
    32
  0
VERTEX
  5
4EEF
  8
241
 10
106.504
 20
35.6342
 30
0.0
 70
    32
  0
VERTEX
  5
4EF0
  8
241
 10
106.521
 20
35.655299999999997
 30
0.0
 70
    32
  0
VERTEX
  5
4EF1
  8
241
 10
106.538
 20
35.676400000000001
 30
0.0
 70
    32
  0
VERTEX
  5
4EF2
  8
241
 10
106.556
 20
35.697299999999998
 30
0.0
 70
    32
  0
VERTEX
  5
4EF3
  8
241
 10
106.57299999999999
 20
35.7181
 30
0.0
 70
    32
  0
VERTEX
  5
4EF4
  8
241
 10
106.59099999999999
 20
35.738900000000001
 30
0.0
 70
    32
  0
VERTEX
  5
4EF5
  8
241
 10
106.60899999999999
 20
35.75950000000001
 30
0.0
 70
    32
  0
VERTEX
  5
4EF6
  8
241
 10
106.627
 20
35.780000000000001
 30
0.0
 70
    32
  0
VERTEX
  5
4EF7
  8
241
 10
106.646
 20
35.80040000000001
 30
0.0
 70
    32
  0
VERTEX
  5
4EF8
  8
241
 10
106.66500000000001
 20
35.820599999999999
 30
0.0
 70
    32
  0
VERTEX
  5
4EF9
  8
241
 10
106.684
 20
35.840800000000002
 30
0.0
 70
    32
  0
VERTEX
  5
4EFA
  8
241
 10
106.703
 20
35.860900000000001
 30
0.0
 70
    32
  0
VERTEX
  5
4EFB
  8
241
 10
106.723
 20
35.880800000000001
 30
0.0
 70
    32
  0
VERTEX
  5
4EFC
  8
241
 10
106.742
 20
35.900599999999997
 30
0.0
 70
    32
  0
VERTEX
  5
4EFD
  8
241
 10
106.762
 20
35.920299999999997
 30
0.0
 70
    32
  0
VERTEX
  5
4EFE
  8
241
 10
106.783
 20
35.939900000000002
 30
0.0
 70
    32
  0
VERTEX
  5
4EFF
  8
241
 10
106.803
 20
35.959299999999999
 30
0.0
 70
    32
  0
VERTEX
  5
4F00
  8
241
 10
106.824
 20
35.9786
 30
0.0
 70
    32
  0
VERTEX
  5
4F01
  8
241
 10
106.845
 20
35.997799999999998
 30
0.0
 70
    32
  0
VERTEX
  5
4F02
  8
241
 10
106.866
 20
36.0169
 30
0.0
 70
    32
  0
VERTEX
  5
4F03
  8
241
 10
106.887
 20
36.035800000000002
 30
0.0
 70
    32
  0
VERTEX
  5
4F04
  8
241
 10
106.90900000000001
 20
36.054600000000001
 30
0.0
 70
    32
  0
VERTEX
  5
4F05
  8
241
 10
106.931
 20
36.07330000000001
 30
0.0
 70
    32
  0
VERTEX
  5
4F06
  8
241
 10
106.953
 20
36.091799999999999
 30
0.0
 70
    32
  0
VERTEX
  5
4F07
  8
241
 10
106.97499999999999
 20
36.110199999999999
 30
0.0
 70
    32
  0
VERTEX
  5
4F08
  8
241
 10
106.998
 20
36.128500000000003
 30
0.0
 70
    32
  0
VERTEX
  5
4F09
  8
241
 10
107.021
 20
36.146599999999999
 30
0.0
 70
    32
  0
VERTEX
  5
4F0A
  8
241
 10
107.044
 20
36.1646
 30
0.0
 70
    32
  0
VERTEX
  5
4F0B
  8
241
 10
107.06699999999999
 20
36.182499999999997
 30
0.0
 70
    32
  0
VERTEX
  5
4F0C
  8
241
 10
107.09
 20
36.200200000000002
 30
0.0
 70
    32
  0
VERTEX
  5
4F0D
  8
241
 10
107.114
 20
36.217799999999997
 30
0.0
 70
    32
  0
VERTEX
  5
4F0E
  8
241
 10
107.13800000000001
 20
36.235199999999999
 30
0.0
 70
    32
  0
VERTEX
  5
4F0F
  8
241
 10
107.16200000000001
 20
36.252499999999998
 30
0.0
 70
    32
  0
VERTEX
  5
4F10
  8
241
 10
107.18600000000001
 20
36.269599999999997
 30
0.0
 70
    32
  0
VERTEX
  5
4F11
  8
241
 10
107.211
 20
36.2866
 30
0.0
 70
    32
  0
VERTEX
  5
4F12
  8
241
 10
107.235
 20
36.303400000000003
 30
0.0
 70
    32
  0
VERTEX
  5
4F13
  8
241
 10
107.26000000000001
 20
36.320099999999996
 30
0.0
 70
    32
  0
VERTEX
  5
4F14
  8
241
 10
107.285
 20
36.336599999999997
 30
0.0
 70
    32
  0
VERTEX
  5
4F15
  8
241
 10
107.31100000000001
 20
36.353000000000002
 30
0.0
 70
    32
  0
VERTEX
  5
4F16
  8
241
 10
107.336
 20
36.369300000000003
 30
0.0
 70
    32
  0
VERTEX
  5
4F17
  8
241
 10
107.36199999999999
 20
36.385300000000001
 30
0.0
 70
    32
  0
VERTEX
  5
4F18
  8
241
 10
107.38800000000001
 20
36.401200000000003
 30
0.0
 70
    32
  0
VERTEX
  5
4F19
  8
241
 10
107.414
 20
36.417000000000002
 30
0.0
 70
    32
  0
VERTEX
  5
4F1A
  8
241
 10
107.44
 20
36.432600000000001
 30
0.0
 70
    32
  0
VERTEX
  5
4F1B
  8
241
 10
107.46599999999999
 20
36.448
 30
0.0
 70
    32
  0
VERTEX
  5
4F1C
  8
241
 10
107.49299999999999
 20
36.463299999999997
 30
0.0
 70
    32
  0
VERTEX
  5
4F1D
  8
241
 10
107.52
 20
36.478400000000001
 30
0.0
 70
    32
  0
VERTEX
  5
4F1E
  8
241
 10
107.547
 20
36.493400000000001
 30
0.0
 70
    32
  0
VERTEX
  5
4F1F
  8
241
 10
107.574
 20
36.508200000000002
 30
0.0
 70
    32
  0
VERTEX
  5
4F20
  8
241
 10
107.601
 20
36.522799999999997
 30
0.0
 70
    32
  0
VERTEX
  5
4F21
  8
241
 10
107.629
 20
36.537300000000002
 30
0.0
 70
    32
  0
VERTEX
  5
4F22
  8
241
 10
107.657
 20
36.551600000000001
 30
0.0
 70
    32
  0
VERTEX
  5
4F23
  8
241
 10
107.685
 20
36.5657
 30
0.0
 70
    32
  0
VERTEX
  5
4F24
  8
241
 10
107.71299999999999
 20
36.579599999999999
 30
0.0
 70
    32
  0
VERTEX
  5
4F25
  8
241
 10
107.741
 20
36.593400000000003
 30
0.0
 70
    32
  0
VERTEX
  5
4F26
  8
241
 10
107.76900000000001
 20
36.606999999999999
 30
0.0
 70
    32
  0
VERTEX
  5
4F27
  8
241
 10
107.798
 20
36.6205
 30
0.0
 70
    32
  0
VERTEX
  5
4F28
  8
241
 10
107.82599999999999
 20
36.633699999999997
 30
0.0
 70
    32
  0
VERTEX
  5
4F29
  8
241
 10
107.855
 20
36.646799999999999
 30
0.0
 70
    32
  0
VERTEX
  5
4F2A
  8
241
 10
107.884
 20
36.659700000000001
 30
0.0
 70
    32
  0
VERTEX
  5
4F2B
  8
241
 10
107.914
 20
36.672499999999999
 30
0.0
 70
    32
  0
VERTEX
  5
4F2C
  8
241
 10
107.943
 20
36.685000000000002
 30
0.0
 70
    32
  0
VERTEX
  5
4F2D
  8
241
 10
107.97199999999999
 20
36.697400000000002
 30
0.0
 70
    32
  0
VERTEX
  5
4F2E
  8
241
 10
108.002
 20
36.709600000000002
 30
0.0
 70
    32
  0
VERTEX
  5
4F2F
  8
241
 10
108.032
 20
36.721699999999998
 30
0.0
 70
    32
  0
VERTEX
  5
4F30
  8
241
 10
108.062
 20
36.733499999999999
 30
0.0
 70
    32
  0
VERTEX
  5
4F31
  8
241
 10
108.092
 20
36.745199999999997
 30
0.0
 70
    32
  0
VERTEX
  5
4F32
  8
241
 10
108.122
 20
36.756599999999999
 30
0.0
 70
    32
  0
VERTEX
  5
4F33
  8
241
 10
108.152
 20
36.767899999999997
 30
0.0
 70
    32
  0
VERTEX
  5
4F34
  8
241
 10
108.18300000000001
 20
36.779000000000011
 30
0.0
 70
    32
  0
VERTEX
  5
4F35
  8
241
 10
108.21299999999999
 20
36.789999999999999
 30
0.0
 70
    32
  0
VERTEX
  5
4F36
  8
241
 10
108.244
 20
36.800699999999999
 30
0.0
 70
    32
  0
VERTEX
  5
4F37
  8
241
 10
108.27500000000001
 20
36.811300000000003
 30
0.0
 70
    32
  0
VERTEX
  5
4F38
  8
241
 10
108.306
 20
36.821599999999997
 30
0.0
 70
    32
  0
VERTEX
  5
4F39
  8
241
 10
108.337
 20
36.831800000000001
 30
0.0
 70
    32
  0
VERTEX
  5
4F3A
  8
241
 10
108.36799999999999
 20
36.841799999999999
 30
0.0
 70
    32
  0
VERTEX
  5
4F3B
  8
241
 10
108.40000000000001
 20
36.851599999999998
 30
0.0
 70
    32
  0
VERTEX
  5
4F3C
  8
241
 10
108.431
 20
36.861199999999997
 30
0.0
 70
    32
  0
VERTEX
  5
4F3D
  8
241
 10
108.46299999999999
 20
36.87060000000001
 30
0.0
 70
    32
  0
VERTEX
  5
4F3E
  8
241
 10
108.495
 20
36.879800000000003
 30
0.0
 70
    32
  0
VERTEX
  5
4F3F
  8
241
 10
108.526
 20
36.88880000000001
 30
0.0
 70
    32
  0
VERTEX
  5
4F40
  8
241
 10
108.55800000000001
 20
36.8977
 30
0.0
 70
    32
  0
VERTEX
  5
4F41
  8
241
 10
108.59
 20
36.906300000000002
 30
0.0
 70
    32
  0
VERTEX
  5
4F42
  8
241
 10
108.623
 20
36.9148
 30
0.0
 70
    32
  0
VERTEX
  5
4F43
  8
241
 10
108.655
 20
36.923000000000002
 30
0.0
 70
    32
  0
VERTEX
  5
4F44
  8
241
 10
108.687
 20
36.931100000000001
 30
0.0
 70
    32
  0
VERTEX
  5
4F45
  8
241
 10
108.72
 20
36.938899999999997
 30
0.0
 70
    32
  0
VERTEX
  5
4F46
  8
241
 10
108.752
 20
36.946599999999997
 30
0.0
 70
    32
  0
VERTEX
  5
4F47
  8
241
 10
108.785
 20
36.954099999999997
 30
0.0
 70
    32
  0
VERTEX
  5
4F48
  8
241
 10
108.818
 20
36.961300000000001
 30
0.0
 70
    32
  0
VERTEX
  5
4F49
  8
241
 10
108.84999999999999
 20
36.968400000000003
 30
0.0
 70
    32
  0
VERTEX
  5
4F4A
  8
241
 10
108.883
 20
36.975299999999997
 30
0.0
 70
    32
  0
VERTEX
  5
4F4B
  8
241
 10
108.916
 20
36.981999999999999
 30
0.0
 70
    32
  0
VERTEX
  5
4F4C
  8
241
 10
108.949
 20
36.988399999999999
 30
0.0
 70
    32
  0
VERTEX
  5
4F4D
  8
241
 10
108.982
 20
36.994700000000002
 30
0.0
 70
    32
  0
VERTEX
  5
4F4E
  8
241
 10
109.01600000000001
 20
37.000799999999998
 30
0.0
 70
    32
  0
VERTEX
  5
4F4F
  8
241
 10
109.04900000000001
 20
37.006599999999999
 30
0.0
 70
    32
  0
VERTEX
  5
4F50
  8
241
 10
109.08199999999999
 20
37.01230000000001
 30
0.0
 70
    32
  0
VERTEX
  5
4F51
  8
241
 10
109.116
 20
37.017800000000001
 30
0.0
 70
    32
  0
VERTEX
  5
4F52
  8
241
 10
109.149
 20
37.02300000000001
 30
0.0
 70
    32
  0
VERTEX
  5
4F53
  8
241
 10
109.18300000000001
 20
37.028100000000002
 30
0.0
 70
    32
  0
VERTEX
  5
4F54
  8
241
 10
109.21599999999999
 20
37.032899999999998
 30
0.0
 70
    32
  0
VERTEX
  5
4F55
  8
241
 10
109.25
 20
37.037599999999998
 30
0.0
 70
    32
  0
VERTEX
  5
4F56
  8
241
 10
109.28400000000001
 20
37.042000000000002
 30
0.0
 70
    32
  0
VERTEX
  5
4F57
  8
241
 10
109.31699999999999
 20
37.046300000000002
 30
0.0
 70
    32
  0
VERTEX
  5
4F58
  8
241
 10
109.351
 20
37.0503
 30
0.0
 70
    32
  0
VERTEX
  5
4F59
  8
241
 10
109.38500000000001
 20
37.054099999999998
 30
0.0
 70
    32
  0
VERTEX
  5
4F5A
  8
241
 10
109.419
 20
37.0578
 30
0.0
 70
    32
  0
VERTEX
  5
4F5B
  8
241
 10
109.453
 20
37.061199999999999
 30
0.0
 70
    32
  0
VERTEX
  5
4F5C
  8
241
 10
109.48699999999999
 20
37.064399999999999
 30
0.0
 70
    32
  0
VERTEX
  5
4F5D
  8
241
 10
109.521
 20
37.067399999999999
 30
0.0
 70
    32
  0
VERTEX
  5
4F5E
  8
241
 10
109.55500000000001
 20
37.0702
 30
0.0
 70
    32
  0
VERTEX
  5
4F5F
  8
241
 10
109.589
 20
37.072800000000001
 30
0.0
 70
    32
  0
VERTEX
  5
4F60
  8
241
 10
109.623
 20
37.075200000000009
 30
0.0
 70
    32
  0
VERTEX
  5
4F61
  8
241
 10
109.657
 20
37.077399999999997
 30
0.0
 70
    32
  0
VERTEX
  5
4F62
  8
241
 10
109.69199999999999
 20
37.079300000000011
 30
0.0
 70
    32
  0
VERTEX
  5
4F63
  8
241
 10
109.726
 20
37.081099999999999
 30
0.0
 70
    32
  0
VERTEX
  5
4F64
  8
241
 10
109.76000000000001
 20
37.08270000000001
 30
0.0
 70
    32
  0
VERTEX
  5
4F65
  8
241
 10
109.794
 20
37.08400000000001
 30
0.0
 70
    32
  0
VERTEX
  5
4F66
  8
241
 10
109.82899999999999
 20
37.0852
 30
0.0
 70
    32
  0
VERTEX
  5
4F67
  8
241
 10
109.863
 20
37.086100000000002
 30
0.0
 70
    32
  0
VERTEX
  5
4F68
  8
241
 10
109.89700000000001
 20
37.086799999999997
 30
0.0
 70
    32
  0
VERTEX
  5
4F69
  8
241
 10
109.931
 20
37.087299999999999
 30
0.0
 70
    32
  0
VERTEX
  5
4F6A
  8
241
 10
109.96599999999999
 20
37.087600000000002
 30
0.0
 70
    32
  0
VERTEX
  5
4F6B
  8
241
 10
110.0
 20
37.087800000000001
 30
0.0
 70
    32
  0
SEQEND
  5
4F6C
  8
241
  0
LINE
  5
4743
  8
241
  6
CONTINUOUS
 10
124.7000000000114
 20
34.751041395256948
 30
0.0
 11
124.7000000000114
 21
3.599999999999397
 31
0.0
  0
LINE
  5
4744
  8
241
  6
CONTINUOUS
 10
107.7000000000092
 20
34.523817777646002
 30
0.0
 11
107.7000000000094
 21
3.8678159211627281
 31
0.0
  0
LINE
  5
4746
  8
241
  6
CONTINUOUS
 10
74.700000000036752
 20
37.108153576198681
 30
0.0
 11
74.700000000013318
 21
-37.108153576203108
 31
0.0
  0
LINE
  5
4747
  8
241
  6
CONTINUOUS
 10
67.700000000000287
 20
40.949999999997992
 30
0.0
 11
67.700000000000131
 21
-40.9500000000005
 31
0.0
  0
LINE
  5
4748
  8
241
  6
CONTINUOUS
 10
72.37215547015407
 20
36.949999999982673
 30
0.0
 11
72.37215547013075
 21
-36.949999999985643
 31
0.0
  0
LINE
  5
494E
  8
243
  6
HIDDEN2
 10
154.4000000000095
 20
25.400000000000009
 30
0.0
 11
62.866025403782679
 21
25.399999999999981
 31
0.0
1001
GRPNAME
1000
PASTMD1S
  0
LINE
  5
4977
  8
243
  6
HIDDEN2
 10
154.4000000000095
 20
-25.400000000000009
 30
0.0
 11
62.866025403782679
 21
-25.399999999999981
 31
0.0
1001
GRPNAME
1000
PASTMD1S
  0
LINE
  5
49B2
  8
250
  6
CONTINUOUS
 10
154.4000000000095
 20
45.233186891875441
 30
0.0
 11
154.4000000000095
 21
71.0
 31
0.0
  0
LINE
  5
49B3
  8
250
  6
CONTINUOUS
 10
39.400000000000247
 20
25.400000000000048
 30
0.0
 11
39.400000000000247
 21
71.0
 31
0.0
  0
LINE
  5
49B4
  8
250
  6
CONTINUOUS
 10
152.17000000000951
 20
70.0
 30
0.0
 11
41.630000000000237
 21
70.0
 31
0.0
  0
LINE
  5
49B8
  8
250
  6
CONTINUOUS
 10
-0.0000000000000787
 20
63.000000000000242
 30
0.0
 11
-0.0000000000000778
 21
78.0
 31
0.0
  0
LINE
  5
49B9
  8
250
  6
CONTINUOUS
 10
154.4000000000095
 20
45.233186891875441
 30
0.0
 11
154.4000000000095
 21
78.0
 31
0.0
  0
LINE
  5
49BA
  8
250
  6
CONTINUOUS
 10
2.22999999999992
 20
77.0
 30
0.0
 11
152.17000000000951
 21
77.0
 31
0.0
  0
LINE
  5
49BE
  8
250
  6
CONTINUOUS
 10
154.9000000000095
 20
25.400000000000009
 30
0.0
 11
169.000001
 21
25.400000000000009
 31
0.0
  0
LINE
  5
49BF
  8
250
  6
CONTINUOUS
 10
154.90000000000941
 20
-25.400000000000009
 30
0.0
 11
169.000001
 21
-25.400000000000009
 31
0.0
  0
LINE
  5
49C0
  8
250
  6
CONTINUOUS
 10
168.000001
 20
23.170000000000009
 30
0.0
 11
168.000001
 21
-23.170000000000009
 31
0.0
  0
LINE
  5
49C4
  8
250
  6
CONTINUOUS
 10
105.2000000000093
 20
52.499999999999929
 30
0.0
 11
176.0
 21
52.499999999999922
 31
0.0
  0
LINE
  5
49C5
  8
250
  6
CONTINUOUS
 10
105.2000000000094
 20
-52.500000000000959
 30
0.0
 11
176.0
 21
-52.500000000000973
 31
0.0
  0
LINE
  5
49C6
  8
250
  6
CONTINUOUS
 10
175.0
 20
50.269999999999932
 30
0.0
 11
175.0
 21
-50.270000000000991
 31
0.0
  0
TEXT
  5
49CA
  8
250
  6
CONTINUOUS
 10
167.000001
 20
-5.933333333333306
 30
0.0
 40
2.799999999999998
  1
\U+22052.000
 50
90.0
  0
LINE
  5
49CB
  8
250
  6
CONTINUOUS
 10
168.37166766666661
 20
-23.170000000000009
 30
0.0
 11
168.000001
 21
-25.400000000000009
 31
0.0
  0
LINE
  5
49CC
  8
250
  6
CONTINUOUS
 10
167.6283343333333
 20
-23.170000000000009
 30
0.0
 11
168.000001
 21
-25.400000000000009
 31
0.0
  0
LINE
  5
49CD
  8
250
  6
CONTINUOUS
 10
168.000001
 20
-25.400000000000009
 30
0.0
 11
168.000001
 21
-23.170000000000009
 31
0.0
  0
LINE
  5
49CE
  8
250
  6
CONTINUOUS
 10
167.6283343333333
 20
23.170000000000009
 30
0.0
 11
168.000001
 21
25.400000000000009
 31
0.0
  0
LINE
  5
49CF
  8
250
  6
CONTINUOUS
 10
168.37166766666661
 20
23.170000000000009
 30
0.0
 11
168.000001
 21
25.400000000000009
 31
0.0
  0
LINE
  5
49D0
  8
250
  6
CONTINUOUS
 10
168.000001
 20
25.400000000000009
 30
0.0
 11
168.000001
 21
23.170000000000009
 31
0.0
  0
TEXT
  5
49D1
  8
250
  6
CONTINUOUS
 10
174.0
 20
-5.2666666666671711
 30
0.0
 40
2.799999999999998
  1
\U+22054.134
 50
90.0
  0
LINE
  5
49D2
  8
250
  6
CONTINUOUS
 10
175.3716666666667
 20
-50.270000000000991
 30
0.0
 11
175.0
 21
-52.500000000000973
 31
0.0
  0
LINE
  5
49D3
  8
250
  6
CONTINUOUS
 10
174.6283333333333
 20
-50.270000000000991
 30
0.0
 11
175.0
 21
-52.500000000000973
 31
0.0
  0
LINE
  5
49D4
  8
250
  6
CONTINUOUS
 10
175.0
 20
-52.500000000000973
 30
0.0
 11
175.0
 21
-50.270000000000991
 31
0.0
  0
LINE
  5
49D5
  8
250
  6
CONTINUOUS
 10
174.6283333333333
 20
50.269999999999932
 30
0.0
 11
175.0
 21
52.499999999999922
 31
0.0
  0
LINE
  5
49D6
  8
250
  6
CONTINUOUS
 10
175.3716666666667
 20
50.269999999999932
 30
0.0
 11
175.0
 21
52.499999999999922
 31
0.0
  0
LINE
  5
49D7
  8
250
  6
CONTINUOUS
 10
175.0
 20
52.499999999999922
 30
0.0
 11
175.0
 21
50.269999999999932
 31
0.0
  0
TEXT
  5
49D8
  8
250
  6
CONTINUOUS
 10
86.233333333338237
 20
72.200000000000017
 30
0.0
 40
2.799999999999998
  1
(MAX.4.52)
  0
LINE
  5
49D9
  8
250
  6
CONTINUOUS
 10
41.630000000000237
 20
69.62833333333333
 30
0.0
 11
39.400000000000247
 21
70.0
 31
0.0
  0
LINE
  5
49DA
  8
250
  6
CONTINUOUS
 10
41.630000000000237
 20
70.37166666666667
 30
0.0
 11
39.400000000000247
 21
70.0
 31
0.0
  0
LINE
  5
49DB
  8
250
  6
CONTINUOUS
 10
39.400000000000247
 20
70.0
 30
0.0
 11
41.630000000000237
 21
70.0
 31
0.0
  0
LINE
  5
49DC
  8
250
  6
CONTINUOUS
 10
152.17000000000951
 20
70.37166666666667
 30
0.0
 11
154.4000000000095
 21
70.0
 31
0.0
  0
LINE
  5
49DD
  8
250
  6
CONTINUOUS
 10
152.17000000000951
 20
69.62833333333333
 30
0.0
 11
154.4000000000095
 21
70.0
 31
0.0
  0
LINE
  5
49DE
  8
250
  6
CONTINUOUS
 10
154.4000000000095
 20
70.0
 30
0.0
 11
152.17000000000951
 21
70.0
 31
0.0
  0
TEXT
  5
49DF
  8
250
  6
CONTINUOUS
 10
70.933333333338055
 20
78.000000000000014
 30
0.0
 40
2.799999999999998
  1
6.08
  0
LINE
  5
49E0
  8
250
  6
CONTINUOUS
 10
152.17000000000951
 20
77.371666666666655
 30
0.0
 11
154.4000000000095
 21
77.0
 31
0.0
  0
LINE
  5
49E1
  8
250
  6
CONTINUOUS
 10
152.17000000000951
 20
76.62833333333333
 30
0.0
 11
154.4000000000095
 21
77.0
 31
0.0
  0
LINE
  5
49E2
  8
250
  6
CONTINUOUS
 10
154.4000000000095
 20
77.0
 30
0.0
 11
152.17000000000951
 21
77.0
 31
0.0
  0
LINE
  5
49E3
  8
250
  6
CONTINUOUS
 10
2.22999999999992
 20
76.62833333333333
 30
0.0
 11
-0.0000000000000778
 21
77.0
 31
0.0
  0
LINE
  5
49E4
  8
250
  6
CONTINUOUS
 10
2.22999999999992
 20
77.371666666666655
 30
0.0
 11
-0.0000000000000778
 21
77.0
 31
0.0
  0
LINE
  5
49E5
  8
250
  6
CONTINUOUS
 10
-0.0000000000000778
 20
77.0
 30
0.0
 11
2.22999999999992
 21
77.0
 31
0.0
  0
TEXT
  5
4AAE
  8
250
  6
CONTINUOUS
 10
155.8492711759443
 20
29.488517841677581
 30
0.0
 40
2.799999999999998
  1
Coolant
  7
YOKO
 11
155.8492711759443
 21
29.488517841677581
 31
0.0
 73
     1
  0
LINE
  5
4AAF
  8
250
  6
CONTINUOUS
 10
169.37856228416399
 20
28.246666666666702
 30
0.0
 11
171.60856228416401
 21
27.875000000000028
 31
0.0
  0
LINE
  5
4AB0
  8
250
  6
CONTINUOUS
 10
169.37856228416399
 20
27.503333333333359
 30
0.0
 11
171.60856228416401
 21
27.875000000000028
 31
0.0
  0
LINE
  5
4AB1
  8
250
  6
CONTINUOUS
 10
171.60856228416401
 20
27.875000000000028
 30
0.0
 11
169.37856228416399
 21
27.875000000000028
 31
0.0
  0
LINE
  5
4AB2
  8
250
  6
CONTINUOUS
 10
169.37856228416399
 20
27.875000000000028
 30
0.0
 11
156.10000000000821
 21
27.875000000000028
 31
0.0
  0
LINE
  5
4ABF
  8
250
  6
CONTINUOUS
 10
169.3785622841645
 20
-27.503333333333359
 30
0.0
 11
171.60856228416441
 21
-27.875000000000028
 31
0.0
  0
LINE
  5
4AC0
  8
250
  6
CONTINUOUS
 10
169.3785622841645
 20
-28.246666666666702
 30
0.0
 11
171.60856228416441
 21
-27.875000000000028
 31
0.0
  0
LINE
  5
4AC1
  8
250
  6
CONTINUOUS
 10
171.60856228416441
 20
-27.875000000000028
 30
0.0
 11
169.3785622841645
 21
-27.875000000000028
 31
0.0
  0
LINE
  5
4AC2
  8
250
  6
CONTINUOUS
 10
169.3785622841645
 20
-27.875000000000028
 30
0.0
 11
156.10000000000869
 21
-27.875000000000028
 31
0.0
  0
TEXT
  5
4AC3
  8
250
  6
CONTINUOUS
 10
155.68690084180139
 20
-32.690545675999402
 30
0.0
 40
2.799999999999998
  1
Coolant
  7
YOKO
 11
155.68690084180139
 21
-32.690545675999402
 31
0.0
 73
     1
  0
LINE
  5
50B1
  8
241
  6
CONTINUOUS
 10
75.700000000009396
 20
-48.500000000000192
 30
0.0
 11
75.700000000009396
 21
48.500000000000171
 31
0.0
  0
VIEWPORT
  5
22
 67
     1
  8
0
 10
261.51769911504419
 20
148.5
 30
0.0
 40
523.0353982300885
 41
297.0
 68
     1
 69
     1
1001
ACAD
1000
MVIEW
1002
{
1070
    16
1010
0.0
1020
0.0
1030
0.0
1010
0.0
1020
0.0
1030
1.0
1040
0.0
1040
297.0
1040
261.51769911504419
1040
148.5
1040
50.0
1040
0.0
1040
0.0
1070
     0
1070
   100
1070
     1
1070
     1
1070
     0
1070
     0
1070
     0
1070
     0
1040
0.0
1040
0.0
1040
0.0
1040
1.0
1040
1.0
1040
10.0
1040
10.0
1070
     0
1002
{
1002
}
1002
}
1001
GENIUS_GENODEF_13
1002
{
1000
HIER
1070
     0
1002
}
1002
{
1000
MANEDIT
1070
     0
1002
}
1002
{
1000
NOSEL
1070
     0
1002
}
1002
{
1000
BEHIND
1070
     0
1002
}
1002
{
1000
OTHER
1070
     0
1002
}
1002
{
1000
REACTOR
1002
}
1001
GENIUS_GENOBJ-N-SDF_13
1002
{
1000
OWNER
1000
GEN
1002
}
1001
GENIUS_GENSCREG_15
1000
PF
1040
1.0
1000
DF
1040
1.0
1000
MIN
1011
0.0
1021
0.0
1031
0.0
1021
0.0
1031
0.0
1000
MAX
1011
523.0353982300885
1021
0.0
1031
0.0
1021
297.0
1031
0.0
1000
FLAGS
1070
     4
  0
ENDSEC
  0
EOF
