  0
SECTION
  2
HEADER
  9
$ACADVER
  1
AC1009
  9
$INSBASE
 10
0.0
 20
0.0
 30
0.0
  9
$EXTMIN
 10
-71.047619047618738
 20
-62.500000000001663
 30
0.0
  9
$EXTMAX
 10
154.0
 20
96.000000000000028
 30
0.0
  9
$LIMMIN
 10
0.0
 20
0.0
  9
$LIMMAX
 10
297.0
 20
210.0
  9
$ORTHOMODE
 70
     1
  9
$REGENMODE
 70
     1
  9
$FILLMODE
 70
     1
  9
$QTEXTMODE
 70
     0
  9
$MIRRTEXT
 70
     1
  9
$DRAGMODE
 70
     2
  9
$LTSCALE
 40
10.0
  9
$OSMODE
 70
    37
  9
$ATTMODE
 70
     1
  9
$TEXTSIZE
 40
3.0
  9
$TRACEWID
 40
1.0
  9
$TEXTSTYLE
  7
YOKO
  9
$CLAYER
  8
240
  9
$CELTYPE
  6
BYLAYER
  9
$CECOLOR
 62
   256
  9
$DIMSCALE
 40
1.0
  9
$DIMASZ
 40
2.2299999999999991
  9
$DIMEXO
 40
0.5
  9
$DIMDLI
 40
7.0
  9
$DIMRND
 40
0.0
  9
$DIMDLE
 40
0.0
  9
$DIMEXE
 40
1.0
  9
$DIMTP
 40
0.0
  9
$DIMTM
 40
0.01
  9
$DIMTXT
 40
2.799999999999998
  9
$DIMCEN
 40
0.0
  9
$DIMTSZ
 40
0.0
  9
$DIMTOL
 70
     0
  9
$DIMLIM
 70
     0
  9
$DIMTIH
 70
     0
  9
$DIMTOH
 70
     0
  9
$DIMSE1
 70
     0
  9
$DIMSE2
 70
     0
  9
$DIMTAD
 70
     3
  9
$DIMZIN
 70
     9
  9
$DIMBLK
  1
OPEN
  9
$DIMASO
 70
     1
  9
$DIMSHO
 70
     1
  9
$DIMPOST
  1

  9
$DIMAPOST
  1

  9
$DIMALT
 70
     0
  9
$DIMALTD
 70
     2
  9
$DIMALTF
 40
25.399999999999999
  9
$DIMLFAC
 40
1.0
  9
$DIMTOFL
 70
     1
  9
$DIMTVP
 40
0.0
  9
$DIMTIX
 70
     1
  9
$DIMSOXD
 70
     0
  9
$DIMSAH
 70
     0
  9
$DIMBLK1
  1

  9
$DIMBLK2
  1

  9
$DIMSTYLE
  2
BIGT
  9
$DIMCLRD
 70
   256
  9
$DIMCLRE
 70
   256
  9
$DIMCLRT
 70
    40
  9
$DIMTFAC
 40
1.0
  9
$DIMGAP
 40
1.0
  9
$LUNITS
 70
     2
  9
$LUPREC
 70
     6
  9
$SKETCHINC
 40
1.0
  9
$FILLETRAD
 40
0.0
  9
$AUNITS
 70
     0
  9
$AUPREC
 70
     6
  9
$MENU
  1
.
  9
$ELEVATION
 40
0.0
  9
$PELEVATION
 40
0.0
  9
$THICKNESS
 40
0.0
  9
$LIMCHECK
 70
     0
  9
$BLIPMODE
 70
     0
  9
$CHAMFERA
 40
0.2
  9
$CHAMFERB
 40
0.2
  9
$SKPOLY
 70
     0
  9
$TDCREATE
 40
2457939.7401247802
  9
$TDUPDATE
 40
2458142.4946655328
  9
$TDINDWG
 40
0.0125170602
  9
$TDUSRTIMER
 40
0.0125170023
  9
$USRTIMER
 70
     1
  9
$ANGBASE
 50
0.0
  9
$ANGDIR
 70
     0
  9
$PDMODE
 70
     1
  9
$PDSIZE
 40
0.0
  9
$PLINEWID
 40
0.0
  9
$COORDS
 70
     1
  9
$SPLFRAME
 70
     0
  9
$SPLINETYPE
 70
     6
  9
$SPLINESEGS
 70
     4
  9
$ATTDIA
 70
     1
  9
$ATTREQ
 70
     1
  9
$HANDLING
 70
     1
  9
$HANDSEED
  5
48CA
  9
$SURFTAB1
 70
     6
  9
$SURFTAB2
 70
     6
  9
$SURFTYPE
 70
     6
  9
$SURFU
 70
     6
  9
$SURFV
 70
     6
  9
$UCSNAME
  2

  9
$UCSORG
 10
0.0
 20
0.0
 30
0.0
  9
$UCSXDIR
 10
1.0
 20
0.0
 30
0.0
  9
$UCSYDIR
 10
0.0
 20
1.0
 30
0.0
  9
$PUCSNAME
  2

  9
$PUCSORG
 10
0.0
 20
0.0
 30
0.0
  9
$PUCSXDIR
 10
1.0
 20
0.0
 30
0.0
  9
$PUCSYDIR
 10
0.0
 20
1.0
 30
0.0
  9
$USERI1
 70
     1
  9
$USERI2
 70
     0
  9
$USERI3
 70
     0
  9
$USERI4
 70
     0
  9
$USERI5
 70
     0
  9
$USERR1
 40
0.0
  9
$USERR2
 40
0.0
  9
$USERR3
 40
0.0
  9
$USERR4
 40
0.0
  9
$USERR5
 40
0.0
  9
$WORLDVIEW
 70
     1
  9
$SHADEDGE
 70
     3
  9
$SHADEDIF
 70
    70
  9
$TILEMODE
 70
     1
  9
$MAXACTVP
 70
    16
  9
$PLIMCHECK
 70
     0
  9
$PEXTMIN
 10
1.0000000000000000E+020
 20
1.0000000000000000E+020
 30
1.0000000000000000E+020
  9
$PEXTMAX
 10
-1.0000000000000000E+020
 20
-1.0000000000000000E+020
 30
-1.0000000000000000E+020
  9
$PLIMMIN
 10
0.0
 20
0.0
  9
$PLIMMAX
 10
420.0
 20
297.0
  9
$UNITMODE
 70
     0
  9
$VISRETAIN
 70
     1
  9
$PLINEGEN
 70
     0
  9
$PSLTSCALE
 70
     1
  0
ENDSEC
  0
SECTION
  2
TABLES
  0
TABLE
  2
VPORT
 70
     1
  0
VPORT
  2
*ACTIVE
 70
     0
 10
0.0
 20
0.0
 11
1.0
 21
1.0
 12
45.948585529429579
 22
19.24833495216275
 13
0.0
 23
0.0
 14
7.0
 24
7.0
 15
7.0
 25
7.0
 16
0.0
 26
0.0
 36
1.0
 17
0.0
 27
0.0
 37
0.0
 40
256.4480202148257
 41
1.4533622559652919
 42
50.0
 43
0.0
 44
0.0
 50
0.0
 51
0.0
 71
     0
 72
  2000
 73
     1
 74
     0
 75
     0
 76
     1
 77
     0
 78
     0
  0
ENDTAB
  0
TABLE
  2
LTYPE
 70
    20
  0
LTYPE
  2
CONTINUOUS
 70
     0
  3
Solid line
 72
    65
 73
     0
 40
0.0
  0
LTYPE
  2
CENTER2
 70
     0
  3
___ _ ___ _ ___ _ ___ _ ___ _ ___ _ ___ _ ___ _
 72
    65
 73
     4
 40
1.125
 49
0.75
 49
-0.125
 49
0.125
 49
-0.125
  0
LTYPE
  2
HIDDEN2
 70
     0
  3
_ _ _ _ _ _ _ _ _ _ _ _ _ _ _ _ _ _ _ _ _ _ _ _
 72
    65
 73
     2
 40
0.1875
 49
0.125
 49
-0.0625
  0
LTYPE
  2
AMCONSTR
 70
     0
  3
_______________________
 72
    65
 73
     2
 40
9999.0
 49
9999.0
 49
0.0
  0
LTYPE
  2
HIDDEN
 70
     0
  3
Hidden __ __ __ __ __ __ __ __ __ __ __ __ __ _
 72
    65
 73
     2
 40
0.375
 49
0.25
 49
-0.125
  0
LTYPE
  2
PHANTOM2
 70
     0
  3
Phantom (.5x) ___ _ _ ___ _ _ ___ _ _ ___ _ _
 72
    65
 73
     6
 40
1.25
 49
0.625
 49
-0.125
 49
0.125
 49
-0.125
 49
0.125
 49
-0.125
  0
LTYPE
  2
CENTER
 70
     0
  3
Center ____ _ ____ _ ____ _ ____ _ ____ _ ____
 72
    65
 73
     4
 40
2.0
 49
1.25
 49
-0.25
 49
0.25
 49
-0.25
  0
LTYPE
  2
AMZIGZAG2
 70
     0
  3
/\/-/\/-/\/-/\/-/\/-/\/
 72
    65
 73
     2
 40
0.4401
 49
0.0001
 49
-0.4400000000000001
  0
LTYPE
  2
ACANSTGB
 70
     0
  3
__ . . __ . .
 72
    65
 73
     6
 40
0.35433070866
 49
0.15748031496
 49
-0.03937007874
 49
0.03937007874
 49
-0.03937007874
 49
0.03937007874
 49
-0.03937007874
  0
LTYPE
  2
ACANSTGL
 70
     0
  3
_ _ _ _ _
 72
    65
 73
     2
 40
0.11811023622
 49
0.07874015748
 49
-0.03937007874
  0
ENDTAB
  0
TABLE
  2
LAYER
 70
     8
  0
LAYER
  2
0
 70
     0
 62
     7
  6
CONTINUOUS
  0
LAYER
  2
240
 70
     0
 62
     4
  6
CONTINUOUS
  0
LAYER
  2
DEFPOINTS
 70
     0
 62
     7
  6
CONTINUOUS
  0
LAYER
  2
245
 70
     0
 62
     2
  6
CENTER2
  0
LAYER
  2
241
 70
     0
 62
   211
  6
CONTINUOUS
  0
LAYER
  2
243
 70
     0
 62
   211
  6
HIDDEN2
  0
LAYER
  2
247
 70
     0
 62
    60
  6
CONTINUOUS
  0
LAYER
  2
250
 70
     0
 62
     3
  6
CONTINUOUS
  0
ENDTAB
  0
TABLE
  2
STYLE
 70
     7
  0
STYLE
  2
STANDARD
 70
     0
 40
0.0
 41
1.0
 50
0.0
 71
     0
 42
3.0
  3
romans.shx
  4
extfont.shx
  0
STYLE
  2
YOKO
 70
     0
 40
0.0
 41
1.0
 50
0.0
 71
     0
 42
3.0
  3
romans.shx
  4
extfont.shx
  0
STYLE
  2

 70
     1
 40
0.0
 41
1.0
 50
0.0
 71
     0
 42
2.799999999999998
  3
genltshp.shx
  4

  0
STYLE
  2
ACANSGDT
 70
     0
 40
0.0
 41
1.0
 50
0.0
 71
     0
 42
3.0
  3
amgdt.shx
  4

  0
ENDTAB
  0
TABLE
  2
VIEW
 70
     0
  0
ENDTAB
  0
TABLE
  2
UCS
 70
     0
  0
ENDTAB
  0
TABLE
  2
APPID
 70
    44
  0
APPID
  2
ACAD
 70
     0
  0
APPID
  2
ACADANNOTATIVE
 70
     0
  0
APPID
  2
GLOBAL
 70
     0
  0
APPID
  2
DETAIL
 70
     0
  0
APPID
  2
GRPNAME
 70
     0
  0
APPID
  2
GPARA
 70
     0
  0
APPID
  2
MCAD_NO_VIS
 70
     0
  0
APPID
  2
ACAD_TEMP_GRAPHIC
 70
     0
  0
APPID
  2
ACATTRIBSERVICES
 70
     0
  0
APPID
  2
GENIUS_GENSCREG_15
 70
     0
  0
APPID
  2
GENIUS_GENODEF_13
 70
     0
  0
APPID
  2
GENIUS_GENOBJ-N-SDF_13
 70
     0
  0
APPID
  2
GENIUS_GENREC_14
 70
     0
  0
APPID
  2
GENIUS_GENOBJ-N-REC_13
 70
     0
  0
APPID
  2
GENIUS_GENDIMSH_14
 70
     0
  0
APPID
  2
GENIUS_GENOBJ-N-DIM_13
 70
     0
  0
APPID
  2
GENIUS_GENDIM_13
 70
     0
  0
APPID
  2
GENIUS_GENDTOL_13
 70
     0
  0
APPID
  2
GENIUS_GENOLIS_13
 70
     0
  0
APPID
  2
GENIUS_GENOENT_13
 70
     0
  0
APPID
  2
GENIUS_GENOBJ-F-FEM_13
 70
     0
  0
APPID
  2
GENIUS_GENOREF_13
 70
     0
  0
APPID
  2
GENIUS_GEFFEM_13
 70
     0
  0
APPID
  2
GENIUS_GEFFEMP_13
 70
     0
  0
APPID
  2
AD_DRAW
 70
     0
  0
APPID
  2
DESIGNERASSEMBLIES
 70
     0
  0
APPID
  2
ACADM_DIM_EDIT
 70
     0
  0
APPID
  2
AMDT_DM_ADJ
 70
     0
  0
APPID
  2
ITEMNAME
 70
     0
  0
APPID
  2
GENIUS_GENOBJ-N-FIL_13
 70
     0
  0
APPID
  2
GENIUS_GENFIL_13
 70
     0
  0
APPID
  2
GENIUS_GENOBJ-N-CHA_13
 70
     0
  0
APPID
  2
ACAECLAYERSTANDARD
 70
     0
  0
APPID
  2
ACAD_NAV_VCDISPLAY
 70
     0
  0
APPID
  2
ACAD_PSEXT
 70
     0
  0
APPID
  2
ACAD_DSTYLE_DIMJAG
 70
     0
  0
APPID
  2
ACAD_DSTYLE_DIMBREAK
 70
     0
  0
APPID
  2
ACAD_EXEMPT_FROM_CAD_STANDARDS
 70
     0
  0
APPID
  2
ACAD_DSTYLE_DIMINSPECT
 70
     0
  0
APPID
  2
ACAD_MLEADERVER
 70
     0
  0
APPID
  2
ACAD_DSTYLE_DIMARC_LENGTH_
 70
     0
  0
APPID
  2
ACAD_DSTYLE_DIM_LINETYPE
 70
     0
  0
APPID
  2
ACAD_DSTYLE_DIM_EXT1_LINETYPE
 70
     0
  0
APPID
  2
ACAD_DSTYLE_DIM_EXT2_LINETYPE
 70
     0
  0
ENDTAB
  0
TABLE
  2
DIMSTYLE
 70
    16
  0
DIMSTYLE
  2
STANDARD
 70
     0
  3

  4

  5

  6

  7

 40
1.0
 41
0.18
 42
0.0625
 43
0.38
 44
0.18
 45
0.0
 46
0.0
 47
0.0
 48
0.0
140
0.18
141
0.09
142
0.0
143
25.399999999999999
144
1.0
145
0.0
146
1.0
147
0.09
 71
     0
 72
     0
 73
     1
 74
     1
 75
     0
 76
     0
 77
     0
 78
     0
170
     0
171
     2
172
     0
173
     0
174
     0
175
     0
176
     0
177
     0
178
     0
  0
DIMSTYLE
  2
BIGT
 70
     0
  3

  4

  5

  6

  7

 40
1.0
 41
2.2299999999999991
 42
0.5
 43
7.0
 44
1.0
 45
0.0
 46
0.0
 47
0.0
 48
0.01
140
2.799999999999998
141
0.0
142
0.0
143
25.399999999999999
144
1.0
145
0.0
146
1.0
147
1.0
 71
     0
 72
     0
 73
     0
 74
     0
 75
     0
 76
     0
 77
     3
 78
     9
170
     0
171
     2
172
     1
173
     0
174
     1
175
     0
176
   256
177
   256
178
    40
  0
DIMSTYLE
  2
AM_ANSI
 70
     0
  3

  4
mm
  5

  6

  7

 40
1.0
 41
0.12
 42
0.05
 43
0.5
 44
0.1
 45
0.0
 46
0.0
 47
0.1
 48
0.1
140
0.12
141
0.0
142
0.0
143
25.399999999999999
144
1.0
145
0.0
146
0.71
147
0.06
 71
     0
 72
     0
 73
     1
 74
     1
 75
     0
 76
     0
 77
     0
 78
     7
170
     0
171
     2
172
     0
173
     0
174
     0
175
     0
176
   256
177
   256
178
     2
  0
DIMSTYLE
  2
AM_ANSI$3
 70
     0
  3

  4
mm
  5

  6

  7

 40
1.0
 41
0.12
 42
0.05
 43
0.5
 44
0.1
 45
0.0
 46
0.0
 47
0.1
 48
0.1
140
0.12
141
0.0
142
0.0
143
25.399999999999999
144
1.0
145
0.0
146
0.71
147
0.06
 71
     0
 72
     0
 73
     1
 74
     1
 75
     0
 76
     0
 77
     0
 78
     7
170
     0
171
     2
172
     0
173
     0
174
     0
175
     0
176
   256
177
   256
178
     2
  0
DIMSTYLE
  2
AM_ANSI$4
 70
     0
  3

  4
mm
  5

  6

  7

 40
1.0
 41
0.12
 42
0.05
 43
0.5
 44
0.1
 45
0.0
 46
0.0
 47
0.1
 48
0.1
140
0.12
141
0.0
142
0.0
143
25.399999999999999
144
1.0
145
0.0
146
0.71
147
0.06
 71
     0
 72
     0
 73
     1
 74
     1
 75
     0
 76
     0
 77
     0
 78
     7
170
     0
171
     2
172
     0
173
     0
174
     0
175
     0
176
   256
177
   256
178
     2
  0
DIMSTYLE
  2
AM_ANSI$7
 70
     0
  3

  4
mm
  5

  6

  7

 40
1.0
 41
0.12
 42
0.05
 43
0.5
 44
0.1
 45
0.0
 46
0.0
 47
0.1
 48
0.1
140
0.12
141
0.0
142
0.0
143
25.399999999999999
144
1.0
145
0.0
146
0.71
147
0.06
 71
     0
 72
     0
 73
     1
 74
     1
 75
     0
 76
     0
 77
     0
 78
     7
170
     0
171
     2
172
     0
173
     0
174
     0
175
     0
176
   256
177
   256
178
     2
  0
DIMSTYLE
  2
AM_ANSI$SF
 70
     0
  3

  4
mm
  5

  6

  7

 40
1.0
 41
0.12
 42
0.05
 43
0.5
 44
0.1
 45
0.0
 46
0.0
 47
0.1
 48
0.1
140
0.12
141
0.0
142
0.0
143
25.399999999999999
144
1.0
145
0.0
146
0.71
147
0.06
 71
     0
 72
     0
 73
     1
 74
     1
 75
     1
 76
     1
 77
     0
 78
     7
170
     0
171
     2
172
     0
173
     0
174
     0
175
     0
176
   256
177
   256
178
     2
  0
DIMSTYLE
  2
AM_ANSI$SH
 70
     0
  3

  4
mm
  5

  6
GENAXEH
  7

 40
1.0
 41
0.12
 42
0.05
 43
0.5
 44
0.1
 45
0.0
 46
0.0
 47
0.1
 48
0.1
140
0.12
141
0.0
142
0.0
143
25.399999999999999
144
1.0
145
0.0
146
0.71
147
0.06
 71
     0
 72
     0
 73
     1
 74
     1
 75
     1
 76
     1
 77
     0
 78
     7
170
     0
171
     2
172
     0
173
     1
174
     0
175
     0
176
   256
177
   256
178
     2
  0
ENDTAB
  0
ENDSEC
  0
SECTION
  2
BLOCKS
  0
BLOCK
  8
0
  2
$MODEL_SPACE
 70
     0
 10
0.0
 20
0.0
 30
0.0
  3
$MODEL_SPACE
  1

  0
ENDBLK
  5
47A3
  8
0
  0
BLOCK
 67
     1
  8
0
  2
$PAPER_SPACE
 70
     0
 10
0.0
 20
0.0
 30
0.0
  3
$PAPER_SPACE
  1

  0
ENDBLK
  5
479F
 67
     1
  8
0
  0
BLOCK
  8
0
  2
_OPEN
 70
     0
 10
0.0
 20
0.0
 30
0.0
  3
_OPEN
  1

  0
LINE
  5
3E1A
  8
0
  6
BYBLOCK
 62
     0
 10
-1.0
 20
0.1666666666666666
 30
0.0
 11
0.0
 21
0.0
 31
0.0
  0
LINE
  5
3E1B
  8
0
  6
BYBLOCK
 62
     0
 10
-1.0
 20
-0.1666666666666666
 30
0.0
 11
0.0
 21
0.0
 31
0.0
  0
LINE
  5
3E1C
  8
0
  6
BYBLOCK
 62
     0
 10
0.0
 20
0.0
 30
0.0
 11
-1.0
 21
0.0
 31
0.0
  0
ENDBLK
  5
3E1D
  8
0
  0
BLOCK
  8
0
  2
GENAXEH
 70
     0
 10
0.0
 20
0.0
 30
0.0
  3
GENAXEH
  1

  0
LINE
  5
3E45
  8
0
 10
-1.0
 20
0.0
 30
0.0
 11
1.0
 21
0.0
 31
0.0
  0
ENDBLK
  5
3E46
  8
0
  0
BLOCK
  8
0
  2
_ACMFILLEDHALF
 70
     0
 10
0.0
 20
0.0
 30
0.0
  3
_ACMFILLEDHALF
  1

  0
TRACE
  5
4853
  8
240
 62
     0
 10
-0.8
 20
0.0
 30
0.0
 11
-1.0
 21
0.166666666
 31
0.0
 12
0.0
 22
0.0
 32
0.0
 13
0.0
 23
0.0
 33
0.0
  0
LINE
  5
4854
  8
240
 62
     0
 10
-1.0
 20
0.0
 30
0.0
 11
-0.8
 21
0.0
 31
0.0
  0
ENDBLK
  5
4852
  8
0
  0
ENDSEC
  0
SECTION
  2
ENTITIES
  0
LINE
  5
424F
  8
240
  6
CONTINUOUS
 10
45.000000000000057
 20
52.499999999999758
 30
0.0
 11
29.00000000000011
 21
52.50000000000032
 31
0.0
  0
LINE
  5
4250
  8
240
  6
CONTINUOUS
 10
29.000000000000171
 20
-52.5
 30
0.0
 11
45.000000000000099
 21
-52.499999999999851
 31
0.0
  0
LINE
  5
4253
  8
240
  6
CONTINUOUS
 10
63.0
 20
-45.00000000000027
 30
0.0
 11
63.0
 21
-42.500000000000007
 31
0.0
  0
LINE
  5
4257
  8
240
  6
CONTINUOUS
 10
63.0
 20
45.000000000000149
 30
0.0
 11
63.0
 21
42.500000000000007
 31
0.0
  0
LINE
  5
4259
  8
240
  6
CONTINUOUS
 10
48.000000000000107
 20
-45.000000000000071
 30
0.0
 11
63.0
 21
-45.00000000000027
 31
0.0
  0
ARC
  5
425A
  8
240
  6
CONTINUOUS
 10
48.000000000000107
 20
-48.000000000000071
 30
0.0
 40
3.0
 50
90.0
 51
180.00000000000011
  0
LINE
  5
425B
  8
240
  6
CONTINUOUS
 10
45.000000000000099
 20
-52.499999999999851
 30
0.0
 11
45.000000000000099
 21
-48.000000000000092
 31
0.0
  0
LINE
  5
425C
  8
240
  6
CONTINUOUS
 10
45.000000000000057
 20
52.499999999999758
 30
0.0
 11
45.0
 21
48.000000000000291
 31
0.0
  0
LINE
  5
425F
  8
241
  6
CONTINUOUS
 10
55.600000000001323
 20
-44.999999999998423
 30
0.0
 11
55.6000000000125
 21
45.000000000000149
 31
0.0
  0
LINE
  5
4260
  8
241
  6
CONTINUOUS
 10
54.399999999999011
 20
-44.999999999998423
 30
0.0
 11
54.399999999995011
 21
45.000000000000149
 31
0.0
  0
LINE
  5
4261
  8
240
  6
CONTINUOUS
 10
48.000000000000107
 20
45.000000000000149
 30
0.0
 11
63.0
 21
45.000000000000149
 31
0.0
  0
ARC
  5
4262
  8
240
  6
CONTINUOUS
 10
48.000000000000107
 20
48.000000000000171
 30
0.0
 40
3.0
 50
180.0
 51
270.0
  0
LINE
  5
430C
  8
250
  6
CONTINUOUS
 10
-39.20135676606543
 20
-60.283382249222207
 30
0.0
 11
-66.134690099398753
 21
-60.283382249222207
 31
0.0
1001
ITEMNAME
1000
LNSP2
  0
LINE
  5
430D
  8
240
  6
CONTINUOUS
 10
0.0000000000000021
 20
-62.500000000000412
 30
0.0
 11
-0.000000000000028
 21
-48.134252505009783
 31
0.0
  0
LINE
  5
430E
  8
240
  6
CONTINUOUS
 10
-0.0000000000000787
 20
62.500000000000242
 30
0.0
 11
16.752404735808302
 21
62.500000000000021
 31
0.0
  0
LINE
  5
430F
  8
241
  6
CONTINUOUS
 10
21.875000000000199
 20
-58.499999999999801
 30
0.0
 11
21.874999999999801
 21
-43.150898020782613
 31
0.0
  0
LINE
  5
4310
  8
240
  6
CONTINUOUS
 10
23.24759526419157
 20
62.499999999999972
 30
0.0
 11
29.000000000000021
 21
62.499999999999972
 31
0.0
  0
LINE
  5
4311
  8
240
  6
CONTINUOUS
 10
0.0000000000000021
 20
-62.500000000000412
 30
0.0
 11
16.752404735808302
 21
-62.500000000000071
 31
0.0
  0
LINE
  5
4312
  8
240
  6
CONTINUOUS
 10
23.24759526419157
 20
-62.500000000000021
 30
0.0
 11
21.875000000000831
 21
-60.122595264193897
 31
0.0
  0
LINE
  5
4313
  8
240
  6
CONTINUOUS
 10
18.124999999999911
 20
-60.122595264191361
 30
0.0
 11
16.752404735808302
 21
-62.500000000000071
 31
0.0
  0
LINE
  5
4314
  8
240
  6
CONTINUOUS
 10
21.875000000000199
 20
-58.499999999999801
 30
0.0
 11
18.12500000000162
 21
-58.500000000000043
 31
0.0
  0
LINE
  5
4315
  8
240
  6
CONTINUOUS
 10
23.24759526419157
 20
-62.500000000000021
 30
0.0
 11
29.000000000000139
 21
-62.49999999999995
 31
0.0
  0
LINE
  5
4316
  8
240
  6
CONTINUOUS
 10
-62.999999999999901
 20
-44.97793987975902
 30
0.0
 11
-62.999999999999979
 21
-12.50999999999997
 31
0.0
  0
LINE
  5
4317
  8
240
  6
CONTINUOUS
 10
0.0000000000006439
 20
48.134252505009748
 30
0.0
 11
-62.999999999999901
 21
44.977939879759091
 31
0.0
  0
LINE
  5
4318
  8
240
  6
CONTINUOUS
 10
-62.999999999999901
 20
12.51
 30
0.0
 11
-53.499999999999972
 21
12.51
 31
0.0
  0
ARC
  5
4319
  8
240
  6
CONTINUOUS
 10
-53.499999999999972
 20
-10.00999999999995
 30
0.0
 40
2.5
 50
270.0
 51
0.0
  0
ARC
  5
431A
  8
243
  6
HIDDEN2
 10
-46.499999999999879
 20
-10.009999999999961
 30
0.0
 40
2.5
 50
270.0
 51
0.0
  0
LINE
  5
431B
  8
240
  6
CONTINUOUS
 10
-50.999999999999972
 20
-10.00999999999995
 30
0.0
 11
-51.000000000000078
 21
10.01000000000003
 31
0.0
  0
LINE
  5
431C
  8
240
  6
CONTINUOUS
 10
-62.999999999999901
 20
12.51
 30
0.0
 11
-62.999999999999901
 21
44.977939879759091
 31
0.0
  0
LINE
  5
431D
  8
243
  6
HIDDEN2
 10
-43.999999999999879
 20
-10.00999999999995
 30
0.0
 11
-44.000000000001052
 21
10.01000000000003
 31
0.0
  0
LINE
  5
431E
  8
240
  6
CONTINUOUS
 10
-62.999999999999979
 20
-12.50999999999997
 30
0.0
 11
-53.499999999999972
 21
-12.50999999999997
 31
0.0
  0
LINE
  5
431F
  8
243
  6
HIDDEN2
 10
-46.499999999999879
 20
-12.50999999999997
 30
0.0
 11
-53.499999999999879
 21
-12.510000000000099
 31
0.0
  0
LINE
  5
4320
  8
240
  6
CONTINUOUS
 10
0.0000000000006439
 20
48.134252505009748
 30
0.0
 11
-0.0000000000000787
 21
62.500000000000242
 31
0.0
  0
LINE
  5
4321
  8
240
  6
CONTINUOUS
 10
29.000000000000021
 20
62.499999999999972
 30
0.0
 11
29.00000000000011
 21
52.50000000000032
 31
0.0
  0
LINE
  5
4322
  8
240
  6
CONTINUOUS
 10
-0.000000000000028
 20
-48.134252505009783
 30
0.0
 11
-62.999999999999901
 21
-44.97793987975902
 31
0.0
  0
LINE
  5
4323
  8
241
  6
CONTINUOUS
 10
10.00000000000008
 20
-12.500000000000011
 30
0.0
 11
29.000000000000089
 21
-12.50000000000008
 31
0.0
  0
LINE
  5
4324
  8
241
  6
CONTINUOUS
 10
5.0000000000000844
 20
-7.5000000000000249
 30
0.0
 11
4.9999999999990621
 21
7.5000000000000568
 31
0.0
  0
ARC
  5
4325
  8
241
  6
CONTINUOUS
 10
10.00000000000008
 20
-7.5000000000000249
 30
0.0
 40
5.0
 50
180.0
 51
270.0
  0
LINE
  5
4326
  8
241
  6
CONTINUOUS
 10
10.00000000000008
 20
-39.499999999999922
 30
0.0
 11
29.000000000000139
 21
-39.499999999999972
 31
0.0
  0
LINE
  5
4327
  8
241
  6
CONTINUOUS
 10
4.999999999999968
 20
-48.435524153249141
 30
0.0
 11
16.7524047358066
 21
-48.435524153249361
 31
0.0
  0
LINE
  5
4328
  8
241
  6
CONTINUOUS
 10
4.999999999999968
 20
-48.435524153249141
 30
0.0
 11
5.0000000000000284
 21
-44.499999999999908
 31
0.0
  0
ARC
  5
4329
  8
241
  6
CONTINUOUS
 10
10.00000000000008
 20
-44.499999999999908
 30
0.0
 40
5.0
 50
90.0
 51
180.0
  0
LINE
  5
432A
  8
241
  6
CONTINUOUS
 10
21.875000000000028
 20
-39.500000000000171
 30
0.0
 11
21.87500000000006
 21
-12.499999999999909
 31
0.0
  0
LINE
  5
432B
  8
241
  6
CONTINUOUS
 10
18.125000000000082
 20
-39.500000000000128
 30
0.0
 11
18.125000000000131
 21
-12.499999999999879
 31
0.0
  0
LINE
  5
432C
  8
241
  6
CONTINUOUS
 10
16.752404735808302
 20
-62.500000000001663
 30
0.0
 11
16.752404735808302
 21
-48.435524153249361
 31
0.0
  0
LINE
  5
432D
  8
241
  6
CONTINUOUS
 10
23.24759526419157
 20
-62.500000000001613
 30
0.0
 11
23.24759526419157
 21
-48.435524153249361
 31
0.0
  0
LINE
  5
432E
  8
241
  6
CONTINUOUS
 10
23.24759526419157
 20
-39.500000000000171
 30
0.0
 11
23.24759526419157
 21
-12.499999999999909
 31
0.0
  0
LINE
  5
432F
  8
241
  6
CONTINUOUS
 10
16.752404735808302
 20
-39.500000000000128
 30
0.0
 11
16.752404735808302
 21
-12.499999999999879
 31
0.0
  0
LINE
  5
4330
  8
241
  6
CONTINUOUS
 10
18.12499999999946
 20
-43.15089802078289
 30
0.0
 11
21.874999999999801
 21
-43.150898020782613
 31
0.0
  0
LINE
  5
4331
  8
241
  6
CONTINUOUS
 10
16.752404735808302
 20
-48.435524153249361
 30
0.0
 11
18.1249999999994
 21
-45.326332978763638
 31
0.0
  0
LINE
  5
4332
  8
241
  6
CONTINUOUS
 10
21.874999999999801
 20
-45.326332978763638
 30
0.0
 11
23.24759526419157
 21
-48.435524153249183
 31
0.0
  0
LINE
  5
4333
  8
241
  6
CONTINUOUS
 10
23.247595264196061
 20
-48.435524153249361
 30
0.0
 11
29.000000000000028
 21
-48.435524153249197
 31
0.0
  0
LINE
  5
4334
  8
240
  6
CONTINUOUS
 10
18.125000000000011
 20
-60.122595264191759
 30
0.0
 11
18.12500000000162
 21
-58.500000000000043
 31
0.0
  0
LINE
  5
4335
  8
241
  6
CONTINUOUS
 10
18.125000000000011
 20
-58.499999999999943
 30
0.0
 11
18.12499999999946
 21
-43.15089802078289
 31
0.0
  0
LINE
  5
4336
  8
240
  6
CONTINUOUS
 10
21.875000000000831
 20
-60.122595264193897
 30
0.0
 11
21.87499999999833
 21
-58.500000000000043
 31
0.0
  0
LINE
  5
4337
  8
241
  6
CONTINUOUS
 10
-0.0000000000000284
 20
-47.933851703406383
 30
0.0
 11
-0.0000000000000284
 21
48.134252505009719
 31
0.0
  0
LINE
  5
4338
  8
240
  6
CONTINUOUS
 10
23.247595264191631
 20
62.500000000000021
 30
0.0
 11
21.875000000000881
 21
60.122595264193961
 31
0.0
  0
LINE
  5
4339
  8
240
  6
CONTINUOUS
 10
18.124999999999972
 20
60.122595264191361
 30
0.0
 11
16.752404735808369
 21
62.500000000000071
 31
0.0
  0
LINE
  5
433A
  8
240
  6
CONTINUOUS
 10
21.875000000000309
 20
58.499999999999801
 30
0.0
 11
18.12500000000168
 21
58.500000000000043
 31
0.0
  0
LINE
  5
433B
  8
240
  6
CONTINUOUS
 10
18.125000000000082
 20
60.122595264191801
 30
0.0
 11
18.12500000000168
 21
58.500000000000043
 31
0.0
  0
LINE
  5
433C
  8
240
  6
CONTINUOUS
 10
21.875000000000881
 20
60.122595264193961
 30
0.0
 11
21.87499999999838
 21
58.500000000000021
 31
0.0
  0
LINE
  5
433D
  8
241
  6
CONTINUOUS
 10
10.00000000000011
 20
12.50000000000005
 30
0.0
 11
29.000000000000089
 21
12.50000000000008
 31
0.0
  0
ARC
  5
433E
  8
241
  6
CONTINUOUS
 10
10.00000000000008
 20
7.500000000000056
 30
0.0
 40
5.0
 50
90.0
 51
180.0
  0
LINE
  5
433F
  8
241
  6
CONTINUOUS
 10
21.87500000000006
 20
12.49999999999984
 30
0.0
 11
21.875000000000139
 21
58.499999999999801
 31
0.0
  0
LINE
  5
4340
  8
241
  6
CONTINUOUS
 10
23.24759526419157
 20
12.49999999999984
 30
0.0
 11
23.247595264191752
 21
62.499999999999972
 31
0.0
  0
LINE
  5
4341
  8
241
  6
CONTINUOUS
 10
18.125000000000131
 20
12.49999999999981
 30
0.0
 11
18.125000000000199
 21
58.500000000000043
 31
0.0
  0
LINE
  5
4342
  8
241
  6
CONTINUOUS
 10
16.752404735808302
 20
12.49999999999981
 30
0.0
 11
16.752404735808479
 21
62.500000000000021
 31
0.0
  0
ARC
  5
4343
  8
240
  6
CONTINUOUS
 10
-53.499999999999972
 20
10.010000000000071
 30
0.0
 40
2.5
 50
0.0
 51
90.0
  0
ARC
  5
4344
  8
243
  6
HIDDEN2
 10
-46.499999999999879
 20
10.010000000000071
 30
0.0
 40
2.5
 50
0.0
 51
90.0
  0
LINE
  5
4345
  8
243
  6
HIDDEN2
 10
-46.499999999999879
 20
12.510000000000071
 30
0.0
 11
-53.499999999999879
 21
12.510000000000201
 31
0.0
  0
LINE
  5
4346
  8
240
  6
CONTINUOUS
 10
29.000000000000139
 20
-62.49999999999995
 30
0.0
 11
29.000000000000171
 21
-52.5
 31
0.0
  0
TEXT
  5
4347
  8
250
  6
CONTINUOUS
 10
-63.868023432732109
 20
-59.283382249222221
 30
0.0
 40
2.799999999999998
  1
HSK-A125
  7
YOKO
1001
ITEMNAME
1000
LNSP3
  0
POLYLINE
  5
4348
  8
250
  6
CONTINUOUS
 66
     1
 10
0.0
 20
0.0
 30
0.0
1001
ACAD
1000
DSTYLE
1002
{
1070
    41
1040
2.0
1002
}
  0
VERTEX
  5
4349
  8
250
  6
CONTINUOUS
 10
-32.282204286245992
 20
-48.299058608858793
 30
0.0
  0
VERTEX
  5
434A
  8
250
  6
CONTINUOUS
 10
-39.20135676606543
 20
-60.283382249222207
 30
0.0
  0
SEQEND
  5
434B
  8
250
  6
CONTINUOUS
  0
LINE
  5
434C
  8
250
  6
CONTINUOUS
 10
-32.570879420840797
 20
-48.1323919421921
 30
0.0
 11
-31.282204286245989
 21
-46.567007801289897
 31
0.0
  0
LINE
  5
434D
  8
250
  6
CONTINUOUS
 10
-31.993529151651181
 20
-48.46572527552545
 30
0.0
 11
-31.282204286245989
 21
-46.567007801289897
 31
0.0
  0
LINE
  5
434E
  8
250
  6
CONTINUOUS
 10
-31.282204286245989
 20
-46.567007801289897
 30
0.0
 11
-32.282204286245992
 21
-48.299058608858793
 31
0.0
  0
LINE
  5
434F
  8
247
  6
CONTINUOUS
 10
12.0
 20
-28.250000000070049
 30
0.0
 11
12.0
 21
-21.557692308030042
 31
0.0
  0
ARC
  5
4350
  8
247
  6
CONTINUOUS
 10
10.25000000006998
 20
-28.250000000070049
 30
0.0
 40
1.7499999999299991
 50
180.0
 51
0.0
  0
ARC
  5
4351
  8
247
  6
CONTINUOUS
 10
10.25000000007004
 20
-21.557692308030042
 30
0.0
 40
1.7499999999299991
 50
0.0
 51
180.0
  0
LINE
  5
4352
  8
247
  6
CONTINUOUS
 10
8.5000000001400693
 20
-27.384615384720021
 30
0.0
 11
11.500000000020011
 21
-28.244851541962031
 31
0.0
  0
LINE
  5
4353
  8
247
  6
CONTINUOUS
 10
9.9230769231600142
 20
-26.484983818335831
 30
0.0
 11
9.9230769231600142
 21
-27.792676125975859
 31
0.0
  0
ARC
  5
4354
  8
247
  6
CONTINUOUS
 10
9.049598667702984
 20
-26.14514381608981
 30
0.0
 40
0.5538165441895349
 50
72.997889675292413
 51
172.92416621851351
  0
ARC
  5
4355
  8
247
  6
CONTINUOUS
 10
8.9360330444658338
 20
-26.56687832302881
 30
0.0
 40
0.9904354236226808
 50
4.7429368522022131
 51
73.849226273266424
1001
GENIUS_GENOBJ-N-FIL_13
1002
{
1000
OWNER
1000
GEN
1002
}
1001
GENIUS_GENODEF_13
1002
{
1000
HIER
1070
     0
1002
}
1002
{
1000
MANEDIT
1070
     0
1002
}
1002
{
1000
NOSEL
1070
     0
1002
}
1002
{
1000
BEHIND
1070
     0
1002
}
1002
{
1000
OTHER
1070
     0
1002
}
1002
{
1000
REACTOR
1002
}
  0
LINE
  5
4356
  8
247
  6
CONTINUOUS
 10
11.500000000020011
 20
-26.93715923432201
 30
0.0
 11
11.500000000020011
 21
-28.244851541962031
 31
0.0
  0
LINE
  5
4357
  8
247
  6
CONTINUOUS
 10
8.5000000001400693
 20
-27.384615384720021
 30
0.0
 11
8.5000000001400693
 21
-26.07692307708
 31
0.0
  0
ARC
  5
4358
  8
247
  6
CONTINUOUS
 10
10.4820242326656
 20
-26.560919636546959
 30
0.0
 40
0.5640818586791229
 50
65.990941652528889
 51
172.26344345906909
  0
ARC
  5
4359
  8
247
  6
CONTINUOUS
 10
10.48742903918663
 20
-27.0382626853471
 30
0.0
 40
1.0176059446230981
 50
5.701985164256504
 51
77.277338436822205
1001
GENIUS_GENOBJ-N-FIL_13
1002
{
1000
OWNER
1000
GEN
1002
}
1001
GENIUS_GENODEF_13
1002
{
1000
HIER
1070
     0
1002
}
1002
{
1000
MANEDIT
1070
     0
1002
}
1002
{
1000
NOSEL
1070
     0
1002
}
1002
{
1000
BEHIND
1070
     0
1002
}
1002
{
1000
OTHER
1070
     0
1002
}
1002
{
1000
REACTOR
1002
}
  0
LINE
  5
435A
  8
247
  6
CONTINUOUS
 10
11.500000000020011
 20
-25.28331308054204
 30
0.0
 11
8.5000000001400693
 21
-24.42307692330003
 31
0.0
  0
LINE
  5
435B
  8
247
  6
CONTINUOUS
 10
8.5000000001400693
 20
-22.000000000319979
 30
0.0
 11
8.5000000001400693
 21
-22.565736619456569
 31
0.0
  0
LINE
  5
435C
  8
247
  6
CONTINUOUS
 10
11.500000000020011
 20
-23.4615384618
 30
0.0
 11
11.500000000020011
 21
-22.846153846440028
 31
0.0
  0
ARC
  5
435D
  8
247
  6
CONTINUOUS
 10
10.58328513597337
 20
-21.708791209122872
 30
0.0
 40
2.2526500823422122
 50
202.3594881415263
 51
254.99324854284609
  0
ARC
  5
435E
  8
247
  6
CONTINUOUS
 10
9.3083126551945341
 20
-22.37406947921324
 30
0.0
 40
0.8906723995727782
 50
94.994589319075374
 51
155.1663289573041
1001
GENIUS_GENOBJ-N-FIL_13
1002
{
1000
OWNER
1000
GEN
1002
}
1001
GENIUS_GENODEF_13
1002
{
1000
HIER
1070
     0
1002
}
1002
{
1000
MANEDIT
1070
     0
1002
}
1002
{
1000
NOSEL
1070
     0
1002
}
1002
{
1000
BEHIND
1070
     0
1002
}
1002
{
1000
OTHER
1070
     0
1002
}
1002
{
1000
REACTOR
1002
}
  0
ARC
  5
435F
  8
247
  6
CONTINUOUS
 10
10.16014588866779
 20
-23.226458886212569
 30
0.0
 40
1.392781735586712
 50
15.846096555780679
 51
82.325137004169122
  0
ARC
  5
4360
  8
247
  6
CONTINUOUS
 10
10.45924343152728
 20
-22.642212725840359
 30
0.0
 40
1.324563662670287
 50
249.7136016704969
 51
321.78874565640581
1001
GENIUS_GENOBJ-N-FIL_13
1002
{
1000
OWNER
1000
GEN
1002
}
1001
GENIUS_GENODEF_13
1002
{
1000
HIER
1070
     0
1002
}
1002
{
1000
MANEDIT
1070
     0
1002
}
1002
{
1000
NOSEL
1070
     0
1002
}
1002
{
1000
BEHIND
1070
     0
1002
}
1002
{
1000
OTHER
1070
     0
1002
}
1002
{
1000
REACTOR
1002
}
  0
LINE
  5
4361
  8
247
  6
CONTINUOUS
 10
10.34615384621998
 20
-22.538461538759972
 30
0.0
 11
10.34615384621998
 21
-21.846153846479972
 31
0.0
  0
LINE
  5
4362
  8
247
  6
CONTINUOUS
 10
8.500000000139952
 20
-28.250000000070049
 30
0.0
 11
8.500000000139952
 21
-27.576923077020052
 31
0.0
  0
LINE
  5
4363
  8
241
  6
CONTINUOUS
 10
29.000000000000171
 20
-52.499999999999922
 30
0.0
 11
29.00000000000006
 21
52.500000000000412
 31
0.0
  0
TEXT
  5
4364
  8
241
  6
CONTINUOUS
 10
-71.999999999999687
 20
91.0
 30
0.0
 40
5.0
  1
HSK-A125-HMC1.500J-5
  7
YOKO
 11
-71.999999999999687
 21
91.0
 31
0.0
 73
     1
  0
LINE
  5
4415
  8
241
  6
CONTINUOUS
 10
92.12842712474621
 20
-31.958891488182491
 30
0.0
 11
103.4715728752538
 21
-31.958891488182491
 31
0.0
  0
LINE
  5
4416
  8
241
  6
CONTINUOUS
 10
92.12842712474621
 20
-35.04320702497138
 30
0.0
 11
103.4715728752538
 21
-35.04320702497138
 31
0.0
  0
LINE
  5
4417
  8
241
  6
CONTINUOUS
 10
92.12842712474621
 20
-37.61574573767485
 30
0.0
 11
103.4715728752538
 21
-37.61574573767485
 31
0.0
  0
ARC
  5
4418
  8
241
  6
CONTINUOUS
 10
93.300000000000026
 20
0.0999999999999588
 30
0.0
 40
4.0
 50
181.4325437375656
 51
270.0
  0
ARC
  5
4419
  8
241
  6
CONTINUOUS
 10
93.300000000000026
 20
0.0999999999999588
 30
0.0
 40
4.5
 50
181.2733443614068
 51
270.0
  0
LINE
  5
441A
  8
240
  6
CONTINUOUS
 10
88.250000000000085
 20
-49.150000000000041
 30
0.0
 11
105.0
 21
-49.150000000000041
 31
0.0
  0
LINE
  5
441B
  8
241
  6
CONTINUOUS
 10
90.999999999999986
 20
-32.082931714020781
 30
0.0
 11
90.999999999999986
 21
-3.9311288741493011
 31
0.0
  0
LINE
  5
441C
  8
241
  6
CONTINUOUS
 10
66.0
 20
-45.400000000000013
 30
0.0
 11
66.0
 21
45.400000000000013
 31
0.0
  0
LINE
  5
441D
  8
241
  6
CONTINUOUS
 10
70.999999999999972
 20
-49.75
 30
0.0
 11
71.000000000000014
 21
49.749999999999972
 31
0.0
  0
LINE
  5
441E
  8
240
  6
CONTINUOUS
 10
65.0
 20
-44.40000000000002
 30
0.0
 11
65.0
 21
-42.500000000000007
 31
0.0
  0
LINE
  5
441F
  8
240
  6
CONTINUOUS
 10
71.0
 20
-49.750000000000021
 30
0.0
 11
71.350000000006162
 21
-49.400000000000041
 31
0.0
  0
LINE
  5
4420
  8
240
  6
CONTINUOUS
 10
71.350000000006162
 20
-49.400000000000041
 30
0.0
 11
87.999999999999986
 21
-49.400000000000041
 31
0.0
  0
LINE
  5
4421
  8
240
  6
CONTINUOUS
 10
66.0
 20
-47.750000000000021
 30
0.0
 11
66.0
 21
-45.400000000000013
 31
0.0
  0
LINE
  5
4422
  8
240
  6
CONTINUOUS
 10
66.0
 20
-45.400000000000013
 30
0.0
 11
65.0
 21
-44.40000000000002
 31
0.0
  0
LINE
  5
4423
  8
241
  6
CONTINUOUS
 10
90.999999999999986
 20
-49.149999999999991
 30
0.0
 11
90.999999999999986
 21
-37.491705511836578
 31
0.0
  0
LINE
  5
4424
  8
240
  6
CONTINUOUS
 10
88.000000000000057
 20
-49.400000000000041
 30
0.0
 11
88.250000000000085
 21
-49.150000000000041
 31
0.0
  0
ARC
  5
4425
  8
241
  6
CONTINUOUS
 10
92.12842712474621
 20
-32.214779900225231
 30
0.0
 40
2.8284271247462032
 50
207.04980799809741
 51
270.0
  0
ARC
  5
4426
  8
241
  6
CONTINUOUS
 10
92.12842712474621
 20
-34.787318612928658
 30
0.0
 40
2.8284271247461841
 50
90.0
 51
270.0
  0
LINE
  5
4427
  8
241
  6
CONTINUOUS
 10
105.0
 20
-32.290264073228244
 30
0.0
 11
105.0
 21
-3.6416573867739772
 31
0.0
  0
LINE
  5
4428
  8
240
  6
CONTINUOUS
 10
128.9999999999994
 20
-40.299209925938491
 30
0.0
 11
129.0
 21
40.49920992593831
 31
0.0
  0
ARC
  5
4429
  8
240
  6
CONTINUOUS
 10
121.9999999999994
 20
-40.299209925938449
 30
0.0
 40
7.0
 50
274.99999999999972
 51
0.0
  0
LINE
  5
442A
  8
240
  6
CONTINUOUS
 10
106.86602540378441
 20
-48.650000000000041
 30
0.0
 11
122.6100901992329
 21
-47.272572812580648
 31
0.0
  0
LINE
  5
442B
  8
241
  6
CONTINUOUS
 10
105.0
 20
-49.150000000000041
 30
0.0
 11
105.0
 21
-37.284373152629101
 31
0.0
  0
LINE
  5
442C
  8
240
  6
CONTINUOUS
 10
105.0
 20
-49.150000000000013
 30
0.0
 11
106.86602540378441
 21
-48.650000000000041
 31
0.0
  0
ARC
  5
442D
  8
241
  6
CONTINUOUS
 10
103.4715728752538
 20
-34.787318612928658
 30
0.0
 40
2.8284271247461841
 50
270.0
 51
90.0
  0
ARC
  5
442E
  8
241
  6
CONTINUOUS
 10
103.4715728752538
 20
-32.214779900225231
 30
0.0
 40
2.8284271247461561
 50
270.0
 51
332.950192001902
  0
ARC
  5
442F
  8
241
  6
CONTINUOUS
 10
102.3
 20
0.0999999999999588
 30
0.0
 40
4.5
 50
270.0
 51
358.72665563859317
  0
ARC
  5
4430
  8
241
  6
CONTINUOUS
 10
102.3
 20
0.0999999999999588
 30
0.0
 40
4.0
 50
270.0
 51
358.5674562624344
  0
LINE
  5
4431
  8
241
  6
CONTINUOUS
 10
93.300000000000026
 20
-3.9000000000000399
 30
0.0
 11
102.3
 21
-3.9000000000000399
 31
0.0
  0
LINE
  5
4432
  8
241
  6
CONTINUOUS
 10
93.300000000000026
 20
-4.4000000000000412
 30
0.0
 11
102.3
 21
-4.4000000000000412
 31
0.0
  0
LINE
  5
4433
  8
240
  6
CONTINUOUS
 10
68.0
 20
-49.750000000000021
 30
0.0
 11
70.999999999999972
 21
-49.75
 31
0.0
  0
ARC
  5
4434
  8
240
  6
CONTINUOUS
 10
68.0
 20
-47.750000000000021
 30
0.0
 40
2.0
 50
180.0
 51
270.0
  0
LINE
  5
4435
  8
240
  6
CONTINUOUS
 10
63.0
 20
-42.500000000000007
 30
0.0
 11
65.0
 21
-42.500000000000007
 31
0.0
  0
LINE
  5
4438
  8
241
  6
CONTINUOUS
 10
92.128427124746224
 20
31.95889148818247
 30
0.0
 11
103.4715728752538
 21
31.958891488182459
 31
0.0
  0
LINE
  5
4439
  8
241
  6
CONTINUOUS
 10
92.128427124746224
 20
35.043207024971359
 30
0.0
 11
103.4715728752538
 21
35.043207024971359
 31
0.0
  0
LINE
  5
443A
  8
241
  6
CONTINUOUS
 10
92.128427124746224
 20
37.61574573767485
 30
0.0
 11
103.4715728752538
 21
37.615745737674807
 31
0.0
  0
ARC
  5
443B
  8
241
  6
CONTINUOUS
 10
93.300000000000026
 20
-0.0999999999999785
 30
0.0
 40
4.0
 50
90.0
 51
178.5674562624335
  0
ARC
  5
443C
  8
241
  6
CONTINUOUS
 10
93.300000000000026
 20
-0.0999999999999785
 30
0.0
 40
4.5
 50
90.0
 51
178.7266556385924
  0
LINE
  5
443D
  8
240
  6
CONTINUOUS
 10
88.250000000000085
 20
49.15000000000002
 30
0.0
 11
105.0000000000001
 21
49.15000000000002
 31
0.0
  0
LINE
  5
443E
  8
241
  6
CONTINUOUS
 10
91.0
 20
32.082931714020752
 30
0.0
 11
90.999999999999986
 21
3.9311288741492798
 31
0.0
  0
LINE
  5
443F
  8
241
  6
CONTINUOUS
 10
88.000000000000014
 20
49.40000000000002
 30
0.0
 11
87.999999999999986
 21
-49.400000000000041
 31
0.0
  0
LINE
  5
4440
  8
240
  6
CONTINUOUS
 10
65.0
 20
44.40000000000002
 30
0.0
 11
65.0
 21
42.500000000000007
 31
0.0
  0
LINE
  5
4441
  8
240
  6
CONTINUOUS
 10
71.0
 20
49.750000000000021
 30
0.0
 11
71.350000000006162
 21
49.40000000000002
 31
0.0
  0
LINE
  5
4442
  8
240
  6
CONTINUOUS
 10
71.350000000006162
 20
49.40000000000002
 30
0.0
 11
88.000000000000014
 21
49.40000000000002
 31
0.0
  0
LINE
  5
4443
  8
240
  6
CONTINUOUS
 10
66.0
 20
47.750000000000021
 30
0.0
 11
66.0
 21
45.400000000000013
 31
0.0
  0
LINE
  5
4444
  8
240
  6
CONTINUOUS
 10
66.0
 20
45.400000000000013
 30
0.0
 11
65.0
 21
44.40000000000002
 31
0.0
  0
LINE
  5
4445
  8
241
  6
CONTINUOUS
 10
91.0
 20
49.14999999999997
 30
0.0
 11
91.0
 21
37.491705511836557
 31
0.0
  0
LINE
  5
4446
  8
240
  6
CONTINUOUS
 10
88.000000000000057
 20
49.40000000000002
 30
0.0
 11
88.250000000000085
 21
49.15000000000002
 31
0.0
  0
ARC
  5
4447
  8
241
  6
CONTINUOUS
 10
92.128427124746224
 20
32.21477990022521
 30
0.0
 40
2.8284271247462032
 50
90.0
 51
152.95019200190239
  0
ARC
  5
4448
  8
241
  6
CONTINUOUS
 10
92.128427124746224
 20
34.787318612928651
 30
0.0
 40
2.8284271247461841
 50
90.0
 51
270.0
  0
LINE
  5
4449
  8
241
  6
CONTINUOUS
 10
105.0
 20
32.290264073228222
 30
0.0
 11
105.0
 21
3.641657386773955
 31
0.0
  0
LINE
  5
444A
  8
241
  6
CONTINUOUS
 10
106.86602540378441
 20
48.650000000000013
 30
0.0
 11
106.86602540378441
 21
-48.650000000000041
 31
0.0
  0
LINE
  5
444B
  8
240
  6
CONTINUOUS
 10
128.9999999999994
 20
40.29920992593847
 30
0.0
 11
128.9999999999998
 21
-40.499209925938331
 31
0.0
  0
ARC
  5
444C
  8
240
  6
CONTINUOUS
 10
121.9999999999994
 20
40.29920992593842
 30
0.0
 40
7.0
 50
0.0
 51
85.000000000000185
  0
LINE
  5
444D
  8
240
  6
CONTINUOUS
 10
106.86602540378441
 20
48.650000000000013
 30
0.0
 11
122.6100901992329
 21
47.272572812580641
 31
0.0
  0
LINE
  5
444E
  8
241
  6
CONTINUOUS
 10
105.0000000000001
 20
49.15000000000002
 30
0.0
 11
105.0
 21
37.284373152629072
 31
0.0
  0
LINE
  5
444F
  8
240
  6
CONTINUOUS
 10
105.0
 20
49.149999999999991
 30
0.0
 11
106.86602540378441
 21
48.650000000000013
 31
0.0
  0
ARC
  5
4450
  8
241
  6
CONTINUOUS
 10
103.4715728752538
 20
34.787318612928651
 30
0.0
 40
2.8284271247461841
 50
270.0
 51
90.0
  0
ARC
  5
4451
  8
241
  6
CONTINUOUS
 10
103.4715728752538
 20
32.214779900225203
 30
0.0
 40
2.8284271247461561
 50
27.049807998098
 51
90.0
  0
ARC
  5
4452
  8
241
  6
CONTINUOUS
 10
102.3
 20
-0.0999999999999807
 30
0.0
 40
4.5
 50
1.2733443614075881
 51
90.0
  0
ARC
  5
4453
  8
241
  6
CONTINUOUS
 10
102.3
 20
-0.0999999999999807
 30
0.0
 40
4.0
 50
1.4325437375665051
 51
90.0
  0
LINE
  5
4454
  8
241
  6
CONTINUOUS
 10
93.300000000000026
 20
3.900000000000019
 30
0.0
 11
102.3
 21
3.9000000000000181
 31
0.0
  0
LINE
  5
4455
  8
241
  6
CONTINUOUS
 10
93.300000000000026
 20
4.400000000000019
 30
0.0
 11
102.3
 21
4.4000000000000181
 31
0.0
  0
LINE
  5
4456
  8
240
  6
CONTINUOUS
 10
68.0
 20
49.750000000000021
 30
0.0
 11
71.0
 21
49.749999999999972
 31
0.0
  0
ARC
  5
4457
  8
240
  6
CONTINUOUS
 10
68.0
 20
47.750000000000021
 30
0.0
 40
2.0
 50
90.0
 51
180.0
  0
LINE
  5
4458
  8
240
  6
CONTINUOUS
 10
63.0
 20
42.500000000000007
 30
0.0
 11
65.0
 21
42.500000000000007
 31
0.0
  0
LINE
  5
4459
  8
241
  6
CONTINUOUS
 10
65.0
 20
-42.500000000000007
 30
0.0
 11
65.0
 21
42.500000000000007
 31
0.0
  0
LINE
  5
445A
  8
250
  6
CONTINUOUS
 10
88.499999999999957
 20
-49.400000000000041
 30
0.0
 11
154.0
 21
-49.400000000000041
 31
0.0
  0
LINE
  5
445B
  8
250
  6
CONTINUOUS
 10
88.499999999999957
 20
49.599999999999959
 30
0.0
 11
154.0
 21
49.599999999999959
 31
0.0
  0
LINE
  5
445C
  8
250
  6
CONTINUOUS
 10
153.0
 20
-47.170000000000037
 30
0.0
 11
153.0
 21
47.369999999999962
 31
0.0
  0
LINE
  5
445D
  8
250
  6
CONTINUOUS
 10
153.3716666666667
 20
-47.170000000000037
 30
0.0
 11
153.0
 21
-49.400000000000041
 31
0.0
  0
LINE
  5
445E
  8
250
  6
CONTINUOUS
 10
152.62833333333319
 20
-47.170000000000037
 30
0.0
 11
153.0
 21
-49.400000000000041
 31
0.0
  0
LINE
  5
445F
  8
250
  6
CONTINUOUS
 10
153.0
 20
-49.400000000000041
 30
0.0
 11
153.0
 21
-47.170000000000037
 31
0.0
  0
LINE
  5
4460
  8
250
  6
CONTINUOUS
 10
152.62833333333319
 20
47.369999999999962
 30
0.0
 11
153.0
 21
49.599999999999959
 31
0.0
  0
LINE
  5
4461
  8
250
  6
CONTINUOUS
 10
153.3716666666667
 20
47.369999999999962
 30
0.0
 11
153.0
 21
49.599999999999959
 31
0.0
  0
LINE
  5
4462
  8
250
  6
CONTINUOUS
 10
153.0
 20
49.599999999999959
 30
0.0
 11
153.0
 21
47.369999999999962
 31
0.0
  0
TEXT
  5
4463
  8
250
  6
CONTINUOUS
 10
152.0
 20
-3.7666666666667048
 30
0.0
 40
2.799999999999998
  1
\U+22053.90
 50
90.0
1001
ACAD
1000
MTEXTBEGIN
1070
    73
1070
     1
1070
    44
1040
1.0
1070
    74
1070
     0
1000
MTEXTEND
1000
MTEXTBEGIN
1070
    73
1070
     1
1070
    44
1040
1.0
1070
    74
1070
     0
1000
MTEXTEND
1000
MTEXTBEGIN
1070
    73
1070
     1
1070
    44
1040
1.0
1070
    74
1070
     0
1000
MTEXTEND
  0
LINE
  5
44ED
  8
245
  6
CENTER2
 10
-63.0
 20
0.0
 30
0.0
 11
133.0
 21
0.0
 31
0.0
  0
LINE
  5
44EE
  8
241
  6
CONTINUOUS
 10
63.0
 20
42.500000000000007
 30
0.0
 11
63.0
 21
-42.500000000000007
 31
0.0
  0
LINE
  5
44EF
  8
241
  6
CONTINUOUS
 10
45.000000000000099
 20
-48.000000000000092
 30
0.0
 11
45.0
 21
48.00000000000022
 31
0.0
  0
LINE
  5
459F
  8
243
  6
HIDDEN2
 10
128.99999999999949
 20
19.049999999999951
 30
0.0
 11
38.952412111696852
 21
19.049999999999901
 31
0.0
  0
LINE
  5
45B9
  8
243
  6
HIDDEN2
 10
128.99999999999949
 20
-19.049999999999951
 30
0.0
 11
38.952412111696852
 21
-19.049999999999901
 31
0.0
  0
TEXT
  5
45FA
  8
250
  6
CONTINUOUS
 10
131.74927117593469
 20
23.613517841677609
 30
0.0
 40
2.799999999999998
  1
Coolant
  7
YOKO
 11
131.74927117593469
 21
23.613517841677609
 31
0.0
 73
     1
  0
LINE
  5
45FB
  8
250
  6
CONTINUOUS
 10
145.27856228415439
 20
22.37166666666673
 30
0.0
 11
147.50856228415441
 21
22.00000000000006
 31
0.0
  0
LINE
  5
45FC
  8
250
  6
CONTINUOUS
 10
145.27856228415439
 20
21.628333333333391
 30
0.0
 11
147.50856228415441
 21
22.00000000000006
 31
0.0
  0
LINE
  5
45FD
  8
250
  6
CONTINUOUS
 10
147.50856228415441
 20
22.00000000000006
 30
0.0
 11
145.27856228415439
 21
22.00000000000006
 31
0.0
  0
LINE
  5
45FE
  8
250
  6
CONTINUOUS
 10
145.27856228415439
 20
22.00000000000006
 30
0.0
 11
131.99999999999869
 21
22.00000000000006
 31
0.0
  0
LINE
  5
45FF
  8
250
  6
CONTINUOUS
 10
145.27856228415479
 20
-21.62833333333333
 30
0.0
 11
147.50856228415481
 21
-22.0
 31
0.0
  0
LINE
  5
4600
  8
250
  6
CONTINUOUS
 10
145.27856228415479
 20
-22.37166666666667
 30
0.0
 11
147.50856228415481
 21
-22.0
 31
0.0
  0
LINE
  5
4601
  8
250
  6
CONTINUOUS
 10
147.50856228415481
 20
-22.0
 30
0.0
 11
145.27856228415479
 21
-22.0
 31
0.0
  0
LINE
  5
4602
  8
250
  6
CONTINUOUS
 10
145.27856228415479
 20
-22.0
 30
0.0
 11
131.99999999999909
 21
-22.0
 31
0.0
  0
TEXT
  5
4603
  8
250
  6
CONTINUOUS
 10
131.5869008417917
 20
-26.815545675999381
 30
0.0
 40
2.799999999999998
  1
Coolant
  7
YOKO
 11
131.5869008417917
 21
-26.815545675999381
 31
0.0
 73
     1
  0
LINE
  5
4605
  8
250
  6
CONTINUOUS
 10
128.9999999999994
 20
40.79920992593847
 30
0.0
 11
128.9999999999994
 21
71.0
 31
0.0
  0
LINE
  5
4606
  8
250
  6
CONTINUOUS
 10
37.00000000000005
 20
19.24999999999525
 30
0.0
 11
37.00000000000005
 21
71.0
 31
0.0
  0
LINE
  5
4607
  8
250
  6
CONTINUOUS
 10
126.7699999999994
 20
70.0
 30
0.0
 11
39.230000000000047
 21
70.0
 31
0.0
  0
LINE
  5
460C
  8
250
  6
CONTINUOUS
 10
-0.0000000000000787
 20
63.000000000000242
 30
0.0
 11
-0.0000000000000778
 21
78.0
 31
0.0
  0
LINE
  5
460D
  8
250
  6
CONTINUOUS
 10
129.0
 20
40.99920992593831
 30
0.0
 11
129.0
 21
78.0
 31
0.0
  0
LINE
  5
460E
  8
250
  6
CONTINUOUS
 10
2.2299999999999209
 20
77.0
 30
0.0
 11
126.7699999999999
 21
77.0
 31
0.0
  0
LINE
  5
4612
  8
250
  6
CONTINUOUS
 10
129.4999999999998
 20
19.049999999999951
 30
0.0
 11
148.0
 21
19.049999999999951
 31
0.0
  0
LINE
  5
4613
  8
250
  6
CONTINUOUS
 10
129.49999999999949
 20
-19.049999999999951
 30
0.0
 11
148.0
 21
-19.049999999999951
 31
0.0
  0
LINE
  5
4614
  8
250
  6
CONTINUOUS
 10
147.0
 20
16.819999999999951
 30
0.0
 11
147.0
 21
-16.819999999999961
 31
0.0
  0
TEXT
  5
4618
  8
250
  6
CONTINUOUS
 10
73.666666666666373
 20
72.199999999999974
 30
0.0
 40
2.799999999999998
  1
(MAX.3.62)
  0
LINE
  5
4619
  8
250
  6
CONTINUOUS
 10
39.230000000000047
 20
69.62833333333333
 30
0.0
 11
37.00000000000005
 21
70.0
 31
0.0
  0
LINE
  5
461A
  8
250
  6
CONTINUOUS
 10
39.230000000000047
 20
70.37166666666667
 30
0.0
 11
37.00000000000005
 21
70.0
 31
0.0
  0
LINE
  5
461B
  8
250
  6
CONTINUOUS
 10
37.00000000000005
 20
70.0
 30
0.0
 11
39.230000000000047
 21
70.0
 31
0.0
  0
LINE
  5
461C
  8
250
  6
CONTINUOUS
 10
126.7699999999994
 20
70.37166666666667
 30
0.0
 11
128.9999999999994
 21
70.0
 31
0.0
  0
LINE
  5
461D
  8
250
  6
CONTINUOUS
 10
126.7699999999994
 20
69.62833333333333
 30
0.0
 11
128.9999999999994
 21
70.0
 31
0.0
  0
LINE
  5
461E
  8
250
  6
CONTINUOUS
 10
128.9999999999994
 20
70.0
 30
0.0
 11
126.7699999999994
 21
70.0
 31
0.0
  0
TEXT
  5
461F
  8
250
  6
CONTINUOUS
 10
60.36666666666661
 20
78.000000000000014
 30
0.0
 40
2.799999999999998
  1
5.08
  0
LINE
  5
4620
  8
250
  6
CONTINUOUS
 10
126.7699999999999
 20
77.371666666666655
 30
0.0
 11
129.0
 21
77.0
 31
0.0
  0
LINE
  5
4621
  8
250
  6
CONTINUOUS
 10
126.7699999999999
 20
76.62833333333333
 30
0.0
 11
129.0
 21
77.0
 31
0.0
  0
LINE
  5
4622
  8
250
  6
CONTINUOUS
 10
129.0
 20
77.0
 30
0.0
 11
126.7699999999999
 21
77.0
 31
0.0
  0
LINE
  5
4623
  8
250
  6
CONTINUOUS
 10
2.2299999999999209
 20
76.62833333333333
 30
0.0
 11
-0.0000000000000778
 21
77.0
 31
0.0
  0
LINE
  5
4624
  8
250
  6
CONTINUOUS
 10
2.2299999999999209
 20
77.371666666666655
 30
0.0
 11
-0.0000000000000778
 21
77.0
 31
0.0
  0
LINE
  5
4625
  8
250
  6
CONTINUOUS
 10
-0.0000000000000778
 20
77.0
 30
0.0
 11
2.2299999999999209
 21
77.0
 31
0.0
  0
TEXT
  5
4626
  8
250
  6
CONTINUOUS
 10
146.0
 20
-5.5333333333333119
 30
0.0
 40
2.799999999999998
  1
\U+22051.500
 50
90.0
  0
LINE
  5
4627
  8
250
  6
CONTINUOUS
 10
147.3716666666667
 20
-16.819999999999961
 30
0.0
 11
147.0
 21
-19.049999999999951
 31
0.0
  0
LINE
  5
4628
  8
250
  6
CONTINUOUS
 10
146.6283333333333
 20
-16.819999999999961
 30
0.0
 11
147.0
 21
-19.049999999999951
 31
0.0
  0
LINE
  5
4629
  8
250
  6
CONTINUOUS
 10
147.0
 20
-19.049999999999951
 30
0.0
 11
147.0
 21
-16.819999999999961
 31
0.0
  0
LINE
  5
462A
  8
250
  6
CONTINUOUS
 10
146.6283333333333
 20
16.819999999999951
 30
0.0
 11
147.0
 21
19.049999999999951
 31
0.0
  0
LINE
  5
462B
  8
250
  6
CONTINUOUS
 10
147.3716666666667
 20
16.819999999999951
 30
0.0
 11
147.0
 21
19.049999999999951
 31
0.0
  0
LINE
  5
462C
  8
250
  6
CONTINUOUS
 10
147.0
 20
19.049999999999951
 30
0.0
 11
147.0
 21
16.819999999999951
 31
0.0
  0
VIEWPORT
  5
22
 67
     1
  8
0
 10
261.51769911504419
 20
148.5
 30
0.0
 40
523.0353982300885
 41
297.0
 68
     1
 69
     1
1001
ACAD
1000
MVIEW
1002
{
1070
    16
1010
0.0
1020
0.0
1030
0.0
1010
0.0
1020
0.0
1030
1.0
1040
0.0
1040
297.0
1040
261.51769911504419
1040
148.5
1040
50.0
1040
0.0
1040
0.0
1070
     0
1070
   100
1070
     1
1070
     1
1070
     0
1070
     0
1070
     0
1070
     0
1040
0.0
1040
0.0
1040
0.0
1040
1.0
1040
1.0
1040
10.0
1040
10.0
1070
     0
1002
{
1002
}
1002
}
1001
GENIUS_GENODEF_13
1002
{
1000
HIER
1070
     0
1002
}
1002
{
1000
MANEDIT
1070
     0
1002
}
1002
{
1000
NOSEL
1070
     0
1002
}
1002
{
1000
BEHIND
1070
     0
1002
}
1002
{
1000
OTHER
1070
     0
1002
}
1002
{
1000
REACTOR
1002
}
1001
GENIUS_GENOBJ-N-SDF_13
1002
{
1000
OWNER
1000
GEN
1002
}
1001
GENIUS_GENSCREG_15
1000
PF
1040
1.0
1000
DF
1040
1.0
1000
MIN
1011
0.0
1021
0.0
1031
0.0
1021
0.0
1031
0.0
1000
MAX
1011
523.0353982300885
1021
0.0
1031
0.0
1021
297.0
1031
0.0
1000
FLAGS
1070
     4
  0
ENDSEC
  0
EOF
