  0
SECTION
  2
HEADER
  9
$ACADVER
  1
AC1009
  9
$INSBASE
 10
0.0
 20
0.0
 30
0.0
  9
$EXTMIN
 10
-71.04761904761871
 20
-62.500000000001592
 30
0.0
  9
$EXTMAX
 10
155.0
 20
96.000000000000014
 30
0.0
  9
$LIMMIN
 10
0.0
 20
0.0
  9
$LIMMAX
 10
297.0
 20
210.0
  9
$ORTHOMODE
 70
     0
  9
$REGENMODE
 70
     1
  9
$FILLMODE
 70
     1
  9
$QTEXTMODE
 70
     0
  9
$MIRRTEXT
 70
     1
  9
$DRAGMODE
 70
     2
  9
$LTSCALE
 40
10.0
  9
$OSMODE
 70
    37
  9
$ATTMODE
 70
     1
  9
$TEXTSIZE
 40
3.0
  9
$TRACEWID
 40
1.0
  9
$TEXTSTYLE
  7
YOKO
  9
$CLAYER
  8
240
  9
$CELTYPE
  6
BYLAYER
  9
$CECOLOR
 62
   256
  9
$DIMSCALE
 40
1.0
  9
$DIMASZ
 40
2.2299999999999991
  9
$DIMEXO
 40
0.5
  9
$DIMDLI
 40
7.0
  9
$DIMRND
 40
0.0
  9
$DIMDLE
 40
0.0
  9
$DIMEXE
 40
1.0
  9
$DIMTP
 40
0.0
  9
$DIMTM
 40
0.01
  9
$DIMTXT
 40
2.799999999999998
  9
$DIMCEN
 40
0.0
  9
$DIMTSZ
 40
0.0
  9
$DIMTOL
 70
     0
  9
$DIMLIM
 70
     0
  9
$DIMTIH
 70
     0
  9
$DIMTOH
 70
     0
  9
$DIMSE1
 70
     0
  9
$DIMSE2
 70
     0
  9
$DIMTAD
 70
     3
  9
$DIMZIN
 70
     9
  9
$DIMBLK
  1
OPEN
  9
$DIMASO
 70
     1
  9
$DIMSHO
 70
     1
  9
$DIMPOST
  1

  9
$DIMAPOST
  1

  9
$DIMALT
 70
     0
  9
$DIMALTD
 70
     2
  9
$DIMALTF
 40
25.399999999999999
  9
$DIMLFAC
 40
1.0
  9
$DIMTOFL
 70
     1
  9
$DIMTVP
 40
0.0
  9
$DIMTIX
 70
     1
  9
$DIMSOXD
 70
     0
  9
$DIMSAH
 70
     0
  9
$DIMBLK1
  1

  9
$DIMBLK2
  1

  9
$DIMSTYLE
  2
BIGT
  9
$DIMCLRD
 70
   256
  9
$DIMCLRE
 70
   256
  9
$DIMCLRT
 70
    40
  9
$DIMTFAC
 40
1.0
  9
$DIMGAP
 40
1.0
  9
$LUNITS
 70
     2
  9
$LUPREC
 70
     6
  9
$SKETCHINC
 40
1.0
  9
$FILLETRAD
 40
0.0
  9
$AUNITS
 70
     0
  9
$AUPREC
 70
     6
  9
$MENU
  1
.
  9
$ELEVATION
 40
0.0
  9
$PELEVATION
 40
0.0
  9
$THICKNESS
 40
0.0
  9
$LIMCHECK
 70
     0
  9
$BLIPMODE
 70
     0
  9
$CHAMFERA
 40
0.2
  9
$CHAMFERB
 40
0.2
  9
$SKPOLY
 70
     0
  9
$TDCREATE
 40
2457939.6755167828
  9
$TDUPDATE
 40
2458142.4879222568
  9
$TDINDWG
 40
0.0264255324
  9
$TDUSRTIMER
 40
0.0264254514
  9
$USRTIMER
 70
     1
  9
$ANGBASE
 50
0.0
  9
$ANGDIR
 70
     0
  9
$PDMODE
 70
     1
  9
$PDSIZE
 40
0.0
  9
$PLINEWID
 40
0.0
  9
$COORDS
 70
     1
  9
$SPLFRAME
 70
     0
  9
$SPLINETYPE
 70
     6
  9
$SPLINESEGS
 70
     4
  9
$ATTDIA
 70
     1
  9
$ATTREQ
 70
     1
  9
$HANDLING
 70
     1
  9
$HANDSEED
  5
4FC2
  9
$SURFTAB1
 70
     6
  9
$SURFTAB2
 70
     6
  9
$SURFTYPE
 70
     6
  9
$SURFU
 70
     6
  9
$SURFV
 70
     6
  9
$UCSNAME
  2

  9
$UCSORG
 10
0.0
 20
0.0
 30
0.0
  9
$UCSXDIR
 10
1.0
 20
0.0
 30
0.0
  9
$UCSYDIR
 10
0.0
 20
1.0
 30
0.0
  9
$PUCSNAME
  2

  9
$PUCSORG
 10
0.0
 20
0.0
 30
0.0
  9
$PUCSXDIR
 10
1.0
 20
0.0
 30
0.0
  9
$PUCSYDIR
 10
0.0
 20
1.0
 30
0.0
  9
$USERI1
 70
     1
  9
$USERI2
 70
     0
  9
$USERI3
 70
     0
  9
$USERI4
 70
     0
  9
$USERI5
 70
     0
  9
$USERR1
 40
0.0
  9
$USERR2
 40
0.0
  9
$USERR3
 40
0.0
  9
$USERR4
 40
0.0
  9
$USERR5
 40
0.0
  9
$WORLDVIEW
 70
     1
  9
$SHADEDGE
 70
     3
  9
$SHADEDIF
 70
    70
  9
$TILEMODE
 70
     1
  9
$MAXACTVP
 70
    16
  9
$PLIMCHECK
 70
     0
  9
$PEXTMIN
 10
1.0000000000000000E+020
 20
1.0000000000000000E+020
 30
1.0000000000000000E+020
  9
$PEXTMAX
 10
-1.0000000000000000E+020
 20
-1.0000000000000000E+020
 30
-1.0000000000000000E+020
  9
$PLIMMIN
 10
0.0
 20
0.0
  9
$PLIMMAX
 10
420.0
 20
297.0
  9
$UNITMODE
 70
     0
  9
$VISRETAIN
 70
     1
  9
$PLINEGEN
 70
     0
  9
$PSLTSCALE
 70
     1
  0
ENDSEC
  0
SECTION
  2
TABLES
  0
TABLE
  2
VPORT
 70
     1
  0
VPORT
  2
*ACTIVE
 70
     0
 10
0.0
 20
0.0
 11
1.0
 21
1.0
 12
55.797408677461021
 22
11.21451218625719
 13
0.0
 23
0.0
 14
7.0
 24
7.0
 15
7.0
 25
7.0
 16
0.0
 26
0.0
 36
1.0
 17
0.0
 27
0.0
 37
0.0
 40
259.25461414031361
 41
1.4533622559652919
 42
50.0
 43
0.0
 44
0.0
 50
0.0
 51
0.0
 71
     0
 72
  2000
 73
     1
 74
     0
 75
     0
 76
     1
 77
     0
 78
     0
  0
ENDTAB
  0
TABLE
  2
LTYPE
 70
    17
  0
LTYPE
  2
CONTINUOUS
 70
     0
  3
Solid line
 72
    65
 73
     0
 40
0.0
  0
LTYPE
  2
CENTER2
 70
     0
  3
___ _ ___ _ ___ _ ___ _ ___ _ ___ _ ___ _ ___ _
 72
    65
 73
     4
 40
1.125
 49
0.75
 49
-0.125
 49
0.125
 49
-0.125
  0
LTYPE
  2
HIDDEN2
 70
     0
  3
_ _ _ _ _ _ _ _ _ _ _ _ _ _ _ _ _ _ _ _ _ _ _ _
 72
    65
 73
     2
 40
0.1875
 49
0.125
 49
-0.0625
  0
LTYPE
  2
AMCONSTR
 70
     0
  3
_______________________
 72
    65
 73
     2
 40
9999.0
 49
9999.0
 49
0.0
  0
LTYPE
  2
HIDDEN
 70
     0
  3
Hidden __ __ __ __ __ __ __ __ __ __ __ __ __ _
 72
    65
 73
     2
 40
0.375
 49
0.25
 49
-0.125
  0
LTYPE
  2
PHANTOM2
 70
     0
  3
Phantom (.5x) ___ _ _ ___ _ _ ___ _ _ ___ _ _
 72
    65
 73
     6
 40
1.25
 49
0.625
 49
-0.125
 49
0.125
 49
-0.125
 49
0.125
 49
-0.125
  0
LTYPE
  2
CENTER
 70
     0
  3
Center ____ _ ____ _ ____ _ ____ _ ____ _ ____
 72
    65
 73
     4
 40
2.0
 49
1.25
 49
-0.25
 49
0.25
 49
-0.25
  0
LTYPE
  2
AMZIGZAG2
 70
     0
  3
/\/-/\/-/\/-/\/-/\/-/\/
 72
    65
 73
     2
 40
0.4401
 49
0.0001
 49
-0.4400000000000003
  0
LTYPE
  2
ACANSTGB
 70
     0
  3
__ . . __ . .
 72
    65
 73
     6
 40
0.35433070866
 49
0.15748031496
 49
-0.03937007874
 49
0.03937007874
 49
-0.03937007874
 49
0.03937007874
 49
-0.03937007874
  0
LTYPE
  2
ACANSTGL
 70
     0
  3
_ _ _ _ _
 72
    65
 73
     2
 40
0.11811023622
 49
0.07874015748
 49
-0.03937007874
  0
ENDTAB
  0
TABLE
  2
LAYER
 70
     8
  0
LAYER
  2
0
 70
     0
 62
     7
  6
CONTINUOUS
  0
LAYER
  2
245
 70
     0
 62
     2
  6
CENTER2
  0
LAYER
  2
243
 70
     0
 62
   211
  6
HIDDEN2
  0
LAYER
  2
DEFPOINTS
 70
     0
 62
     7
  6
CONTINUOUS
  0
LAYER
  2
240
 70
     0
 62
     4
  6
CONTINUOUS
  0
LAYER
  2
241
 70
     0
 62
   211
  6
CONTINUOUS
  0
LAYER
  2
247
 70
     0
 62
    60
  6
CONTINUOUS
  0
LAYER
  2
250
 70
     0
 62
     3
  6
CONTINUOUS
  0
ENDTAB
  0
TABLE
  2
STYLE
 70
     6
  0
STYLE
  2
STANDARD
 70
     0
 40
0.0
 41
1.0
 50
0.0
 71
     0
 42
3.0
  3
romans.shx
  4
extfont.shx
  0
STYLE
  2
YOKO
 70
     0
 40
0.0
 41
1.0
 50
0.0
 71
     0
 42
3.0
  3
romans.shx
  4
extfont.shx
  0
STYLE
  2
ACANSGDT
 70
     0
 40
0.0
 41
1.0
 50
0.0
 71
     0
 42
3.0
  3
amgdt.shx
  4

  0
ENDTAB
  0
TABLE
  2
VIEW
 70
     0
  0
ENDTAB
  0
TABLE
  2
UCS
 70
     0
  0
ENDTAB
  0
TABLE
  2
APPID
 70
    44
  0
APPID
  2
ACAD
 70
     0
  0
APPID
  2
ACADANNOTATIVE
 70
     0
  0
APPID
  2
GLOBAL
 70
     0
  0
APPID
  2
DETAIL
 70
     0
  0
APPID
  2
GRPNAME
 70
     0
  0
APPID
  2
GPARA
 70
     0
  0
APPID
  2
MCAD_NO_VIS
 70
     0
  0
APPID
  2
ACAD_TEMP_GRAPHIC
 70
     0
  0
APPID
  2
ACATTRIBSERVICES
 70
     0
  0
APPID
  2
GENIUS_GENSCREG_15
 70
     0
  0
APPID
  2
GENIUS_GENODEF_13
 70
     0
  0
APPID
  2
GENIUS_GENOBJ-N-SDF_13
 70
     0
  0
APPID
  2
GENIUS_GENREC_14
 70
     0
  0
APPID
  2
GENIUS_GENOBJ-N-REC_13
 70
     0
  0
APPID
  2
GENIUS_GENDIMSH_14
 70
     0
  0
APPID
  2
GENIUS_GENOBJ-N-DIM_13
 70
     0
  0
APPID
  2
GENIUS_GENDIM_13
 70
     0
  0
APPID
  2
GENIUS_GENDTOL_13
 70
     0
  0
APPID
  2
GENIUS_GENOLIS_13
 70
     0
  0
APPID
  2
GENIUS_GENOENT_13
 70
     0
  0
APPID
  2
GENIUS_GENOBJ-F-FEM_13
 70
     0
  0
APPID
  2
GENIUS_GENOREF_13
 70
     0
  0
APPID
  2
GENIUS_GEFFEM_13
 70
     0
  0
APPID
  2
GENIUS_GEFFEMP_13
 70
     0
  0
APPID
  2
AD_DRAW
 70
     0
  0
APPID
  2
DESIGNERASSEMBLIES
 70
     0
  0
APPID
  2
ACADM_DIM_EDIT
 70
     0
  0
APPID
  2
AMDT_DM_ADJ
 70
     0
  0
APPID
  2
ITEMNAME
 70
     0
  0
APPID
  2
GENIUS_GENOBJ-N-FIL_13
 70
     0
  0
APPID
  2
GENIUS_GENFIL_13
 70
     0
  0
APPID
  2
GENIUS_GENOBJ-N-CHA_13
 70
     0
  0
APPID
  2
ACAECLAYERSTANDARD
 70
     0
  0
APPID
  2
ACAD_NAV_VCDISPLAY
 70
     0
  0
APPID
  2
ACAD_DSTYLE_DIMJAG
 70
     0
  0
APPID
  2
ACAD_DSTYLE_DIMBREAK
 70
     0
  0
APPID
  2
ACAD_PSEXT
 70
     0
  0
APPID
  2
ACAD_DSTYLE_DIMINSPECT
 70
     0
  0
APPID
  2
ACAD_EXEMPT_FROM_CAD_STANDARDS
 70
     0
  0
APPID
  2
ACAD_MLEADERVER
 70
     0
  0
APPID
  2
ACAD_DSTYLE_DIMARC_LENGTH_
 70
     0
  0
APPID
  2
ACAD_DSTYLE_DIM_LINETYPE
 70
     0
  0
APPID
  2
ACAD_DSTYLE_DIM_EXT1_LINETYPE
 70
     0
  0
APPID
  2
ACAD_DSTYLE_DIM_EXT2_LINETYPE
 70
     0
  0
ENDTAB
  0
TABLE
  2
DIMSTYLE
 70
     9
  0
DIMSTYLE
  2
STANDARD
 70
     0
  3

  4

  5

  6

  7

 40
1.0
 41
0.18
 42
0.0625
 43
0.38
 44
0.18
 45
0.0
 46
0.0
 47
0.0
 48
0.0
140
0.18
141
0.09
142
0.0
143
25.399999999999999
144
1.0
145
0.0
146
1.0
147
0.09
 71
     0
 72
     0
 73
     1
 74
     1
 75
     0
 76
     0
 77
     0
 78
     0
170
     0
171
     2
172
     0
173
     0
174
     0
175
     0
176
     0
177
     0
178
     0
  0
DIMSTYLE
  2
BIGT
 70
     0
  3

  4

  5

  6

  7

 40
1.0
 41
2.2299999999999991
 42
0.5
 43
7.0
 44
1.0
 45
0.0
 46
0.0
 47
0.0
 48
0.01
140
2.799999999999998
141
0.0
142
0.0
143
25.399999999999999
144
1.0
145
0.0
146
1.0
147
1.0
 71
     0
 72
     0
 73
     0
 74
     0
 75
     0
 76
     0
 77
     3
 78
     9
170
     0
171
     2
172
     1
173
     0
174
     1
175
     0
176
   256
177
   256
178
    40
  0
DIMSTYLE
  2
AM_ANSI
 70
     0
  3

  4
mm
  5

  6

  7

 40
1.0
 41
0.12
 42
0.05
 43
0.5
 44
0.1
 45
0.0
 46
0.0
 47
0.1
 48
0.1
140
0.12
141
0.0
142
0.0
143
25.399999999999999
144
1.0
145
0.0
146
0.71
147
0.06
 71
     0
 72
     0
 73
     1
 74
     1
 75
     0
 76
     0
 77
     0
 78
     7
170
     0
171
     2
172
     0
173
     0
174
     0
175
     0
176
   256
177
   256
178
     2
  0
DIMSTYLE
  2
AM_ANSI$3
 70
     0
  3

  4
mm
  5

  6

  7

 40
1.0
 41
0.12
 42
0.05
 43
0.5
 44
0.1
 45
0.0
 46
0.0
 47
0.1
 48
0.1
140
0.12
141
0.0
142
0.0
143
25.399999999999999
144
1.0
145
0.0
146
0.71
147
0.06
 71
     0
 72
     0
 73
     1
 74
     1
 75
     0
 76
     0
 77
     0
 78
     7
170
     0
171
     2
172
     0
173
     0
174
     0
175
     0
176
   256
177
   256
178
     2
  0
DIMSTYLE
  2
AM_ANSI$4
 70
     0
  3

  4
mm
  5

  6

  7

 40
1.0
 41
0.12
 42
0.05
 43
0.5
 44
0.1
 45
0.0
 46
0.0
 47
0.1
 48
0.1
140
0.12
141
0.0
142
0.0
143
25.399999999999999
144
1.0
145
0.0
146
0.71
147
0.06
 71
     0
 72
     0
 73
     1
 74
     1
 75
     0
 76
     0
 77
     0
 78
     7
170
     0
171
     2
172
     0
173
     0
174
     0
175
     0
176
   256
177
   256
178
     2
  0
DIMSTYLE
  2
AM_ANSI$7
 70
     0
  3

  4
mm
  5

  6

  7

 40
1.0
 41
0.12
 42
0.05
 43
0.5
 44
0.1
 45
0.0
 46
0.0
 47
0.1
 48
0.1
140
0.12
141
0.0
142
0.0
143
25.399999999999999
144
1.0
145
0.0
146
0.71
147
0.06
 71
     0
 72
     0
 73
     1
 74
     1
 75
     0
 76
     0
 77
     0
 78
     7
170
     0
171
     2
172
     0
173
     0
174
     0
175
     0
176
   256
177
   256
178
     2
  0
DIMSTYLE
  2
AM_ANSI$SF
 70
     0
  3

  4
mm
  5

  6

  7

 40
1.0
 41
0.12
 42
0.05
 43
0.5
 44
0.1
 45
0.0
 46
0.0
 47
0.1
 48
0.1
140
0.12
141
0.0
142
0.0
143
25.399999999999999
144
1.0
145
0.0
146
0.71
147
0.06
 71
     0
 72
     0
 73
     1
 74
     1
 75
     1
 76
     1
 77
     0
 78
     7
170
     0
171
     2
172
     0
173
     0
174
     0
175
     0
176
   256
177
   256
178
     2
  0
DIMSTYLE
  2
AM_ANSI$SH
 70
     0
  3

  4
mm
  5

  6

  7

 40
1.0
 41
0.12
 42
0.05
 43
0.5
 44
0.1
 45
0.0
 46
0.0
 47
0.1
 48
0.1
140
0.12
141
0.0
142
0.0
143
25.399999999999999
144
1.0
145
0.0
146
0.71
147
0.06
 71
     0
 72
     0
 73
     1
 74
     1
 75
     1
 76
     1
 77
     0
 78
     7
170
     0
171
     2
172
     0
173
     1
174
     0
175
     0
176
   256
177
   256
178
     2
  0
ENDTAB
  0
ENDSEC
  0
SECTION
  2
BLOCKS
  0
BLOCK
  8
0
  2
$MODEL_SPACE
 70
     0
 10
0.0
 20
0.0
 30
0.0
  3
$MODEL_SPACE
  1

  0
ENDBLK
  5
4EA5
  8
0
  0
BLOCK
 67
     1
  8
0
  2
$PAPER_SPACE
 70
     0
 10
0.0
 20
0.0
 30
0.0
  3
$PAPER_SPACE
  1

  0
ENDBLK
  5
4EA1
 67
     1
  8
0
  0
BLOCK
  8
0
  2
_OPEN
 70
     0
 10
0.0
 20
0.0
 30
0.0
  3
_OPEN
  1

  0
LINE
  5
3E1A
  8
0
  6
BYBLOCK
 62
     0
 10
-1.0
 20
0.1666666666666666
 30
0.0
 11
0.0
 21
0.0
 31
0.0
  0
LINE
  5
3E1B
  8
0
  6
BYBLOCK
 62
     0
 10
-1.0
 20
-0.1666666666666666
 30
0.0
 11
0.0
 21
0.0
 31
0.0
  0
LINE
  5
3E1C
  8
0
  6
BYBLOCK
 62
     0
 10
0.0
 20
0.0
 30
0.0
 11
-1.0
 21
0.0
 31
0.0
  0
ENDBLK
  5
3E1D
  8
0
  0
BLOCK
  8
0
  2
_ACMFILLEDHALF
 70
     0
 10
0.0
 20
0.0
 30
0.0
  3
_ACMFILLEDHALF
  1

  0
TRACE
  5
4894
  8
243
 62
     0
 10
-0.8
 20
0.0
 30
0.0
 11
-1.0
 21
0.166666666
 31
0.0
 12
0.0
 22
0.0
 32
0.0
 13
0.0
 23
0.0
 33
0.0
  0
LINE
  5
4895
  8
243
 62
     0
 10
-1.0
 20
0.0
 30
0.0
 11
-0.8
 21
0.0
 31
0.0
  0
ENDBLK
  5
4893
  8
0
  0
ENDSEC
  0
SECTION
  2
ENTITIES
  0
LINE
  5
42C8
  8
250
  6
CONTINUOUS
 10
-39.201356766065402
 20
-60.283382249222122
 30
0.0
 11
-66.134690099398711
 21
-60.283382249222122
 31
0.0
1001
ITEMNAME
1000
LNSP2
  0
LINE
  5
42C9
  8
240
  6
CONTINUOUS
 10
0.0
 20
-62.500000000000313
 30
0.0
 11
0.0
 21
-48.134252505009677
 31
0.0
  0
LINE
  5
42CA
  8
240
  6
CONTINUOUS
 10
-0.0000000000000995
 20
62.500000000000277
 30
0.0
 11
16.752404735808302
 21
62.500000000000071
 31
0.0
  0
LINE
  5
42CB
  8
241
  6
CONTINUOUS
 10
21.87500000000021
 20
-58.499999999999687
 30
0.0
 11
21.87499999999979
 21
-43.150898020782591
 31
0.0
  0
LINE
  5
42CC
  8
240
  6
CONTINUOUS
 10
23.247595264191599
 20
62.5
 30
0.0
 11
29.0
 21
62.5
 31
0.0
  0
LINE
  5
42CD
  8
240
  6
CONTINUOUS
 10
0.0
 20
-62.500000000000313
 30
0.0
 11
16.752404735808302
 21
-62.5
 31
0.0
  0
LINE
  5
42CE
  8
240
  6
CONTINUOUS
 10
23.247595264191599
 20
-62.5
 30
0.0
 11
21.875000000000789
 21
-60.122595264193897
 31
0.0
  0
LINE
  5
42CF
  8
240
  6
CONTINUOUS
 10
18.124999999999901
 20
-60.122595264191283
 30
0.0
 11
16.752404735808302
 21
-62.5
 31
0.0
  0
LINE
  5
42D0
  8
240
  6
CONTINUOUS
 10
21.87500000000021
 20
-58.499999999999687
 30
0.0
 11
18.125000000001599
 21
-58.5
 31
0.0
  0
LINE
  5
42D1
  8
240
  6
CONTINUOUS
 10
23.247595264191599
 20
-62.5
 30
0.0
 11
29.000000000000139
 21
-62.499999999999893
 31
0.0
  0
LINE
  5
42D2
  8
240
  6
CONTINUOUS
 10
-62.999999999999851
 20
-44.977939879758978
 30
0.0
 11
-62.99999999999995
 21
-12.509999999999931
 31
0.0
  0
LINE
  5
42D3
  8
240
  6
CONTINUOUS
 10
0.0000000000007105
 20
48.134252505009783
 30
0.0
 11
-62.999999999999851
 21
44.977939879759127
 31
0.0
  0
LINE
  5
42D4
  8
240
  6
CONTINUOUS
 10
-62.999999999999851
 20
12.510000000000041
 30
0.0
 11
-53.49999999999995
 21
12.510000000000041
 31
0.0
  0
ARC
  5
42D5
  8
240
  6
CONTINUOUS
 10
-53.49999999999995
 20
-10.0099999999999
 30
0.0
 40
2.5
 50
270.0
 51
0.0
  0
ARC
  5
42D6
  8
243
  6
HIDDEN2
 10
-46.499999999999858
 20
-10.009999999999931
 30
0.0
 40
2.5
 50
270.0
 51
0.0
  0
LINE
  5
42D7
  8
240
  6
CONTINUOUS
 10
-50.99999999999995
 20
-10.0099999999999
 30
0.0
 11
-51.000000000000021
 21
10.010000000000071
 31
0.0
  0
LINE
  5
42D8
  8
240
  6
CONTINUOUS
 10
-62.999999999999851
 20
12.510000000000041
 30
0.0
 11
-62.999999999999851
 21
44.977939879759127
 31
0.0
  0
LINE
  5
42D9
  8
243
  6
HIDDEN2
 10
-43.999999999999851
 20
-10.0099999999999
 30
0.0
 11
-44.000000000001023
 21
10.010000000000071
 31
0.0
  0
LINE
  5
42DA
  8
240
  6
CONTINUOUS
 10
-62.99999999999995
 20
-12.509999999999931
 30
0.0
 11
-53.49999999999995
 21
-12.509999999999931
 31
0.0
  0
LINE
  5
42DB
  8
243
  6
HIDDEN2
 10
-46.499999999999858
 20
-12.509999999999931
 30
0.0
 11
-53.499999999999858
 21
-12.51000000000006
 31
0.0
  0
LINE
  5
42DC
  8
240
  6
CONTINUOUS
 10
0.0000000000007105
 20
48.134252505009783
 30
0.0
 11
-0.0000000000000995
 21
62.500000000000277
 31
0.0
  0
LINE
  5
42DD
  8
240
  6
CONTINUOUS
 10
29.0
 20
62.5
 30
0.0
 11
29.000000000000139
 21
52.500000000000362
 31
0.0
  0
LINE
  5
42DE
  8
240
  6
CONTINUOUS
 10
0.0
 20
-48.134252505009677
 30
0.0
 11
-62.999999999999851
 21
-44.977939879758978
 31
0.0
  0
LINE
  5
42DF
  8
241
  6
CONTINUOUS
 10
10.000000000000099
 20
-12.499999999999959
 30
0.0
 11
29.000000000000139
 21
-12.50000000000003
 31
0.0
  0
LINE
  5
42E0
  8
241
  6
CONTINUOUS
 10
5.0000000000000977
 20
-7.4999999999999849
 30
0.0
 11
4.9999999999990887
 21
7.5000000000000968
 31
0.0
  0
ARC
  5
42E1
  8
241
  6
CONTINUOUS
 10
10.000000000000099
 20
-7.4999999999999849
 30
0.0
 40
5.0
 50
180.0
 51
270.0
  0
LINE
  5
42E2
  8
241
  6
CONTINUOUS
 10
10.000000000000099
 20
-39.499999999999879
 30
0.0
 11
29.000000000000139
 21
-39.499999999999879
 31
0.0
  0
LINE
  5
42E3
  8
241
  6
CONTINUOUS
 10
5.0
 20
-48.435524153249091
 30
0.0
 11
16.752404735806579
 21
-48.435524153249283
 31
0.0
  0
LINE
  5
42E4
  8
241
  6
CONTINUOUS
 10
5.0
 20
-48.435524153249091
 30
0.0
 11
5.0
 21
-44.499999999999879
 31
0.0
  0
ARC
  5
42E5
  8
241
  6
CONTINUOUS
 10
10.000000000000099
 20
-44.499999999999879
 30
0.0
 40
5.0
 50
90.0
 51
180.0
  0
LINE
  5
42E6
  8
241
  6
CONTINUOUS
 10
21.875
 20
-39.500000000000092
 30
0.0
 11
21.875000000000099
 21
-12.49999999999987
 31
0.0
  0
LINE
  5
42E7
  8
241
  6
CONTINUOUS
 10
18.125000000000089
 20
-39.500000000000092
 30
0.0
 11
18.125000000000089
 21
-12.49999999999981
 31
0.0
  0
LINE
  5
42E8
  8
241
  6
CONTINUOUS
 10
16.752404735808302
 20
-62.500000000001592
 30
0.0
 11
16.752404735808302
 21
-48.435524153249283
 31
0.0
  0
LINE
  5
42E9
  8
241
  6
CONTINUOUS
 10
23.247595264191599
 20
-62.500000000001592
 30
0.0
 11
23.247595264191599
 21
-48.435524153249283
 31
0.0
  0
LINE
  5
42EA
  8
241
  6
CONTINUOUS
 10
23.247595264191599
 20
-39.500000000000092
 30
0.0
 11
23.247595264191599
 21
-12.49999999999987
 31
0.0
  0
LINE
  5
42EB
  8
241
  6
CONTINUOUS
 10
16.752404735808302
 20
-39.500000000000092
 30
0.0
 11
16.752404735808302
 21
-12.49999999999981
 31
0.0
  0
LINE
  5
42EC
  8
241
  6
CONTINUOUS
 10
18.124999999999488
 20
-43.150898020782783
 30
0.0
 11
21.87499999999979
 21
-43.150898020782591
 31
0.0
  0
LINE
  5
42ED
  8
241
  6
CONTINUOUS
 10
16.752404735808302
 20
-48.435524153249283
 30
0.0
 11
18.1249999999994
 21
-45.326332978763567
 31
0.0
  0
LINE
  5
42EE
  8
241
  6
CONTINUOUS
 10
21.87499999999979
 20
-45.326332978763567
 30
0.0
 11
23.247595264191599
 21
-48.435524153249091
 31
0.0
  0
LINE
  5
42EF
  8
241
  6
CONTINUOUS
 10
23.247595264196061
 20
-48.435524153249283
 30
0.0
 11
29.0
 21
-48.435524153249091
 31
0.0
  0
LINE
  5
42F0
  8
240
  6
CONTINUOUS
 10
18.125
 20
-60.122595264191681
 30
0.0
 11
18.125000000001599
 21
-58.5
 31
0.0
  0
LINE
  5
42F1
  8
241
  6
CONTINUOUS
 10
18.125
 20
-58.499999999999879
 30
0.0
 11
18.124999999999488
 21
-43.150898020782783
 31
0.0
  0
LINE
  5
42F2
  8
240
  6
CONTINUOUS
 10
21.875000000000789
 20
-60.122595264193897
 30
0.0
 11
21.874999999998291
 21
-58.5
 31
0.0
  0
LINE
  5
42F3
  8
241
  6
CONTINUOUS
 10
0.0
 20
-48.134252505009677
 30
0.0
 11
0.0
 21
48.134252505009762
 31
0.0
  0
LINE
  5
42F4
  8
240
  6
CONTINUOUS
 10
23.247595264191599
 20
62.500000000000071
 30
0.0
 11
21.875000000000909
 21
60.122595264193983
 31
0.0
  0
LINE
  5
42F5
  8
240
  6
CONTINUOUS
 10
18.125
 20
60.122595264191389
 30
0.0
 11
16.752404735808408
 21
62.500000000000099
 31
0.0
  0
LINE
  5
42F6
  8
240
  6
CONTINUOUS
 10
21.875000000000298
 20
58.499999999999851
 30
0.0
 11
18.12500000000172
 21
58.500000000000078
 31
0.0
  0
LINE
  5
42F7
  8
240
  6
CONTINUOUS
 10
18.125000000000089
 20
60.122595264191837
 30
0.0
 11
18.12500000000172
 21
58.500000000000078
 31
0.0
  0
LINE
  5
42F8
  8
240
  6
CONTINUOUS
 10
21.875000000000909
 20
60.122595264193983
 30
0.0
 11
21.874999999998401
 21
58.500000000000043
 31
0.0
  0
LINE
  5
42F9
  8
241
  6
CONTINUOUS
 10
10.000000000000099
 20
12.500000000000091
 30
0.0
 11
29.000000000000139
 21
12.500000000000121
 31
0.0
  0
ARC
  5
42FA
  8
241
  6
CONTINUOUS
 10
10.000000000000099
 20
7.5000000000000968
 30
0.0
 40
5.0
 50
90.0
 51
180.0
  0
LINE
  5
42FB
  8
241
  6
CONTINUOUS
 10
21.875000000000099
 20
12.499999999999879
 30
0.0
 11
21.87500000000021
 21
58.499999999999851
 31
0.0
  0
LINE
  5
42FC
  8
241
  6
CONTINUOUS
 10
23.247595264191599
 20
12.499999999999879
 30
0.0
 11
23.247595264191801
 21
62.5
 31
0.0
  0
LINE
  5
42FD
  8
241
  6
CONTINUOUS
 10
18.125000000000089
 20
12.499999999999851
 30
0.0
 11
18.12500000000021
 21
58.500000000000078
 31
0.0
  0
LINE
  5
42FE
  8
241
  6
CONTINUOUS
 10
16.752404735808302
 20
12.499999999999851
 30
0.0
 11
16.752404735808511
 21
62.500000000000071
 31
0.0
  0
ARC
  5
42FF
  8
240
  6
CONTINUOUS
 10
-53.49999999999995
 20
10.010000000000121
 30
0.0
 40
2.5
 50
0.0
 51
90.0
  0
ARC
  5
4300
  8
243
  6
HIDDEN2
 10
-46.499999999999858
 20
10.010000000000121
 30
0.0
 40
2.5
 50
0.0
 51
90.0
  0
LINE
  5
4301
  8
243
  6
HIDDEN2
 10
-46.499999999999858
 20
12.510000000000121
 30
0.0
 11
-53.499999999999858
 21
12.51000000000024
 31
0.0
  0
LINE
  5
4302
  8
240
  6
CONTINUOUS
 10
29.000000000000139
 20
-62.499999999999893
 30
0.0
 11
29.000000000000199
 21
-52.499999999999972
 31
0.0
  0
TEXT
  5
4303
  8
250
  6
CONTINUOUS
 10
-63.868023432732059
 20
-59.2833822492221
 30
0.0
 40
2.799999999999998
  1
HSK-A125
  7
YOKO
1001
ITEMNAME
1000
LNSP3
  0
POLYLINE
  5
4304
  8
250
  6
CONTINUOUS
 66
     1
 10
0.0
 20
0.0
 30
0.0
1001
ACAD
1000
DSTYLE
1002
{
1070
    41
1040
2.0
1002
}
  0
VERTEX
  5
4305
  8
250
  6
CONTINUOUS
 10
-32.282204286245971
 20
-48.299058608858701
 30
0.0
  0
VERTEX
  5
4306
  8
250
  6
CONTINUOUS
 10
-39.201356766065402
 20
-60.283382249222122
 30
0.0
  0
SEQEND
  5
4307
  8
250
  6
CONTINUOUS
  0
LINE
  5
4308
  8
250
  6
CONTINUOUS
 10
-32.570879420840768
 20
-48.132391942192079
 30
0.0
 11
-31.28220428624596
 21
-46.56700780128979
 31
0.0
  0
LINE
  5
4309
  8
250
  6
CONTINUOUS
 10
-31.99352915165116
 20
-48.465725275525379
 30
0.0
 11
-31.28220428624596
 21
-46.56700780128979
 31
0.0
  0
LINE
  5
430A
  8
250
  6
CONTINUOUS
 10
-31.28220428624596
 20
-46.56700780128979
 30
0.0
 11
-32.282204286245971
 21
-48.299058608858701
 31
0.0
  0
LINE
  5
430B
  8
247
  6
CONTINUOUS
 10
12.0
 20
-28.25000000007002
 30
0.0
 11
12.0
 21
-21.55769230803001
 31
0.0
  0
ARC
  5
430C
  8
247
  6
CONTINUOUS
 10
10.250000000069999
 20
-28.25000000007002
 30
0.0
 40
1.7499999999299991
 50
180.0
 51
0.0
  0
ARC
  5
430D
  8
247
  6
CONTINUOUS
 10
10.250000000069999
 20
-21.55769230803001
 30
0.0
 40
1.7499999999299991
 50
0.0
 51
180.0
  0
LINE
  5
430E
  8
247
  6
CONTINUOUS
 10
8.5000000001400888
 20
-27.384615384719979
 30
0.0
 11
11.500000000020011
 21
-28.244851541961989
 31
0.0
  0
LINE
  5
430F
  8
247
  6
CONTINUOUS
 10
9.9230769231600249
 20
-26.484983818335792
 30
0.0
 11
9.9230769231600249
 21
-27.792676125975831
 31
0.0
  0
ARC
  5
4310
  8
247
  6
CONTINUOUS
 10
9.0495986677029912
 20
-26.145143816089771
 30
0.0
 40
0.5538165441895349
 50
72.997889675292001
 51
172.92416621851359
  0
ARC
  5
4311
  8
247
  6
CONTINUOUS
 10
8.9360330444657876
 20
-26.566878323028771
 30
0.0
 40
0.9904354236226808
 50
4.7429368522022122
 51
73.849226273266538
1001
GENIUS_GENOBJ-N-FIL_13
1002
{
1000
OWNER
1000
GEN
1002
}
1001
GENIUS_GENODEF_13
1002
{
1000
HIER
1070
     0
1002
}
1002
{
1000
MANEDIT
1070
     0
1002
}
1002
{
1000
NOSEL
1070
     0
1002
}
1002
{
1000
BEHIND
1070
     0
1002
}
1002
{
1000
OTHER
1070
     0
1002
}
1002
{
1000
REACTOR
1002
}
  0
LINE
  5
4312
  8
247
  6
CONTINUOUS
 10
11.500000000020011
 20
-26.937159234321971
 30
0.0
 11
11.500000000020011
 21
-28.244851541961989
 31
0.0
  0
LINE
  5
4313
  8
247
  6
CONTINUOUS
 10
8.5000000001400888
 20
-27.384615384719979
 30
0.0
 11
8.5000000001400888
 21
-26.076923077079961
 31
0.0
  0
ARC
  5
4314
  8
247
  6
CONTINUOUS
 10
10.482024232665591
 20
-26.56091963654692
 30
0.0
 40
0.5640818586791229
 50
65.990941652528889
 51
172.26344345906909
  0
ARC
  5
4315
  8
247
  6
CONTINUOUS
 10
10.487429039186591
 20
-27.038262685347039
 30
0.0
 40
1.0176059446230981
 50
5.7019851642564632
 51
77.277338436822191
1001
GENIUS_GENOBJ-N-FIL_13
1002
{
1000
OWNER
1000
GEN
1002
}
1001
GENIUS_GENODEF_13
1002
{
1000
HIER
1070
     0
1002
}
1002
{
1000
MANEDIT
1070
     0
1002
}
1002
{
1000
NOSEL
1070
     0
1002
}
1002
{
1000
BEHIND
1070
     0
1002
}
1002
{
1000
OTHER
1070
     0
1002
}
1002
{
1000
REACTOR
1002
}
  0
LINE
  5
4316
  8
247
  6
CONTINUOUS
 10
11.500000000020011
 20
-25.283313080542001
 30
0.0
 11
8.5000000001400888
 21
-24.42307692329997
 31
0.0
  0
LINE
  5
4317
  8
247
  6
CONTINUOUS
 10
8.5000000001400888
 20
-22.000000000319929
 30
0.0
 11
8.5000000001400888
 21
-22.56573661945653
 31
0.0
  0
LINE
  5
4318
  8
247
  6
CONTINUOUS
 10
11.500000000020011
 20
-23.461538461799961
 30
0.0
 11
11.500000000020011
 21
-22.846153846439979
 31
0.0
  0
ARC
  5
4319
  8
247
  6
CONTINUOUS
 10
10.58328513597341
 20
-21.708791209122811
 30
0.0
 40
2.2526500823422122
 50
202.3594881415267
 51
254.99324854284609
  0
ARC
  5
431A
  8
247
  6
CONTINUOUS
 10
9.3083126551944968
 20
-22.37406947921319
 30
0.0
 40
0.8906723995727782
 50
94.994589319075374
 51
155.1663289573039
1001
GENIUS_GENOBJ-N-FIL_13
1002
{
1000
OWNER
1000
GEN
1002
}
1001
GENIUS_GENODEF_13
1002
{
1000
HIER
1070
     0
1002
}
1002
{
1000
MANEDIT
1070
     0
1002
}
1002
{
1000
NOSEL
1070
     0
1002
}
1002
{
1000
BEHIND
1070
     0
1002
}
1002
{
1000
OTHER
1070
     0
1002
}
1002
{
1000
REACTOR
1002
}
  0
ARC
  5
431B
  8
247
  6
CONTINUOUS
 10
10.160145888667801
 20
-23.226458886212541
 30
0.0
 40
1.392781735586712
 50
15.8460965557808
 51
82.325137004169065
  0
ARC
  5
431C
  8
247
  6
CONTINUOUS
 10
10.45924343152728
 20
-22.642212725840341
 30
0.0
 40
1.324563662670287
 50
249.7136016704969
 51
321.78874565640581
1001
GENIUS_GENOBJ-N-FIL_13
1002
{
1000
OWNER
1000
GEN
1002
}
1001
GENIUS_GENODEF_13
1002
{
1000
HIER
1070
     0
1002
}
1002
{
1000
MANEDIT
1070
     0
1002
}
1002
{
1000
NOSEL
1070
     0
1002
}
1002
{
1000
BEHIND
1070
     0
1002
}
1002
{
1000
OTHER
1070
     0
1002
}
1002
{
1000
REACTOR
1002
}
  0
LINE
  5
431D
  8
247
  6
CONTINUOUS
 10
10.34615384621998
 20
-22.538461538759929
 30
0.0
 11
10.34615384621998
 21
-21.84615384647995
 31
0.0
  0
LINE
  5
431E
  8
247
  6
CONTINUOUS
 10
8.5000000001400053
 20
-28.25000000007002
 30
0.0
 11
8.5000000001400053
 21
-27.576923077020009
 31
0.0
  0
LINE
  5
431F
  8
241
  6
CONTINUOUS
 10
29.000000000000199
 20
-52.499999999999893
 30
0.0
 11
29.000000000000139
 21
52.500000000000469
 31
0.0
  0
TEXT
  5
4320
  8
241
  6
CONTINUOUS
 10
-71.999999999999659
 20
91.0
 30
0.0
 40
5.0
  1
HSK-A125-HMC1.000J-5
  7
YOKO
 11
-71.999999999999659
 21
91.0
 31
0.0
 73
     1
  0
LINE
  5
434E
  8
240
  6
CONTINUOUS
 10
37.000000000000149
 20
52.499999999999773
 30
0.0
 11
29.000000000000139
 21
52.500000000000362
 31
0.0
  0
LINE
  5
434F
  8
240
  6
CONTINUOUS
 10
37.000000000000149
 20
-52.499999999999893
 30
0.0
 11
37.000000000000149
 21
-36.793599012753688
 31
0.0
  0
ARC
  5
4350
  8
240
  6
CONTINUOUS
 10
40.000000000000149
 20
-36.793599012753688
 30
0.0
 40
3.0
 50
94.999999999998195
 51
180.0
  0
LINE
  5
4352
  8
240
  6
CONTINUOUS
 10
29.000000000000199
 20
-52.499999999999972
 30
0.0
 11
37.000000000000149
 21
-52.499999999999893
 31
0.0
  0
LINE
  5
4353
  8
240
  6
CONTINUOUS
 10
37.000000000000149
 20
52.499999999999773
 30
0.0
 11
37.000000000000149
 21
36.793599012753852
 31
0.0
  0
LINE
  5
4356
  8
240
  6
CONTINUOUS
 10
71.800000000000409
 20
-28.00000000000006
 30
0.0
 11
71.800000000000409
 21
-30.999999999999972
 31
0.0
  0
LINE
  5
435A
  8
240
  6
CONTINUOUS
 10
39.738532771757171
 20
-33.805014918478392
 30
0.0
 11
71.800000000000409
 21
-30.999999999999972
 31
0.0
  0
LINE
  5
435B
  8
240
  6
CONTINUOUS
 10
71.800000000000296
 20
31.00000000000005
 30
0.0
 11
39.738532771757413
 21
33.805014918479401
 31
0.0
  0
LINE
  5
435D
  8
241
  6
CONTINUOUS
 10
44.332558586947172
 20
-33.403089739703972
 30
0.0
 11
44.332558586947172
 21
33.403089739704818
 31
0.0
  0
LINE
  5
435E
  8
241
  6
CONTINUOUS
 10
45.527992224657382
 20
-33.298502848406791
 30
0.0
 11
45.5279922246566
 21
33.298502848407701
 31
0.0
  0
ARC
  5
435F
  8
240
  6
CONTINUOUS
 10
40.000000000000149
 20
36.793599012753717
 30
0.0
 40
3.0
 50
180.0
 51
265.00000000000182
  0
LINE
  5
43AF
  8
243
  6
HIDDEN2
 10
48.866025403784512
 20
12.69999999999999
 30
0.0
 11
129.39999999999981
 21
12.69999999999999
 31
0.0
1001
GRPNAME
1000
PASTMD7T
  0
LINE
  5
43B0
  8
240
  6
CONTINUOUS
 10
124.3486229709908
 20
-28.9216948299932
 30
0.0
 11
109.1660254037848
 21
-30.249999999999972
 31
0.0
  0
ARC
  5
43B1
  8
241
  6
CONTINUOUS
 10
106.9786796564408
 20
-21.6398070693802
 30
0.0
 40
2.121320343559645
 50
270.0
 51
90.0
  0
ARC
  5
43B2
  8
241
  6
CONTINUOUS
 10
97.221320343560123
 20
-21.6398070693802
 30
0.0
 40
2.121320343559645
 50
90.0
 51
270.0
  0
LINE
  5
43B3
  8
241
  6
CONTINUOUS
 10
109.1660254037848
 20
-30.249999999999972
 30
0.0
 11
109.1660254037848
 21
-1.2204459116852731
 31
0.0
  0
LINE
  5
43B4
  8
241
  6
CONTINUOUS
 10
77.800000000000296
 20
31.34999999999998
 30
0.0
 11
77.800000000000296
 21
-31.349999999999881
 31
0.0
  0
LINE
  5
43B5
  8
241
  6
CONTINUOUS
 10
79.800000000000423
 20
-30.999999999999972
 30
0.0
 11
79.800000000000423
 21
31.000000000000011
 31
0.0
  0
LINE
  5
43B6
  8
241
  6
CONTINUOUS
 10
93.800000000000423
 20
-30.999999999999972
 30
0.0
 11
93.800000000000423
 21
31.000000000000011
 31
0.0
  0
LINE
  5
43B7
  8
241
  6
CONTINUOUS
 10
73.800000000000423
 20
28.000000000000071
 30
0.0
 11
73.800000000000423
 21
-28.00000000000006
 31
0.0
  0
LINE
  5
43B8
  8
240
  6
CONTINUOUS
 10
94.050000000000409
 20
-30.749999999999972
 30
0.0
 11
93.800000000000423
 21
-30.999999999999972
 31
0.0
  0
LINE
  5
43B9
  8
240
  6
CONTINUOUS
 10
78.149999999998343
 20
-30.999999999999972
 30
0.0
 11
93.800000000000423
 21
-30.999999999999972
 31
0.0
  0
LINE
  5
43BA
  8
240
  6
CONTINUOUS
 10
73.800000000000423
 20
-28.00000000000006
 30
0.0
 11
74.800000000000423
 21
-28.999999999998579
 31
0.0
  0
LINE
  5
43BB
  8
241
  6
CONTINUOUS
 10
97.221320343560123
 20
-23.761127412939871
 30
0.0
 11
106.9786796564408
 21
-23.761127412939871
 31
0.0
  0
LINE
  5
43BC
  8
240
  6
CONTINUOUS
 10
94.050000000000409
 20
-30.749999999999972
 30
0.0
 11
107.3000000000003
 21
-30.749999999999972
 31
0.0
  0
LINE
  5
43BD
  8
241
  6
CONTINUOUS
 10
96.800000000000423
 20
-30.749999999999972
 30
0.0
 11
96.800000000000423
 21
-23.71886675301192
 31
0.0
  0
LINE
  5
43BE
  8
241
  6
CONTINUOUS
 10
107.3000000000004
 20
-30.749999999999972
 30
0.0
 11
107.3000000000004
 21
-23.736650706091069
 31
0.0
  0
LINE
  5
43BF
  8
240
  6
CONTINUOUS
 10
109.1660254037848
 20
-30.249999999999972
 30
0.0
 11
107.3000000000004
 21
-30.749999999999972
 31
0.0
  0
ARC
  5
43C0
  8
241
  6
CONTINUOUS
 10
98.100000000000435
 20
0.0
 30
0.0
 40
3.2999999999999932
 50
89.999997685945246
 51
270.00000231405483
  0
ARC
  5
43C1
  8
241
  6
CONTINUOUS
 10
98.100000000000435
 20
0.0
 30
0.0
 40
3.0
 50
90.0
 51
270.0
  0
LINE
  5
43C2
  8
241
  6
CONTINUOUS
 10
96.800000000000423
 20
-19.56074738574851
 30
0.0
 11
96.800000000000423
 21
-3.0331501776205969
 31
0.0
  0
LINE
  5
43C3
  8
241
  6
CONTINUOUS
 10
97.221320343560123
 20
-21.884954877720261
 30
0.0
 11
106.9786796564408
 21
-21.884954877720261
 31
0.0
  0
LINE
  5
43C4
  8
241
  6
CONTINUOUS
 10
97.221320343560123
 20
-19.518486725820591
 30
0.0
 11
106.9786796564408
 21
-19.518486725820591
 31
0.0
  0
ARC
  5
43C5
  8
241
  6
CONTINUOUS
 10
97.221320343560123
 20
-19.76363453416063
 30
0.0
 40
2.121320343559618
 50
206.2454909804903
 51
270.0
  0
LINE
  5
43C6
  8
241
  6
CONTINUOUS
 10
107.3000000000004
 20
-19.54296343266935
 30
0.0
 11
107.3000000000004
 21
-3.0740852297879111
 31
0.0
  0
ARC
  5
43C7
  8
241
  6
CONTINUOUS
 10
106.9786796564408
 20
-19.76363453416063
 30
0.0
 40
2.1213203435596002
 50
270.0
 51
333.75450901950973
  0
LINE
  5
43C8
  8
241
  6
CONTINUOUS
 10
98.100000133280503
 20
-3.2999999999999821
 30
0.0
 11
106.10000000000041
 21
-3.2999999999999821
 31
0.0
  0
LINE
  5
43C9
  8
241
  6
CONTINUOUS
 10
98.100000000000435
 20
-2.999999999999984
 30
0.0
 11
106.10000000000041
 21
-2.999999999999984
 31
0.0
  0
LINE
  5
43CA
  8
240
  6
CONTINUOUS
 10
128.0000000000004
 20
24.936916037626261
 30
0.0
 11
128.0000000000004
 21
22.384807580921699
 31
0.0
  0
ARC
  5
43CB
  8
240
  6
CONTINUOUS
 10
124.0000000000002
 20
-24.936916037626201
 30
0.0
 40
4.0000000000000071
 50
275.00000001843227
 51
0.0000000184323576
  0
LINE
  5
43CC
  8
241
  6
CONTINUOUS
 10
74.800000000000452
 20
28.999999999998611
 30
0.0
 11
74.800000000000423
 21
-28.999999999998579
 31
0.0
  0
LINE
  5
43CD
  8
240
  6
CONTINUOUS
 10
74.800000000000026
 20
-28.999999999998789
 30
0.0
 11
74.800000000000423
 21
-29.850000000000591
 31
0.0
  0
LINE
  5
43CE
  8
240
  6
CONTINUOUS
 10
78.149999999998343
 20
-30.999999999999972
 30
0.0
 11
77.800000000000296
 21
-31.350000000000009
 31
0.0
1001
GRPNAME
1000
PASTMD06
  0
LINE
  5
43CF
  8
240
  6
CONTINUOUS
 10
76.300000000000196
 20
-31.34999999999981
 30
0.0
 11
77.800000000000296
 21
-31.350000000000009
 31
0.0
1001
GRPNAME
1000
PASTMD06
  0
ARC
  5
43D0
  8
240
  6
CONTINUOUS
 10
76.300000000000423
 20
-29.84999999999981
 30
0.0
 40
1.5
 50
180.00000000002771
 51
269.99999999999352
  0
LINE
  5
43D1
  8
240
  6
CONTINUOUS
 10
73.800000000000423
 20
-28.00000000000006
 30
0.0
 11
71.800000000000409
 21
-28.00000000000006
 31
0.0
  0
LINE
  5
43D4
  8
240
  6
CONTINUOUS
 10
124.3486229709908
 20
28.921694829993228
 30
0.0
 11
109.1660254037848
 21
30.250000000000021
 31
0.0
  0
ARC
  5
43D5
  8
241
  6
CONTINUOUS
 10
106.9786796564408
 20
21.639807069380261
 30
0.0
 40
2.121320343559645
 50
270.0
 51
90.0
  0
ARC
  5
43D6
  8
241
  6
CONTINUOUS
 10
97.221320343560123
 20
21.639807069380261
 30
0.0
 40
2.121320343559645
 50
90.0
 51
270.0
  0
LINE
  5
43D7
  8
241
  6
CONTINUOUS
 10
109.1660254037848
 20
30.250000000000039
 30
0.0
 11
109.1660254037848
 21
1.220445911685317
 31
0.0
  0
LINE
  5
43D8
  8
240
  6
CONTINUOUS
 10
94.050000000000409
 20
30.750000000000011
 30
0.0
 11
93.800000000000423
 21
31.000000000000011
 31
0.0
  0
LINE
  5
43D9
  8
240
  6
CONTINUOUS
 10
78.149999999998343
 20
31.000000000000011
 30
0.0
 11
93.800000000000423
 21
31.000000000000011
 31
0.0
  0
LINE
  5
43DA
  8
240
  6
CONTINUOUS
 10
73.800000000000423
 20
28.000000000000071
 30
0.0
 11
74.800000000000423
 21
28.999999999998611
 31
0.0
  0
LINE
  5
43DB
  8
241
  6
CONTINUOUS
 10
97.221320343560123
 20
23.761127412939882
 30
0.0
 11
106.9786796564408
 21
23.761127412939882
 31
0.0
  0
LINE
  5
43DC
  8
240
  6
CONTINUOUS
 10
94.050000000000409
 20
30.750000000000011
 30
0.0
 11
107.3000000000003
 21
30.750000000000011
 31
0.0
  0
LINE
  5
43DD
  8
241
  6
CONTINUOUS
 10
96.800000000000423
 20
30.750000000000011
 30
0.0
 11
96.800000000000423
 21
23.718866753011959
 31
0.0
  0
LINE
  5
43DE
  8
241
  6
CONTINUOUS
 10
107.3000000000004
 20
30.750000000000011
 30
0.0
 11
107.3000000000004
 21
23.736650706091101
 31
0.0
  0
LINE
  5
43DF
  8
240
  6
CONTINUOUS
 10
109.1660254037848
 20
30.250000000000021
 30
0.0
 11
107.3000000000004
 21
30.750000000000011
 31
0.0
  0
LINE
  5
43E0
  8
241
  6
CONTINUOUS
 10
96.800000000000423
 20
19.560747385748542
 30
0.0
 11
96.800000000000423
 21
3.0331501776206111
 31
0.0
  0
LINE
  5
43E1
  8
241
  6
CONTINUOUS
 10
97.221320343560123
 20
21.8849548777203
 30
0.0
 11
106.9786796564408
 21
21.8849548777203
 31
0.0
  0
LINE
  5
43E2
  8
241
  6
CONTINUOUS
 10
97.221320343560123
 20
19.518486725820608
 30
0.0
 11
106.9786796564408
 21
19.518486725820608
 31
0.0
  0
ARC
  5
43E3
  8
241
  6
CONTINUOUS
 10
97.221320343560123
 20
19.76363453416069
 30
0.0
 40
2.121320343559618
 50
90.0
 51
153.7545090195097
  0
LINE
  5
43E4
  8
241
  6
CONTINUOUS
 10
107.3000000000004
 20
19.54296343266941
 30
0.0
 11
107.3000000000004
 21
3.074085229787924
 31
0.0
  0
ARC
  5
43E5
  8
241
  6
CONTINUOUS
 10
106.9786796564408
 20
19.76363453416069
 30
0.0
 40
2.1213203435596002
 50
26.245490980490299
 51
90.0
  0
ARC
  5
43E6
  8
241
  6
CONTINUOUS
 10
106.10000000000041
 20
0.0
 30
0.0
 40
3.30000000000001
 50
269.99999768594517
 51
90.00000231405474
  0
ARC
  5
43E7
  8
241
  6
CONTINUOUS
 10
106.10000000000041
 20
0.0
 30
0.0
 40
3.0
 50
270.0
 51
90.0
  0
LINE
  5
43E8
  8
241
  6
CONTINUOUS
 10
98.100000133280503
 20
3.30000000000001
 30
0.0
 11
106.10000000000041
 21
3.30000000000001
 31
0.0
  0
LINE
  5
43E9
  8
241
  6
CONTINUOUS
 10
98.100000000000435
 20
3.0
 30
0.0
 11
106.10000000000041
 21
3.0
 31
0.0
  0
ARC
  5
43EA
  8
240
  6
CONTINUOUS
 10
124.0000000000002
 20
24.936916037626251
 30
0.0
 40
4.0000000000000071
 50
359.99999998156778
 51
84.999999981567726
  0
LINE
  5
43EB
  8
240
  6
CONTINUOUS
 10
74.800000000000026
 20
28.99999999999881
 30
0.0
 11
74.800000000000423
 21
29.850000000000591
 31
0.0
  0
LINE
  5
43EC
  8
240
  6
CONTINUOUS
 10
78.149999999998343
 20
31.000000000000011
 30
0.0
 11
77.800000000000296
 21
31.350000000000019
 31
0.0
1001
GRPNAME
1000
PASTMD06
  0
LINE
  5
43ED
  8
240
  6
CONTINUOUS
 10
76.300000000000196
 20
31.349999999999859
 30
0.0
 11
77.800000000000296
 21
31.350000000000019
 31
0.0
1001
GRPNAME
1000
PASTMD06
  0
ARC
  5
43EE
  8
240
  6
CONTINUOUS
 10
76.300000000000423
 20
29.84999999999987
 30
0.0
 40
1.5
 50
90.000000000006537
 51
179.9999999999707
  0
LINE
  5
43EF
  8
240
  6
CONTINUOUS
 10
73.800000000000423
 20
28.000000000000071
 30
0.0
 11
71.800000000000296
 21
28.000000000000071
 31
0.0
  0
LINE
  5
43F0
  8
240
  6
CONTINUOUS
 10
71.800000000000296
 20
28.000000000000071
 30
0.0
 11
71.800000000000296
 21
31.000000000000011
 31
0.0
  0
LINE
  5
4437
  8
240
  6
CONTINUOUS
 10
128.0000000000004
 20
22.384807580921699
 30
0.0
 11
129.39999999999981
 21
22.384807580921699
 31
0.0
1001
GRPNAME
1000
PASTMD53
  0
LINE
  5
450B
  8
243
  6
HIDDEN2
 10
48.866025403784512
 20
-12.69999999999996
 30
0.0
 11
129.39999999999981
 21
-12.69999999999996
 31
0.0
1001
GRPNAME
1000
PASTMD7T
  0
LINE
  5
4558
  8
240
  6
CONTINUOUS
 10
128.0000000000004
 20
-24.936916037626251
 30
0.0
 11
128.0000000000004
 21
-22.38480758092166
 31
0.0
  0
LINE
  5
4559
  8
240
  6
CONTINUOUS
 10
129.39999999999981
 20
-22.38480758092166
 30
0.0
 11
129.39999999999981
 21
22.384807580921699
 31
0.0
1001
GRPNAME
1000
PASTMD58
  0
LINE
  5
455A
  8
240
  6
CONTINUOUS
 10
128.0000000000004
 20
-22.38480758092166
 30
0.0
 11
129.39999999999981
 21
-22.38480758092166
 31
0.0
1001
GRPNAME
1000
PASTMD53
  0
LINE
  5
455B
  8
241
  6
CONTINUOUS
 10
71.800000000000409
 20
-28.00000000000006
 30
0.0
 11
71.800000000000296
 21
28.000000000000071
 31
0.0
  0
LINE
  5
455C
  8
241
  6
CONTINUOUS
 10
37.000000000000149
 20
37.399799599198253
 30
0.0
 11
37.000000000000149
 21
-36.793599012753688
 31
0.0
  0
LINE
  5
455D
  8
241
  6
CONTINUOUS
 10
128.0000000000004
 20
-22.38480758092166
 30
0.0
 11
128.0000000000004
 21
22.384807580921699
 31
0.0
  0
TEXT
  5
45E1
  8
250
  6
CONTINUOUS
 10
132.14927117593501
 20
16.111958840431591
 30
0.0
 40
2.799999999999998
  1
Coolant
  7
YOKO
 11
132.14927117593501
 21
16.111958840431591
 31
0.0
 73
     1
  0
LINE
  5
45E2
  8
250
  6
CONTINUOUS
 10
145.67856228415471
 20
14.87010766542069
 30
0.0
 11
147.90856228415461
 21
14.49844099875402
 31
0.0
  0
LINE
  5
45E3
  8
250
  6
CONTINUOUS
 10
145.67856228415471
 20
14.12677433208737
 30
0.0
 11
147.90856228415461
 21
14.49844099875402
 31
0.0
  0
LINE
  5
45E4
  8
250
  6
CONTINUOUS
 10
147.90856228415461
 20
14.49844099875402
 30
0.0
 11
145.67856228415471
 21
14.49844099875402
 31
0.0
  0
LINE
  5
45E5
  8
250
  6
CONTINUOUS
 10
145.67856228415471
 20
14.49844099875402
 30
0.0
 11
132.39999999999901
 21
14.49844099875402
 31
0.0
  0
LINE
  5
45E6
  8
250
  6
CONTINUOUS
 10
145.67856228415511
 20
-14.12989233457934
 30
0.0
 11
147.9085622841551
 21
-14.50155900124602
 31
0.0
  0
LINE
  5
45E7
  8
250
  6
CONTINUOUS
 10
145.67856228415511
 20
-14.87322566791269
 30
0.0
 11
147.9085622841551
 21
-14.50155900124602
 31
0.0
  0
LINE
  5
45E8
  8
250
  6
CONTINUOUS
 10
147.9085622841551
 20
-14.50155900124602
 30
0.0
 11
145.67856228415511
 21
-14.50155900124602
 31
0.0
  0
LINE
  5
45E9
  8
250
  6
CONTINUOUS
 10
145.67856228415511
 20
-14.50155900124602
 30
0.0
 11
132.39999999999941
 21
-14.50155900124602
 31
0.0
  0
TEXT
  5
45EA
  8
250
  6
CONTINUOUS
 10
131.98690084179199
 20
-19.317104677245378
 30
0.0
 40
2.799999999999998
  1
Coolant
  7
YOKO
 11
131.98690084179199
 21
-19.317104677245378
 31
0.0
 73
     1
  0
LINE
  5
462D
  8
250
  6
CONTINUOUS
 10
129.89999999999981
 20
12.69999999999999
 30
0.0
 11
147.79356228415469
 21
12.69999999999999
 31
0.0
  0
LINE
  5
462E
  8
250
  6
CONTINUOUS
 10
129.89999999999981
 20
-12.69999999999996
 30
0.0
 11
147.79356228415469
 21
-12.69999999999996
 31
0.0
  0
LINE
  5
462F
  8
250
  6
CONTINUOUS
 10
146.79356228415469
 20
10.46999999999997
 30
0.0
 11
146.79356228415469
 21
-10.469999999999949
 31
0.0
  0
LINE
  5
4634
  8
250
  6
CONTINUOUS
 10
94.300000000000395
 20
31.000000000000011
 30
0.0
 11
155.0
 21
30.999999999999979
 31
0.0
  0
LINE
  5
4635
  8
250
  6
CONTINUOUS
 10
94.300000000000395
 20
-30.999999999999972
 30
0.0
 11
155.0
 21
-30.999999999999972
 31
0.0
  0
LINE
  5
4636
  8
250
  6
CONTINUOUS
 10
154.0
 20
28.769999999999989
 30
0.0
 11
154.0
 21
-28.769999999999978
 31
0.0
  0
LINE
  5
463A
  8
250
  6
CONTINUOUS
 10
37.40000000000029
 20
12.800200400801639
 30
0.0
 11
37.40000000000029
 21
71.100200400801711
 31
0.0
  0
LINE
  5
463B
  8
250
  6
CONTINUOUS
 10
129.39999999999981
 20
22.985007981723399
 30
0.0
 11
129.39999999999981
 21
71.100200400801711
 31
0.0
  0
LINE
  5
463C
  8
250
  6
CONTINUOUS
 10
39.630000000000322
 20
70.100200400801711
 30
0.0
 11
127.1699999999999
 21
70.100200400801711
 31
0.0
  0
LINE
  5
4640
  8
250
  6
CONTINUOUS
 10
-0.0000000000000995
 20
63.000000000000291
 30
0.0
 11
-0.0000000000000995
 21
78.100200400801711
 31
0.0
  0
LINE
  5
4641
  8
250
  6
CONTINUOUS
 10
129.39999999999981
 20
22.985007981723399
 30
0.0
 11
129.39999999999981
 21
78.100200400801711
 31
0.0
  0
LINE
  5
4642
  8
250
  6
CONTINUOUS
 10
2.2299999999999041
 20
77.100200400801711
 30
0.0
 11
127.1699999999999
 21
77.100200400801711
 31
0.0
  0
TEXT
  5
4646
  8
250
  6
CONTINUOUS
 10
74.066666666666691
 20
72.300200400801685
 30
0.0
 40
2.799999999999998
  1
(max.3.62)
  0
LINE
  5
4647
  8
250
  6
CONTINUOUS
 10
127.1699999999999
 20
70.471867067468381
 30
0.0
 11
129.39999999999981
 21
70.100200400801711
 31
0.0
  0
LINE
  5
4648
  8
250
  6
CONTINUOUS
 10
127.1699999999999
 20
69.728533734135041
 30
0.0
 11
129.39999999999981
 21
70.100200400801711
 31
0.0
  0
LINE
  5
4649
  8
250
  6
CONTINUOUS
 10
129.39999999999981
 20
70.100200400801711
 30
0.0
 11
127.1699999999999
 21
70.100200400801711
 31
0.0
  0
LINE
  5
464A
  8
250
  6
CONTINUOUS
 10
39.630000000000322
 20
69.728533734135041
 30
0.0
 11
37.40000000000029
 21
70.100200400801711
 31
0.0
  0
LINE
  5
464B
  8
250
  6
CONTINUOUS
 10
39.630000000000322
 20
70.471867067468381
 30
0.0
 11
37.40000000000029
 21
70.100200400801711
 31
0.0
  0
LINE
  5
464C
  8
250
  6
CONTINUOUS
 10
37.40000000000029
 20
70.100200400801711
 30
0.0
 11
39.630000000000322
 21
70.100200400801711
 31
0.0
  0
TEXT
  5
464D
  8
250
  6
CONTINUOUS
 10
58.433333333333302
 20
78.100200400801739
 30
0.0
 40
2.799999999999998
  1
5.094
  0
LINE
  5
464E
  8
250
  6
CONTINUOUS
 10
127.1699999999999
 20
77.471867067468352
 30
0.0
 11
129.39999999999981
 21
77.100200400801711
 31
0.0
  0
LINE
  5
464F
  8
250
  6
CONTINUOUS
 10
127.1699999999999
 20
76.728533734135041
 30
0.0
 11
129.39999999999981
 21
77.100200400801711
 31
0.0
  0
LINE
  5
4650
  8
250
  6
CONTINUOUS
 10
129.39999999999981
 20
77.100200400801711
 30
0.0
 11
127.1699999999999
 21
77.100200400801711
 31
0.0
  0
LINE
  5
4651
  8
250
  6
CONTINUOUS
 10
2.2299999999999041
 20
76.728533734135041
 30
0.0
 11
-0.0000000000000995
 21
77.100200400801711
 31
0.0
  0
LINE
  5
4652
  8
250
  6
CONTINUOUS
 10
2.2299999999999041
 20
77.471867067468352
 30
0.0
 11
-0.0000000000000995
 21
77.100200400801711
 31
0.0
  0
LINE
  5
4653
  8
250
  6
CONTINUOUS
 10
-0.0000000000000995
 20
77.100200400801711
 30
0.0
 11
2.2299999999999041
 21
77.100200400801711
 31
0.0
  0
TEXT
  5
4654
  8
250
  6
CONTINUOUS
 10
145.79356228415469
 20
-5.9999999999999556
 30
0.0
 40
2.799999999999998
  1
\U+22051.000
 50
90.0
  0
LINE
  5
4655
  8
250
  6
CONTINUOUS
 10
147.1652289508213
 20
-10.469999999999949
 30
0.0
 11
146.79356228415469
 21
-12.69999999999996
 31
0.0
  0
LINE
  5
4656
  8
250
  6
CONTINUOUS
 10
146.42189561748799
 20
-10.469999999999949
 30
0.0
 11
146.79356228415469
 21
-12.69999999999996
 31
0.0
  0
LINE
  5
4657
  8
250
  6
CONTINUOUS
 10
146.79356228415469
 20
-12.69999999999996
 30
0.0
 11
146.79356228415469
 21
-10.469999999999949
 31
0.0
  0
LINE
  5
4658
  8
250
  6
CONTINUOUS
 10
146.42189561748799
 20
10.46999999999997
 30
0.0
 11
146.79356228415469
 21
12.69999999999999
 31
0.0
  0
LINE
  5
4659
  8
250
  6
CONTINUOUS
 10
147.1652289508213
 20
10.46999999999997
 30
0.0
 11
146.79356228415469
 21
12.69999999999999
 31
0.0
  0
LINE
  5
465A
  8
250
  6
CONTINUOUS
 10
146.79356228415469
 20
12.69999999999999
 30
0.0
 11
146.79356228415469
 21
10.46999999999997
 31
0.0
  0
TEXT
  5
465B
  8
250
  6
CONTINUOUS
 10
153.1097568310627
 20
-6.1056640936441511
 30
0.0
 40
2.799999999999998
  1
\U+22052.441
 50
90.0
  0
LINE
  5
465C
  8
250
  6
CONTINUOUS
 10
154.37166666666681
 20
-28.769999999999978
 30
0.0
 11
154.0
 21
-30.999999999999972
 31
0.0
  0
LINE
  5
465D
  8
250
  6
CONTINUOUS
 10
153.6283333333333
 20
-28.769999999999978
 30
0.0
 11
154.0
 21
-30.999999999999972
 31
0.0
  0
LINE
  5
465E
  8
250
  6
CONTINUOUS
 10
154.0
 20
-30.999999999999972
 30
0.0
 11
154.0
 21
-28.769999999999978
 31
0.0
  0
LINE
  5
465F
  8
250
  6
CONTINUOUS
 10
153.6283333333333
 20
28.769999999999989
 30
0.0
 11
154.0
 21
30.999999999999979
 31
0.0
  0
LINE
  5
4660
  8
250
  6
CONTINUOUS
 10
154.37166666666681
 20
28.769999999999989
 30
0.0
 11
154.0
 21
30.999999999999979
 31
0.0
  0
LINE
  5
4661
  8
250
  6
CONTINUOUS
 10
154.0
 20
30.999999999999979
 30
0.0
 11
154.0
 21
28.769999999999989
 31
0.0
  0
LINE
  5
4B41
  8
245
  6
CENTER2
 10
133.16255081587269
 20
0.0
 30
0.0
 11
-60.732588972814817
 21
0.0
 31
0.0
  0
VIEWPORT
  5
22
 67
     1
  8
0
 10
261.51769911504419
 20
148.5
 30
0.0
 40
523.0353982300885
 41
297.0
 68
     1
 69
     1
1001
ACAD
1000
MVIEW
1002
{
1070
    16
1010
0.0
1020
0.0
1030
0.0
1010
0.0
1020
0.0
1030
1.0
1040
0.0
1040
297.0
1040
261.51769911504419
1040
148.5
1040
50.0
1040
0.0
1040
0.0
1070
     0
1070
   100
1070
     1
1070
     1
1070
     0
1070
     0
1070
     0
1070
     0
1040
0.0
1040
0.0
1040
0.0
1040
1.0
1040
1.0
1040
10.0
1040
10.0
1070
     0
1002
{
1002
}
1002
}
1001
GENIUS_GENODEF_13
1002
{
1000
HIER
1070
     0
1002
}
1002
{
1000
MANEDIT
1070
     0
1002
}
1002
{
1000
NOSEL
1070
     0
1002
}
1002
{
1000
BEHIND
1070
     0
1002
}
1002
{
1000
OTHER
1070
     0
1002
}
1002
{
1000
REACTOR
1002
}
1001
GENIUS_GENOBJ-N-SDF_13
1002
{
1000
OWNER
1000
GEN
1002
}
1001
GENIUS_GENSCREG_15
1000
PF
1040
1.0
1000
DF
1040
1.0
1000
MIN
1011
0.0
1021
0.0
1031
0.0
1021
0.0
1031
0.0
1000
MAX
1011
523.0353982300885
1021
0.0
1031
0.0
1021
297.0
1031
0.0
1000
FLAGS
1070
     4
  0
ENDSEC
  0
EOF
