  0
SECTION
  2
HEADER
  9
$ACADVER
  1
AC1009
  9
$INSBASE
 10
0.0
 20
0.0
 30
0.0
  9
$EXTMIN
 10
-71.04761904761871
 20
-62.500000000001663
 30
0.0
  9
$EXTMAX
 10
148.00000000000369
 20
96.0
 30
0.0
  9
$LIMMIN
 10
0.0
 20
0.0
  9
$LIMMAX
 10
297.0
 20
210.0
  9
$ORTHOMODE
 70
     1
  9
$REGENMODE
 70
     1
  9
$FILLMODE
 70
     1
  9
$QTEXTMODE
 70
     0
  9
$MIRRTEXT
 70
     1
  9
$DRAGMODE
 70
     2
  9
$LTSCALE
 40
10.0
  9
$OSMODE
 70
    37
  9
$ATTMODE
 70
     1
  9
$TEXTSIZE
 40
3.0
  9
$TRACEWID
 40
1.0
  9
$TEXTSTYLE
  7
YOKO
  9
$CLAYER
  8
240
  9
$CELTYPE
  6
BYLAYER
  9
$CECOLOR
 62
   256
  9
$DIMSCALE
 40
1.0
  9
$DIMASZ
 40
2.2299999999999991
  9
$DIMEXO
 40
0.5
  9
$DIMDLI
 40
7.0
  9
$DIMRND
 40
0.0
  9
$DIMDLE
 40
0.0
  9
$DIMEXE
 40
1.0
  9
$DIMTP
 40
0.0
  9
$DIMTM
 40
0.01
  9
$DIMTXT
 40
2.799999999999998
  9
$DIMCEN
 40
0.0
  9
$DIMTSZ
 40
0.0
  9
$DIMTOL
 70
     0
  9
$DIMLIM
 70
     0
  9
$DIMTIH
 70
     0
  9
$DIMTOH
 70
     0
  9
$DIMSE1
 70
     0
  9
$DIMSE2
 70
     0
  9
$DIMTAD
 70
     3
  9
$DIMZIN
 70
     9
  9
$DIMBLK
  1
OPEN
  9
$DIMASO
 70
     1
  9
$DIMSHO
 70
     1
  9
$DIMPOST
  1

  9
$DIMAPOST
  1

  9
$DIMALT
 70
     0
  9
$DIMALTD
 70
     2
  9
$DIMALTF
 40
25.399999999999999
  9
$DIMLFAC
 40
1.0
  9
$DIMTOFL
 70
     1
  9
$DIMTVP
 40
0.0
  9
$DIMTIX
 70
     1
  9
$DIMSOXD
 70
     0
  9
$DIMSAH
 70
     0
  9
$DIMBLK1
  1

  9
$DIMBLK2
  1

  9
$DIMSTYLE
  2
BIGT
  9
$DIMCLRD
 70
   256
  9
$DIMCLRE
 70
   256
  9
$DIMCLRT
 70
    40
  9
$DIMTFAC
 40
1.0
  9
$DIMGAP
 40
1.0
  9
$LUNITS
 70
     2
  9
$LUPREC
 70
     6
  9
$SKETCHINC
 40
1.0
  9
$FILLETRAD
 40
0.0
  9
$AUNITS
 70
     0
  9
$AUPREC
 70
     6
  9
$MENU
  1
.
  9
$ELEVATION
 40
0.0
  9
$PELEVATION
 40
0.0
  9
$THICKNESS
 40
0.0
  9
$LIMCHECK
 70
     0
  9
$BLIPMODE
 70
     0
  9
$CHAMFERA
 40
0.2
  9
$CHAMFERB
 40
0.2
  9
$SKPOLY
 70
     0
  9
$TDCREATE
 40
2457941.4492019219
  9
$TDUPDATE
 40
2458142.607041562
  9
$TDINDWG
 40
0.0347178241
  9
$TDUSRTIMER
 40
0.0347177546
  9
$USRTIMER
 70
     1
  9
$ANGBASE
 50
0.0
  9
$ANGDIR
 70
     0
  9
$PDMODE
 70
     1
  9
$PDSIZE
 40
0.0
  9
$PLINEWID
 40
0.0
  9
$COORDS
 70
     1
  9
$SPLFRAME
 70
     0
  9
$SPLINETYPE
 70
     6
  9
$SPLINESEGS
 70
     4
  9
$ATTDIA
 70
     1
  9
$ATTREQ
 70
     1
  9
$HANDLING
 70
     1
  9
$HANDSEED
  5
4DA3
  9
$SURFTAB1
 70
     6
  9
$SURFTAB2
 70
     6
  9
$SURFTYPE
 70
     6
  9
$SURFU
 70
     6
  9
$SURFV
 70
     6
  9
$UCSNAME
  2

  9
$UCSORG
 10
0.0
 20
0.0
 30
0.0
  9
$UCSXDIR
 10
1.0
 20
0.0
 30
0.0
  9
$UCSYDIR
 10
0.0
 20
1.0
 30
0.0
  9
$PUCSNAME
  2

  9
$PUCSORG
 10
0.0
 20
0.0
 30
0.0
  9
$PUCSXDIR
 10
1.0
 20
0.0
 30
0.0
  9
$PUCSYDIR
 10
0.0
 20
1.0
 30
0.0
  9
$USERI1
 70
     1
  9
$USERI2
 70
     0
  9
$USERI3
 70
     0
  9
$USERI4
 70
     0
  9
$USERI5
 70
     0
  9
$USERR1
 40
0.0
  9
$USERR2
 40
0.0
  9
$USERR3
 40
0.0
  9
$USERR4
 40
0.0
  9
$USERR5
 40
0.0
  9
$WORLDVIEW
 70
     1
  9
$SHADEDGE
 70
     3
  9
$SHADEDIF
 70
    70
  9
$TILEMODE
 70
     1
  9
$MAXACTVP
 70
    16
  9
$PLIMCHECK
 70
     0
  9
$PEXTMIN
 10
1.0000000000000000E+020
 20
1.0000000000000000E+020
 30
1.0000000000000000E+020
  9
$PEXTMAX
 10
-1.0000000000000000E+020
 20
-1.0000000000000000E+020
 30
-1.0000000000000000E+020
  9
$PLIMMIN
 10
0.0
 20
0.0
  9
$PLIMMAX
 10
420.0
 20
297.0
  9
$UNITMODE
 70
     0
  9
$VISRETAIN
 70
     1
  9
$PLINEGEN
 70
     0
  9
$PSLTSCALE
 70
     1
  0
ENDSEC
  0
SECTION
  2
TABLES
  0
TABLE
  2
VPORT
 70
     1
  0
VPORT
  2
*ACTIVE
 70
     0
 10
0.0
 20
0.0
 11
1.0
 21
1.0
 12
72.428043658661494
 22
21.606988452075509
 13
0.0
 23
0.0
 14
7.0
 24
7.0
 15
7.0
 25
7.0
 16
0.0
 26
0.0
 36
1.0
 17
0.0
 27
0.0
 37
0.0
 40
205.58965239963359
 41
1.4533622559652919
 42
50.0
 43
0.0
 44
0.0
 50
0.0
 51
0.0
 71
     0
 72
  2000
 73
     1
 74
     0
 75
     0
 76
     1
 77
     0
 78
     0
  0
ENDTAB
  0
TABLE
  2
LTYPE
 70
    20
  0
LTYPE
  2
CONTINUOUS
 70
     0
  3
Solid line
 72
    65
 73
     0
 40
0.0
  0
LTYPE
  2
CENTER2
 70
     0
  3
___ _ ___ _ ___ _ ___ _ ___ _ ___ _ ___ _ ___ _
 72
    65
 73
     4
 40
1.125
 49
0.75
 49
-0.125
 49
0.125
 49
-0.125
  0
LTYPE
  2
HIDDEN2
 70
     0
  3
_ _ _ _ _ _ _ _ _ _ _ _ _ _ _ _ _ _ _ _ _ _ _ _
 72
    65
 73
     2
 40
0.1875
 49
0.125
 49
-0.0625
  0
LTYPE
  2
AMCONSTR
 70
     0
  3
_______________________
 72
    65
 73
     2
 40
9999.0
 49
9999.0
 49
0.0
  0
LTYPE
  2
HIDDEN
 70
     0
  3
Hidden __ __ __ __ __ __ __ __ __ __ __ __ __ _
 72
    65
 73
     2
 40
0.375
 49
0.25
 49
-0.125
  0
LTYPE
  2
PHANTOM2
 70
     0
  3
Phantom (.5x) ___ _ _ ___ _ _ ___ _ _ ___ _ _
 72
    65
 73
     6
 40
1.25
 49
0.625
 49
-0.125
 49
0.125
 49
-0.125
 49
0.125
 49
-0.125
  0
LTYPE
  2
CENTER
 70
     0
  3
Center ____ _ ____ _ ____ _ ____ _ ____ _ ____
 72
    65
 73
     4
 40
2.0
 49
1.25
 49
-0.25
 49
0.25
 49
-0.25
  0
LTYPE
  2
AMZIGZAG2
 70
     0
  3
/\/-/\/-/\/-/\/-/\/-/\/
 72
    65
 73
     2
 40
0.4401
 49
0.0001
 49
-0.4400000000000002
  0
LTYPE
  2
ACANSTGB
 70
     0
  3
__ . . __ . .
 72
    65
 73
     6
 40
0.35433070866
 49
0.15748031496
 49
-0.03937007874
 49
0.03937007874
 49
-0.03937007874
 49
0.03937007874
 49
-0.03937007874
  0
LTYPE
  2
ACANSTGL
 70
     0
  3
_ _ _ _ _
 72
    65
 73
     2
 40
0.11811023622
 49
0.07874015748
 49
-0.03937007874
  0
ENDTAB
  0
TABLE
  2
LAYER
 70
     9
  0
LAYER
  2
0
 70
     0
 62
     7
  6
CONTINUOUS
  0
LAYER
  2
240
 70
     0
 62
     4
  6
CONTINUOUS
  0
LAYER
  2
DEFPOINTS
 70
     0
 62
     7
  6
CONTINUOUS
  0
LAYER
  2
245
 70
     0
 62
     2
  6
CENTER2
  0
LAYER
  2
241
 70
     0
 62
   211
  6
CONTINUOUS
  0
LAYER
  2
242
 70
     0
 62
     3
  6
CONTINUOUS
  0
LAYER
  2
243
 70
     0
 62
   211
  6
HIDDEN2
  0
LAYER
  2
247
 70
     0
 62
    60
  6
CONTINUOUS
  0
LAYER
  2
250
 70
     0
 62
     3
  6
CONTINUOUS
  0
ENDTAB
  0
TABLE
  2
STYLE
 70
     7
  0
STYLE
  2
STANDARD
 70
     0
 40
0.0
 41
1.0
 50
0.0
 71
     0
 42
3.0
  3
romans.shx
  4
extfont.shx
  0
STYLE
  2
YOKO
 70
     0
 40
0.0
 41
1.0
 50
0.0
 71
     0
 42
3.0
  3
romans.shx
  4
extfont.shx
  0
STYLE
  2
ACANSGDT
 70
     0
 40
0.0
 41
1.0
 50
0.0
 71
     0
 42
3.0
  3
amgdt.shx
  4

  0
ENDTAB
  0
TABLE
  2
VIEW
 70
     0
  0
ENDTAB
  0
TABLE
  2
UCS
 70
     0
  0
ENDTAB
  0
TABLE
  2
APPID
 70
    40
  0
APPID
  2
ACAD
 70
     0
  0
APPID
  2
ACADANNOTATIVE
 70
     0
  0
APPID
  2
GLOBAL
 70
     0
  0
APPID
  2
DETAIL
 70
     0
  0
APPID
  2
GRPNAME
 70
     0
  0
APPID
  2
GPARA
 70
     0
  0
APPID
  2
MCAD_NO_VIS
 70
     0
  0
APPID
  2
ACAD_TEMP_GRAPHIC
 70
     0
  0
APPID
  2
ACATTRIBSERVICES
 70
     0
  0
APPID
  2
GENIUS_GENSCREG_15
 70
     0
  0
APPID
  2
GENIUS_GENODEF_13
 70
     0
  0
APPID
  2
GENIUS_GENOBJ-N-SDF_13
 70
     0
  0
APPID
  2
GENIUS_GENREC_14
 70
     0
  0
APPID
  2
GENIUS_GENOBJ-N-REC_13
 70
     0
  0
APPID
  2
GENIUS_GENDIMSH_14
 70
     0
  0
APPID
  2
GENIUS_GENOBJ-N-DIM_13
 70
     0
  0
APPID
  2
GENIUS_GENDIM_13
 70
     0
  0
APPID
  2
GENIUS_GENDTOL_13
 70
     0
  0
APPID
  2
GENIUS_GENOLIS_13
 70
     0
  0
APPID
  2
GENIUS_GENOENT_13
 70
     0
  0
APPID
  2
GENIUS_GENOBJ-F-FEM_13
 70
     0
  0
APPID
  2
GENIUS_GENOREF_13
 70
     0
  0
APPID
  2
GENIUS_GEFFEM_13
 70
     0
  0
APPID
  2
GENIUS_GEFFEMP_13
 70
     0
  0
APPID
  2
AD_DRAW
 70
     0
  0
APPID
  2
DESIGNERASSEMBLIES
 70
     0
  0
APPID
  2
ACADM_DIM_EDIT
 70
     0
  0
APPID
  2
AMDT_DM_ADJ
 70
     0
  0
APPID
  2
ITEMNAME
 70
     0
  0
APPID
  2
GENIUS_GENOBJ-N-FIL_13
 70
     0
  0
APPID
  2
GENIUS_GENFIL_13
 70
     0
  0
APPID
  2
GENIUS_GENOBJ-N-CHA_13
 70
     0
  0
APPID
  2
ACAECLAYERSTANDARD
 70
     0
  0
APPID
  2
ACAD_NAV_VCDISPLAY
 70
     0
  0
APPID
  2
ACAD_PSEXT
 70
     0
  0
APPID
  2
ACAD_DSTYLE_DIMJAG
 70
     0
  0
APPID
  2
ACAD_DSTYLE_DIMBREAK
 70
     0
  0
APPID
  2
ACAD_EXEMPT_FROM_CAD_STANDARDS
 70
     0
  0
APPID
  2
ACAD_DSTYLE_DIMINSPECT
 70
     0
  0
APPID
  2
ACAD_MLEADERVER
 70
     0
  0
ENDTAB
  0
TABLE
  2
DIMSTYLE
 70
    16
  0
DIMSTYLE
  2
STANDARD
 70
     0
  3

  4

  5

  6

  7

 40
1.0
 41
0.18
 42
0.0625
 43
0.38
 44
0.18
 45
0.0
 46
0.0
 47
0.0
 48
0.0
140
0.18
141
0.09
142
0.0
143
25.399999999999999
144
1.0
145
0.0
146
1.0
147
0.09
 71
     0
 72
     0
 73
     1
 74
     1
 75
     0
 76
     0
 77
     0
 78
     0
170
     0
171
     2
172
     0
173
     0
174
     0
175
     0
176
     0
177
     0
178
     0
  0
DIMSTYLE
  2
BIGT
 70
     0
  3

  4

  5

  6

  7

 40
1.0
 41
2.2299999999999991
 42
0.5
 43
7.0
 44
1.0
 45
0.0
 46
0.0
 47
0.0
 48
0.01
140
2.799999999999998
141
0.0
142
0.0
143
25.399999999999999
144
1.0
145
0.0
146
1.0
147
1.0
 71
     0
 72
     0
 73
     0
 74
     0
 75
     0
 76
     0
 77
     3
 78
     9
170
     0
171
     2
172
     1
173
     0
174
     1
175
     0
176
   256
177
   256
178
    40
  0
DIMSTYLE
  2
AM_ANSI
 70
     0
  3

  4
mm
  5

  6

  7

 40
1.0
 41
0.12
 42
0.05
 43
0.5
 44
0.1
 45
0.0
 46
0.0
 47
0.1
 48
0.1
140
0.12
141
0.0
142
0.0
143
25.399999999999999
144
1.0
145
0.0
146
0.71
147
0.06
 71
     0
 72
     0
 73
     1
 74
     1
 75
     0
 76
     0
 77
     0
 78
     7
170
     0
171
     2
172
     0
173
     0
174
     0
175
     0
176
   256
177
   256
178
     2
  0
DIMSTYLE
  2
AM_ANSI$3
 70
     0
  3

  4
mm
  5

  6

  7

 40
1.0
 41
0.12
 42
0.05
 43
0.5
 44
0.1
 45
0.0
 46
0.0
 47
0.1
 48
0.1
140
0.12
141
0.0
142
0.0
143
25.399999999999999
144
1.0
145
0.0
146
0.71
147
0.06
 71
     0
 72
     0
 73
     1
 74
     1
 75
     0
 76
     0
 77
     0
 78
     7
170
     0
171
     2
172
     0
173
     0
174
     0
175
     0
176
   256
177
   256
178
     2
  0
DIMSTYLE
  2
AM_ANSI$4
 70
     0
  3

  4
mm
  5

  6

  7

 40
1.0
 41
0.12
 42
0.05
 43
0.5
 44
0.1
 45
0.0
 46
0.0
 47
0.1
 48
0.1
140
0.12
141
0.0
142
0.0
143
25.399999999999999
144
1.0
145
0.0
146
0.71
147
0.06
 71
     0
 72
     0
 73
     1
 74
     1
 75
     0
 76
     0
 77
     0
 78
     7
170
     0
171
     2
172
     0
173
     0
174
     0
175
     0
176
   256
177
   256
178
     2
  0
DIMSTYLE
  2
AM_ANSI$7
 70
     0
  3

  4
mm
  5

  6

  7

 40
1.0
 41
0.12
 42
0.05
 43
0.5
 44
0.1
 45
0.0
 46
0.0
 47
0.1
 48
0.1
140
0.12
141
0.0
142
0.0
143
25.399999999999999
144
1.0
145
0.0
146
0.71
147
0.06
 71
     0
 72
     0
 73
     1
 74
     1
 75
     0
 76
     0
 77
     0
 78
     7
170
     0
171
     2
172
     0
173
     0
174
     0
175
     0
176
   256
177
   256
178
     2
  0
DIMSTYLE
  2
AM_ANSI$SF
 70
     0
  3

  4
mm
  5

  6

  7

 40
1.0
 41
0.12
 42
0.05
 43
0.5
 44
0.1
 45
0.0
 46
0.0
 47
0.1
 48
0.1
140
0.12
141
0.0
142
0.0
143
25.399999999999999
144
1.0
145
0.0
146
0.71
147
0.06
 71
     0
 72
     0
 73
     1
 74
     1
 75
     1
 76
     1
 77
     0
 78
     7
170
     0
171
     2
172
     0
173
     0
174
     0
175
     0
176
   256
177
   256
178
     2
  0
DIMSTYLE
  2
AM_ANSI$SH
 70
     0
  3

  4
mm
  5

  6

  7

 40
1.0
 41
0.12
 42
0.05
 43
0.5
 44
0.1
 45
0.0
 46
0.0
 47
0.1
 48
0.1
140
0.12
141
0.0
142
0.0
143
25.399999999999999
144
1.0
145
0.0
146
0.71
147
0.06
 71
     0
 72
     0
 73
     1
 74
     1
 75
     1
 76
     1
 77
     0
 78
     7
170
     0
171
     2
172
     0
173
     1
174
     0
175
     0
176
   256
177
   256
178
     2
  0
ENDTAB
  0
ENDSEC
  0
SECTION
  2
BLOCKS
  0
BLOCK
  8
0
  2
$MODEL_SPACE
 70
     0
 10
0.0
 20
0.0
 30
0.0
  3
$MODEL_SPACE
  1

  0
ENDBLK
  5
4C80
  8
0
  0
BLOCK
 67
     1
  8
0
  2
$PAPER_SPACE
 70
     0
 10
0.0
 20
0.0
 30
0.0
  3
$PAPER_SPACE
  1

  0
ENDBLK
  5
4C7C
 67
     1
  8
0
  0
BLOCK
  8
0
  2
_OPEN
 70
     0
 10
0.0
 20
0.0
 30
0.0
  3
_OPEN
  1

  0
LINE
  5
3E1A
  8
0
  6
BYBLOCK
 62
     0
 10
-1.0
 20
0.1666666666666666
 30
0.0
 11
0.0
 21
0.0
 31
0.0
  0
LINE
  5
3E1B
  8
0
  6
BYBLOCK
 62
     0
 10
-1.0
 20
-0.1666666666666666
 30
0.0
 11
0.0
 21
0.0
 31
0.0
  0
LINE
  5
3E1C
  8
0
  6
BYBLOCK
 62
     0
 10
0.0
 20
0.0
 30
0.0
 11
-1.0
 21
0.0
 31
0.0
  0
ENDBLK
  5
3E1D
  8
0
  0
BLOCK
  8
0
  2
_ACMFILLEDHALF
 70
     0
 10
0.0
 20
0.0
 30
0.0
  3
_ACMFILLEDHALF
  1

  0
TRACE
  5
4AAD
  8
240
 62
     0
 10
-0.8
 20
0.0
 30
0.0
 11
-1.0
 21
0.166666666
 31
0.0
 12
0.0
 22
0.0
 32
0.0
 13
0.0
 23
0.0
 33
0.0
  0
LINE
  5
4AAE
  8
240
 62
     0
 10
-1.0
 20
0.0
 30
0.0
 11
-0.8
 21
0.0
 31
0.0
  0
ENDBLK
  5
4AAC
  8
0
  0
ENDSEC
  0
SECTION
  2
ENTITIES
  0
LINE
  5
42C4
  8
240
  6
CONTINUOUS
 10
29.000000000000089
 20
52.600200400801967
 30
0.0
 11
29.000000000000089
 21
62.499999999999957
 31
0.0
  0
LINE
  5
42C5
  8
250
  6
CONTINUOUS
 10
-39.201356766065402
 20
-60.283382249222221
 30
0.0
 11
-66.134690099398725
 21
-60.283382249222221
 31
0.0
1001
ITEMNAME
1000
LNSP2
  0
LINE
  5
42C6
  8
240
  6
CONTINUOUS
 10
0.0000000000000305
 20
-62.500000000000419
 30
0.0
 11
0.0000000000000004
 21
-48.134252505009798
 31
0.0
  0
LINE
  5
42C7
  8
240
  6
CONTINUOUS
 10
-0.0000000000000503
 20
62.500000000000227
 30
0.0
 11
16.75240473580833
 21
62.5
 31
0.0
  0
LINE
  5
42C8
  8
241
  6
CONTINUOUS
 10
21.875000000000231
 20
-58.499999999999801
 30
0.0
 11
21.874999999999829
 21
-43.150898020782613
 31
0.0
  0
LINE
  5
42C9
  8
240
  6
CONTINUOUS
 10
23.247595264191599
 20
62.499999999999957
 30
0.0
 11
29.000000000000089
 21
62.499999999999957
 31
0.0
  0
LINE
  5
42CA
  8
240
  6
CONTINUOUS
 10
0.0000000000000305
 20
-62.500000000000419
 30
0.0
 11
16.75240473580833
 21
-62.500000000000071
 31
0.0
  0
LINE
  5
42CB
  8
240
  6
CONTINUOUS
 10
23.247595264191599
 20
-62.500000000000021
 30
0.0
 11
21.87500000000086
 21
-60.122595264193897
 31
0.0
  0
LINE
  5
42CC
  8
240
  6
CONTINUOUS
 10
18.12499999999994
 20
-60.122595264191361
 30
0.0
 11
16.75240473580833
 21
-62.500000000000071
 31
0.0
  0
LINE
  5
42CD
  8
240
  6
CONTINUOUS
 10
21.875000000000231
 20
-58.499999999999801
 30
0.0
 11
18.125000000001648
 21
-58.500000000000043
 31
0.0
  0
LINE
  5
42CE
  8
240
  6
CONTINUOUS
 10
23.247595264191599
 20
-62.500000000000021
 30
0.0
 11
29.000000000000171
 21
-62.499999999999957
 31
0.0
  0
LINE
  5
42CF
  8
240
  6
CONTINUOUS
 10
-62.999999999999858
 20
-44.977939879759028
 30
0.0
 11
-62.99999999999995
 21
-12.509999999999989
 31
0.0
  0
LINE
  5
42D0
  8
240
  6
CONTINUOUS
 10
0.0000000000006723
 20
48.134252505009727
 30
0.0
 11
-62.999999999999858
 21
44.97793987975907
 31
0.0
  0
LINE
  5
42D1
  8
240
  6
CONTINUOUS
 10
-62.999999999999858
 20
12.50999999999998
 30
0.0
 11
-53.499999999999943
 21
12.50999999999998
 31
0.0
  0
ARC
  5
42D2
  8
240
  6
CONTINUOUS
 10
-53.499999999999943
 20
-10.009999999999961
 30
0.0
 40
2.5
 50
270.0
 51
0.0
  0
ARC
  5
42D3
  8
243
  6
HIDDEN2
 10
-46.499999999999858
 20
-10.00999999999997
 30
0.0
 40
2.5
 50
270.0
 51
0.0
  0
LINE
  5
42D4
  8
240
  6
CONTINUOUS
 10
-50.999999999999943
 20
-10.009999999999961
 30
0.0
 11
-51.000000000000043
 21
10.01000000000001
 31
0.0
  0
LINE
  5
42D5
  8
240
  6
CONTINUOUS
 10
-62.999999999999858
 20
12.50999999999998
 30
0.0
 11
-62.999999999999858
 21
44.97793987975907
 31
0.0
  0
LINE
  5
42D6
  8
243
  6
HIDDEN2
 10
-43.999999999999851
 20
-10.009999999999961
 30
0.0
 11
-44.000000000001023
 21
10.01000000000001
 31
0.0
  0
LINE
  5
42D7
  8
240
  6
CONTINUOUS
 10
-62.99999999999995
 20
-12.509999999999989
 30
0.0
 11
-53.499999999999943
 21
-12.509999999999989
 31
0.0
  0
LINE
  5
42D8
  8
243
  6
HIDDEN2
 10
-46.499999999999858
 20
-12.509999999999989
 30
0.0
 11
-53.499999999999858
 21
-12.51000000000011
 31
0.0
  0
LINE
  5
42D9
  8
240
  6
CONTINUOUS
 10
0.0000000000006723
 20
48.134252505009727
 30
0.0
 11
-0.0000000000000503
 21
62.500000000000227
 31
0.0
  0
LINE
  5
42DA
  8
240
  6
CONTINUOUS
 10
0.0000000000000004
 20
-48.134252505009798
 30
0.0
 11
-62.999999999999858
 21
-44.977939879759028
 31
0.0
  0
LINE
  5
42DB
  8
241
  6
CONTINUOUS
 10
10.00000000000011
 20
-12.50000000000003
 30
0.0
 11
29.000000000000121
 21
-12.500000000000091
 31
0.0
  0
LINE
  5
42DC
  8
241
  6
CONTINUOUS
 10
5.000000000000111
 20
-7.5000000000000409
 30
0.0
 11
4.9999999999990878
 21
7.5000000000000409
 31
0.0
  0
ARC
  5
42DD
  8
241
  6
CONTINUOUS
 10
10.00000000000011
 20
-7.5000000000000409
 30
0.0
 40
5.0
 50
180.0
 51
270.0
  0
LINE
  5
42DE
  8
241
  6
CONTINUOUS
 10
10.00000000000011
 20
-39.499999999999943
 30
0.0
 11
29.000000000000171
 21
-39.499999999999979
 31
0.0
  0
LINE
  5
42DF
  8
241
  6
CONTINUOUS
 10
4.9999999999999938
 20
-48.435524153249141
 30
0.0
 11
16.752404735806628
 21
-48.435524153249361
 31
0.0
  0
LINE
  5
42E0
  8
241
  6
CONTINUOUS
 10
4.9999999999999938
 20
-48.435524153249141
 30
0.0
 11
5.000000000000056
 21
-44.499999999999922
 31
0.0
  0
ARC
  5
42E1
  8
241
  6
CONTINUOUS
 10
10.00000000000011
 20
-44.499999999999922
 30
0.0
 40
5.0
 50
90.0
 51
180.0
  0
LINE
  5
42E2
  8
241
  6
CONTINUOUS
 10
21.87500000000006
 20
-39.500000000000192
 30
0.0
 11
21.875000000000071
 21
-12.49999999999992
 31
0.0
  0
LINE
  5
42E3
  8
241
  6
CONTINUOUS
 10
18.125000000000082
 20
-39.500000000000149
 30
0.0
 11
18.125000000000149
 21
-12.499999999999901
 31
0.0
  0
LINE
  5
42E4
  8
241
  6
CONTINUOUS
 10
16.75240473580833
 20
-62.500000000001663
 30
0.0
 11
16.75240473580833
 21
-48.435524153249361
 31
0.0
  0
LINE
  5
42E5
  8
241
  6
CONTINUOUS
 10
23.247595264191599
 20
-62.50000000000162
 30
0.0
 11
23.247595264191599
 21
-48.435524153249361
 31
0.0
  0
LINE
  5
42E6
  8
241
  6
CONTINUOUS
 10
23.247595264191599
 20
-39.500000000000192
 30
0.0
 11
23.247595264191599
 21
-12.49999999999992
 31
0.0
  0
LINE
  5
42E7
  8
241
  6
CONTINUOUS
 10
16.75240473580833
 20
-39.500000000000149
 30
0.0
 11
16.75240473580833
 21
-12.499999999999901
 31
0.0
  0
LINE
  5
42E8
  8
241
  6
CONTINUOUS
 10
18.124999999999488
 20
-43.15089802078289
 30
0.0
 11
21.874999999999829
 21
-43.150898020782613
 31
0.0
  0
LINE
  5
42E9
  8
241
  6
CONTINUOUS
 10
16.75240473580833
 20
-48.435524153249361
 30
0.0
 11
18.124999999999432
 21
-45.326332978763652
 31
0.0
  0
LINE
  5
42EA
  8
241
  6
CONTINUOUS
 10
21.874999999999829
 20
-45.326332978763652
 30
0.0
 11
23.247595264191599
 21
-48.43552415324919
 31
0.0
  0
LINE
  5
42EB
  8
241
  6
CONTINUOUS
 10
23.247595264196089
 20
-48.435524153249361
 30
0.0
 11
29.00000000000006
 21
-48.435524153249197
 31
0.0
  0
LINE
  5
42EC
  8
240
  6
CONTINUOUS
 10
18.125000000000011
 20
-60.122595264191773
 30
0.0
 11
18.125000000001648
 21
-58.500000000000043
 31
0.0
  0
LINE
  5
42ED
  8
241
  6
CONTINUOUS
 10
18.125000000000011
 20
-58.49999999999995
 30
0.0
 11
18.124999999999488
 21
-43.15089802078289
 31
0.0
  0
LINE
  5
42EE
  8
240
  6
CONTINUOUS
 10
21.87500000000086
 20
-60.122595264193897
 30
0.0
 11
21.874999999998359
 21
-58.500000000000043
 31
0.0
  0
LINE
  5
42EF
  8
241
  6
CONTINUOUS
 10
0.0
 20
-47.933851703406397
 30
0.0
 11
0.0
 21
48.134252505009691
 31
0.0
  0
LINE
  5
42F0
  8
240
  6
CONTINUOUS
 10
23.247595264191659
 20
62.5
 30
0.0
 11
21.875000000000909
 21
60.122595264193919
 31
0.0
  0
LINE
  5
42F1
  8
240
  6
CONTINUOUS
 10
18.125
 20
60.122595264191361
 30
0.0
 11
16.752404735808401
 21
62.50000000000005
 31
0.0
  0
LINE
  5
42F2
  8
240
  6
CONTINUOUS
 10
21.875000000000341
 20
58.49999999999978
 30
0.0
 11
18.125000000001702
 21
58.500000000000021
 31
0.0
  0
LINE
  5
42F3
  8
240
  6
CONTINUOUS
 10
18.125000000000082
 20
60.12259526419178
 30
0.0
 11
18.125000000001702
 21
58.500000000000021
 31
0.0
  0
LINE
  5
42F4
  8
240
  6
CONTINUOUS
 10
21.875000000000909
 20
60.122595264193919
 30
0.0
 11
21.874999999998408
 21
58.500000000000007
 31
0.0
  0
LINE
  5
42F5
  8
241
  6
CONTINUOUS
 10
10.00000000000014
 20
12.50000000000003
 30
0.0
 11
29.000000000000121
 21
12.50000000000006
 31
0.0
  0
ARC
  5
42F6
  8
241
  6
CONTINUOUS
 10
10.00000000000011
 20
7.50000000000004
 30
0.0
 40
5.0
 50
90.0
 51
180.0
  0
LINE
  5
42F7
  8
241
  6
CONTINUOUS
 10
21.875000000000071
 20
12.499999999999821
 30
0.0
 11
21.875000000000171
 21
58.49999999999978
 31
0.0
  0
LINE
  5
42F8
  8
241
  6
CONTINUOUS
 10
23.247595264191599
 20
12.499999999999821
 30
0.0
 11
23.24759526419178
 21
62.499999999999957
 31
0.0
  0
LINE
  5
42F9
  8
241
  6
CONTINUOUS
 10
18.125000000000149
 20
12.49999999999979
 30
0.0
 11
18.125000000000231
 21
58.500000000000021
 31
0.0
  0
LINE
  5
42FA
  8
241
  6
CONTINUOUS
 10
16.75240473580833
 20
12.49999999999979
 30
0.0
 11
16.752404735808511
 21
62.5
 31
0.0
  0
ARC
  5
42FB
  8
240
  6
CONTINUOUS
 10
-53.499999999999943
 20
10.01000000000005
 30
0.0
 40
2.5
 50
0.0
 51
90.0
  0
ARC
  5
42FC
  8
243
  6
HIDDEN2
 10
-46.499999999999858
 20
10.01000000000005
 30
0.0
 40
2.5
 50
0.0
 51
90.0
  0
LINE
  5
42FD
  8
243
  6
HIDDEN2
 10
-46.499999999999858
 20
12.51000000000005
 30
0.0
 11
-53.499999999999858
 21
12.510000000000179
 31
0.0
  0
LINE
  5
42FE
  8
240
  6
CONTINUOUS
 10
29.000000000000171
 20
-62.499999999999957
 30
0.0
 11
29.000000000000199
 21
-52.39979959919836
 31
0.0
  0
TEXT
  5
42FF
  8
250
  6
CONTINUOUS
 10
-63.868023432732059
 20
-59.283382249222242
 30
0.0
 40
2.799999999999998
  1
HSK-A125
  7
YOKO
1001
ITEMNAME
1000
LNSP3
  0
POLYLINE
  5
4300
  8
250
  6
CONTINUOUS
 66
     1
 10
0.0
 20
0.0
 30
0.0
1001
ACAD
1000
DSTYLE
1002
{
1070
    41
1040
2.0
1002
}
  0
VERTEX
  5
4301
  8
250
  6
CONTINUOUS
 10
-32.282204286245971
 20
-48.2990586088588
 30
0.0
  0
VERTEX
  5
4302
  8
250
  6
CONTINUOUS
 10
-39.201356766065402
 20
-60.283382249222221
 30
0.0
  0
SEQEND
  5
4303
  8
250
  6
CONTINUOUS
  0
LINE
  5
4304
  8
250
  6
CONTINUOUS
 10
-32.570879420840789
 20
-48.1323919421921
 30
0.0
 11
-31.28220428624596
 21
-46.567007801289918
 31
0.0
  0
LINE
  5
4305
  8
250
  6
CONTINUOUS
 10
-31.993529151651149
 20
-48.465725275525458
 30
0.0
 11
-31.28220428624596
 21
-46.567007801289918
 31
0.0
  0
LINE
  5
4306
  8
250
  6
CONTINUOUS
 10
-31.28220428624596
 20
-46.567007801289918
 30
0.0
 11
-32.282204286245971
 21
-48.2990586088588
 31
0.0
  0
LINE
  5
4307
  8
247
  6
CONTINUOUS
 10
12.00000000000003
 20
-28.25000000007007
 30
0.0
 11
12.00000000000003
 21
-21.55769230803006
 31
0.0
  0
ARC
  5
4308
  8
247
  6
CONTINUOUS
 10
10.25000000007001
 20
-28.25000000007007
 30
0.0
 40
1.7499999999299991
 50
180.0
 51
0.0
  0
ARC
  5
4309
  8
247
  6
CONTINUOUS
 10
10.25000000007006
 20
-21.55769230803006
 30
0.0
 40
1.7499999999299991
 50
0.0
 51
180.0
  0
LINE
  5
430A
  8
247
  6
CONTINUOUS
 10
8.5000000001400977
 20
-27.384615384720039
 30
0.0
 11
11.500000000020041
 21
-28.244851541962049
 31
0.0
  0
LINE
  5
430B
  8
247
  6
CONTINUOUS
 10
9.9230769231600409
 20
-26.484983818335841
 30
0.0
 11
9.9230769231600409
 21
-27.792676125975881
 31
0.0
  0
ARC
  5
430C
  8
247
  6
CONTINUOUS
 10
9.0495986677030071
 20
-26.145143816089821
 30
0.0
 40
0.5538165441895349
 50
72.997889675292413
 51
172.92416621851351
  0
ARC
  5
430D
  8
247
  6
CONTINUOUS
 10
8.9360330444658622
 20
-26.566878323028821
 30
0.0
 40
0.9904354236226808
 50
4.7429368522022131
 51
73.849226273266424
1001
GENIUS_GENOBJ-N-FIL_13
1002
{
1000
OWNER
1000
GEN
1002
}
1001
GENIUS_GENODEF_13
1002
{
1000
HIER
1070
     0
1002
}
1002
{
1000
MANEDIT
1070
     0
1002
}
1002
{
1000
NOSEL
1070
     0
1002
}
1002
{
1000
BEHIND
1070
     0
1002
}
1002
{
1000
OTHER
1070
     0
1002
}
1002
{
1000
REACTOR
1002
}
  0
LINE
  5
430E
  8
247
  6
CONTINUOUS
 10
11.500000000020041
 20
-26.937159234322031
 30
0.0
 11
11.500000000020041
 21
-28.244851541962049
 31
0.0
  0
LINE
  5
430F
  8
247
  6
CONTINUOUS
 10
8.5000000001400977
 20
-27.384615384720039
 30
0.0
 11
8.5000000001400977
 21
-26.076923077080011
 31
0.0
  0
ARC
  5
4310
  8
247
  6
CONTINUOUS
 10
10.482024232665619
 20
-26.560919636546981
 30
0.0
 40
0.5640818586791229
 50
65.990941652528889
 51
172.26344345906909
  0
ARC
  5
4311
  8
247
  6
CONTINUOUS
 10
10.48742903918666
 20
-27.038262685347121
 30
0.0
 40
1.0176059446230981
 50
5.701985164256504
 51
77.277338436822205
1001
GENIUS_GENOBJ-N-FIL_13
1002
{
1000
OWNER
1000
GEN
1002
}
1001
GENIUS_GENODEF_13
1002
{
1000
HIER
1070
     0
1002
}
1002
{
1000
MANEDIT
1070
     0
1002
}
1002
{
1000
NOSEL
1070
     0
1002
}
1002
{
1000
BEHIND
1070
     0
1002
}
1002
{
1000
OTHER
1070
     0
1002
}
1002
{
1000
REACTOR
1002
}
  0
LINE
  5
4312
  8
247
  6
CONTINUOUS
 10
11.500000000020041
 20
-25.283313080542069
 30
0.0
 11
8.5000000001400977
 21
-24.423076923300052
 31
0.0
  0
LINE
  5
4313
  8
247
  6
CONTINUOUS
 10
8.5000000001400977
 20
-22.000000000319989
 30
0.0
 11
8.5000000001400977
 21
-22.56573661945659
 31
0.0
  0
LINE
  5
4314
  8
247
  6
CONTINUOUS
 10
11.500000000020041
 20
-23.461538461800021
 30
0.0
 11
11.500000000020041
 21
-22.84615384644006
 31
0.0
  0
ARC
  5
4315
  8
247
  6
CONTINUOUS
 10
10.5832851359734
 20
-21.708791209122889
 30
0.0
 40
2.2526500823422122
 50
202.3594881415263
 51
254.99324854284609
  0
ARC
  5
4316
  8
247
  6
CONTINUOUS
 10
9.3083126551945607
 20
-22.374069479213251
 30
0.0
 40
0.8906723995727782
 50
94.994589319075374
 51
155.1663289573041
1001
GENIUS_GENOBJ-N-FIL_13
1002
{
1000
OWNER
1000
GEN
1002
}
1001
GENIUS_GENODEF_13
1002
{
1000
HIER
1070
     0
1002
}
1002
{
1000
MANEDIT
1070
     0
1002
}
1002
{
1000
NOSEL
1070
     0
1002
}
1002
{
1000
BEHIND
1070
     0
1002
}
1002
{
1000
OTHER
1070
     0
1002
}
1002
{
1000
REACTOR
1002
}
  0
ARC
  5
4317
  8
247
  6
CONTINUOUS
 10
10.16014588866781
 20
-23.226458886212569
 30
0.0
 40
1.392781735586712
 50
15.846096555780679
 51
82.325137004169122
  0
ARC
  5
4318
  8
247
  6
CONTINUOUS
 10
10.459243431527311
 20
-22.64221272584038
 30
0.0
 40
1.324563662670287
 50
249.7136016704969
 51
321.78874565640581
1001
GENIUS_GENOBJ-N-FIL_13
1002
{
1000
OWNER
1000
GEN
1002
}
1001
GENIUS_GENODEF_13
1002
{
1000
HIER
1070
     0
1002
}
1002
{
1000
MANEDIT
1070
     0
1002
}
1002
{
1000
NOSEL
1070
     0
1002
}
1002
{
1000
BEHIND
1070
     0
1002
}
1002
{
1000
OTHER
1070
     0
1002
}
1002
{
1000
REACTOR
1002
}
  0
LINE
  5
4319
  8
247
  6
CONTINUOUS
 10
10.346153846220011
 20
-22.538461538759989
 30
0.0
 11
10.346153846220011
 21
-21.846153846479989
 31
0.0
  0
LINE
  5
431A
  8
247
  6
CONTINUOUS
 10
8.5000000001399805
 20
-28.25000000007007
 30
0.0
 11
8.5000000001399805
 21
-27.576923077020069
 31
0.0
  0
LINE
  5
431B
  8
241
  6
CONTINUOUS
 10
29.000000000000199
 20
-52.499999999999929
 30
0.0
 11
29.000000000000089
 21
52.500000000000391
 31
0.0
  0
TEXT
  5
431C
  8
241
  6
CONTINUOUS
 10
-71.999999999999659
 20
90.999999999999986
 30
0.0
 40
5.0
  1
HSK-A125-EM1.250-5
  7
YOKO
 11
-71.999999999999659
 21
90.999999999999986
 31
0.0
 73
     1
  0
LINE
  5
4384
  8
240
  6
CONTINUOUS
 10
37.00000000000383
 20
52.49999999999968
 30
0.0
 11
29.00000000000383
 21
52.500000000000227
 31
0.0
  0
LINE
  5
4385
  8
240
  6
CONTINUOUS
 10
29.000000000003951
 20
-52.500000000000099
 30
0.0
 11
37.000000000003851
 21
-52.499999999999957
 31
0.0
  0
LINE
  5
4386
  8
240
  6
CONTINUOUS
 10
37.000000000003851
 20
-52.499999999999957
 30
0.0
 11
37.000000000003702
 21
-39.92500000000004
 31
0.0
  0
LINE
  5
4387
  8
240
  6
CONTINUOUS
 10
37.00000000000383
 20
39.924999999999919
 30
0.0
 11
37.00000000000383
 21
52.49999999999968
 31
0.0
  0
ARC
  5
4388
  8
240
  6
CONTINUOUS
 10
42.000000000003688
 20
-39.92500000000004
 30
0.0
 40
5.0
 50
90.0
 51
180.0
  0
ARC
  5
4389
  8
240
  6
CONTINUOUS
 10
42.000000000003688
 20
39.924999999999869
 30
0.0
 40
5.0
 50
180.0
 51
270.0
  0
LINE
  5
438A
  8
240
  6
CONTINUOUS
 10
117.9000000000036
 20
34.924999999999869
 30
0.0
 11
42.000000000003688
 21
34.924999999999869
 31
0.0
  0
LINE
  5
438B
  8
241
  6
CONTINUOUS
 10
117.9000000000033
 20
34.924999999999848
 30
0.0
 11
117.9000000000033
 21
-34.901479279940041
 31
0.0
  0
LINE
  5
438C
  8
240
  6
CONTINUOUS
 10
127.0000000000033
 20
-25.813740452359198
 30
0.0
 11
127.0000000000033
 21
25.824999999999928
 31
0.0
  0
LINE
  5
438D
  8
240
  6
CONTINUOUS
 10
127.0000000000033
 20
25.824999999999928
 30
0.0
 11
117.9000000000036
 21
34.924999999999869
 31
0.0
  0
LINE
  5
438E
  8
240
  6
CONTINUOUS
 10
117.8764475458002
 20
-34.92500000000004
 30
0.0
 11
42.000000000003688
 21
-34.92500000000004
 31
0.0
  0
LINE
  5
4398
  8
240
  6
CONTINUOUS
 10
127.0000000000033
 20
-25.813740452359198
 30
0.0
 11
117.8764475458002
 21
-34.92500000000004
 31
0.0
  0
LINE
  5
4399
  8
241
  6
CONTINUOUS
 10
37.000000000003702
 20
-39.925000000000097
 30
0.0
 11
37.000000000003702
 21
39.924999999999869
 31
0.0
  0
CIRCLE
  5
43A8
  8
242
  6
CONTINUOUS
 10
98.400000000003374
 20
0.0
 30
0.0
 40
8.8200000000000003
  0
CIRCLE
  5
43A9
  8
241
  6
CONTINUOUS
 10
98.400000000003374
 20
0.0
 30
0.0
 40
9.5250000000000004
  0
CIRCLE
  5
43AA
  8
242
  6
CONTINUOUS
 10
73.000000000003354
 20
0.0
 30
0.0
 40
8.8200000000000003
  0
CIRCLE
  5
43AB
  8
241
  6
CONTINUOUS
 10
73.000000000003354
 20
0.0
 30
0.0
 40
9.5250000000000004
  0
LINE
  5
43AE
  8
243
  6
HIDDEN2
 10
46.600000000000229
 20
15.875
 30
0.0
 11
127.0000000000033
 21
15.875
 31
0.0
  0
LINE
  5
45C3
  8
245
  6
CENTER2
 10
-63.0
 20
0.0
 30
0.0
 11
129.81788810911971
 21
0.0
 31
0.0
  0
LINE
  5
480B
  8
243
  6
HIDDEN2
 10
46.600000000000648
 20
-15.875
 30
0.0
 11
127.0000000000033
 21
-15.875
 31
0.0
  0
LINE
  5
483D
  8
250
  6
CONTINUOUS
 10
118.4000000000036
 20
34.924999999999869
 30
0.0
 11
148.00000000000369
 21
34.924999999999862
 31
0.0
  0
LINE
  5
483E
  8
250
  6
CONTINUOUS
 10
118.3764475458002
 20
-34.92500000000004
 30
0.0
 11
148.00000000000369
 21
-34.925000000000047
 31
0.0
  0
LINE
  5
483F
  8
250
  6
CONTINUOUS
 10
147.00000000000369
 20
32.694999999999858
 30
0.0
 11
147.00000000000369
 21
-32.69500000000005
 31
0.0
  0
LINE
  5
4843
  8
250
  6
CONTINUOUS
 10
127.5000000000033
 20
15.875
 30
0.0
 11
141.34070818874611
 21
15.874999999999989
 31
0.0
  0
LINE
  5
4844
  8
250
  6
CONTINUOUS
 10
127.5000000000033
 20
-15.875
 30
0.0
 11
141.34070818874611
 21
-15.875
 31
0.0
  0
LINE
  5
4845
  8
250
  6
CONTINUOUS
 10
140.34070818874611
 20
13.644999999999991
 30
0.0
 11
140.34070818874611
 21
-13.645
 31
0.0
  0
LINE
  5
4849
  8
250
  6
CONTINUOUS
 10
-0.0000000000000503
 20
63.00000000000022
 30
0.0
 11
-0.0000000000000493
 21
78.100200400801654
 31
0.0
  0
LINE
  5
484A
  8
250
  6
CONTINUOUS
 10
126.9999999999996
 20
26.4252004008017
 30
0.0
 11
126.9999999999996
 21
78.100200400801654
 31
0.0
  0
LINE
  5
484B
  8
250
  6
CONTINUOUS
 10
2.229999999999948
 20
77.100200400801654
 30
0.0
 11
124.7699999999996
 21
77.100200400801654
 31
0.0
  0
TEXT
  5
484F
  8
250
  6
CONTINUOUS
 10
59.299999999999791
 20
78.100200400801654
 30
0.0
 40
2.799999999999998
  1
5.00
  0
LINE
  5
4850
  8
250
  6
CONTINUOUS
 10
124.7699999999996
 20
77.471867067468295
 30
0.0
 11
126.9999999999996
 21
77.100200400801654
 31
0.0
  0
LINE
  5
4851
  8
250
  6
CONTINUOUS
 10
124.7699999999996
 20
76.728533734134984
 30
0.0
 11
126.9999999999996
 21
77.100200400801654
 31
0.0
  0
LINE
  5
4852
  8
250
  6
CONTINUOUS
 10
126.9999999999996
 20
77.100200400801654
 30
0.0
 11
124.7699999999996
 21
77.100200400801654
 31
0.0
  0
LINE
  5
4853
  8
250
  6
CONTINUOUS
 10
2.229999999999948
 20
76.728533734134984
 30
0.0
 11
-0.0000000000000494
 21
77.100200400801654
 31
0.0
  0
LINE
  5
4854
  8
250
  6
CONTINUOUS
 10
2.229999999999948
 20
77.471867067468295
 30
0.0
 11
-0.0000000000000494
 21
77.100200400801654
 31
0.0
  0
LINE
  5
4855
  8
250
  6
CONTINUOUS
 10
-0.0000000000000494
 20
77.100200400801654
 30
0.0
 11
2.229999999999948
 21
77.100200400801654
 31
0.0
  0
TEXT
  5
4856
  8
250
  6
CONTINUOUS
 10
139.34070818874611
 20
-7.2666666666666462
 30
0.0
 40
2.799999999999998
  1
\U+22051.250
 50
90.0
  0
LINE
  5
4857
  8
250
  6
CONTINUOUS
 10
140.71237485541269
 20
-13.645
 30
0.0
 11
140.34070818874611
 21
-15.875
 31
0.0
  0
LINE
  5
4858
  8
250
  6
CONTINUOUS
 10
139.96904152207941
 20
-13.645
 30
0.0
 11
140.34070818874611
 21
-15.875
 31
0.0
  0
LINE
  5
4859
  8
250
  6
CONTINUOUS
 10
140.34070818874611
 20
-15.875
 30
0.0
 11
140.34070818874611
 21
-13.645
 31
0.0
  0
LINE
  5
485A
  8
250
  6
CONTINUOUS
 10
139.96904152207941
 20
13.644999999999991
 30
0.0
 11
140.34070818874611
 21
15.874999999999989
 31
0.0
  0
LINE
  5
485B
  8
250
  6
CONTINUOUS
 10
140.71237485541269
 20
13.644999999999991
 30
0.0
 11
140.34070818874611
 21
15.874999999999989
 31
0.0
  0
LINE
  5
485C
  8
250
  6
CONTINUOUS
 10
140.34070818874611
 20
15.874999999999989
 30
0.0
 11
140.34070818874611
 21
13.644999999999991
 31
0.0
  0
TEXT
  5
485D
  8
250
  6
CONTINUOUS
 10
146.00000000000369
 20
-7.2666666666667288
 30
0.0
 40
2.799999999999998
  1
\U+22052.750
 50
90.0
  0
LINE
  5
485E
  8
250
  6
CONTINUOUS
 10
147.37166666667039
 20
-32.69500000000005
 30
0.0
 11
147.00000000000369
 21
-34.925000000000047
 31
0.0
  0
LINE
  5
485F
  8
250
  6
CONTINUOUS
 10
146.62833333333711
 20
-32.69500000000005
 30
0.0
 11
147.00000000000369
 21
-34.925000000000047
 31
0.0
  0
LINE
  5
4860
  8
250
  6
CONTINUOUS
 10
147.00000000000369
 20
-34.925000000000047
 30
0.0
 11
147.00000000000369
 21
-32.69500000000005
 31
0.0
  0
LINE
  5
4861
  8
250
  6
CONTINUOUS
 10
146.62833333333711
 20
32.694999999999858
 30
0.0
 11
147.00000000000369
 21
34.924999999999862
 31
0.0
  0
LINE
  5
4862
  8
250
  6
CONTINUOUS
 10
147.37166666667039
 20
32.694999999999858
 30
0.0
 11
147.00000000000369
 21
34.924999999999862
 31
0.0
  0
LINE
  5
4863
  8
250
  6
CONTINUOUS
 10
147.00000000000369
 20
34.924999999999862
 30
0.0
 11
147.00000000000369
 21
32.694999999999858
 31
0.0
  0
LINE
  5
4B47
  8
250
  6
CONTINUOUS
 10
127.0000000000033
 20
26.324999999999928
 30
0.0
 11
127.0000000000033
 21
71.0
 31
0.0
  0
LINE
  5
4B48
  8
250
  6
CONTINUOUS
 10
46.600000000000229
 20
16.375
 30
0.0
 11
46.600000000000229
 21
71.0
 31
0.0
  0
LINE
  5
4B49
  8
250
  6
CONTINUOUS
 10
124.77000000000329
 20
70.0
 30
0.0
 11
48.830000000000233
 21
70.0
 31
0.0
  0
TEXT
  5
4B4F
  8
250
  6
CONTINUOUS
 10
82.133333333335074
 20
71.000000000000014
 30
0.0
 40
2.799999999999998
  1
3.16
  0
LINE
  5
4B50
  8
250
  6
CONTINUOUS
 10
48.830000000000233
 20
69.62833333333333
 30
0.0
 11
46.600000000000229
 21
70.0
 31
0.0
  0
LINE
  5
4B51
  8
250
  6
CONTINUOUS
 10
48.830000000000233
 20
70.37166666666667
 30
0.0
 11
46.600000000000229
 21
70.0
 31
0.0
  0
LINE
  5
4B52
  8
250
  6
CONTINUOUS
 10
46.600000000000229
 20
70.0
 30
0.0
 11
48.830000000000233
 21
70.0
 31
0.0
  0
LINE
  5
4B53
  8
250
  6
CONTINUOUS
 10
124.77000000000329
 20
70.37166666666667
 30
0.0
 11
127.0000000000033
 21
70.0
 31
0.0
  0
LINE
  5
4B54
  8
250
  6
CONTINUOUS
 10
124.77000000000329
 20
69.62833333333333
 30
0.0
 11
127.0000000000033
 21
70.0
 31
0.0
  0
LINE
  5
4B55
  8
250
  6
CONTINUOUS
 10
127.0000000000033
 20
70.0
 30
0.0
 11
124.77000000000329
 21
70.0
 31
0.0
  0
POLYLINE
  5
4B9C
  8
241
  6
CONTINUOUS
 66
     1
 10
0.0
 20
0.0
 30
0.0
 70
     1
  0
VERTEX
  5
4C02
  8
241
  6
CONTINUOUS
 10
68.237500000003351
 20
-2.7496306570155902
 30
0.0
  0
VERTEX
  5
4C03
  8
241
  6
CONTINUOUS
 10
73.000000000003354
 20
-5.4992613140311883
 30
0.0
  0
VERTEX
  5
4C04
  8
241
  6
CONTINUOUS
 10
77.762500000003342
 20
-2.7496306570155991
 30
0.0
  0
VERTEX
  5
4C05
  8
241
  6
CONTINUOUS
 10
77.762500000003342
 20
2.749630657015584
 30
0.0
  0
VERTEX
  5
4C06
  8
241
  6
CONTINUOUS
 10
73.000000000003354
 20
5.4992613140311883
 30
0.0
  0
VERTEX
  5
4C07
  8
241
  6
CONTINUOUS
 10
68.237500000003351
 20
2.7496306570155999
 30
0.0
  0
SEQEND
  5
4C08
  8
241
  6
CONTINUOUS
  0
POLYLINE
  5
4B9D
  8
241
  6
CONTINUOUS
 66
     1
 10
0.0
 20
0.0
 30
0.0
 70
     1
  0
VERTEX
  5
4C09
  8
241
  6
CONTINUOUS
 10
93.637500000003357
 20
-2.7496306570155902
 30
0.0
  0
VERTEX
  5
4C0A
  8
241
  6
CONTINUOUS
 10
98.400000000003374
 20
-5.4992613140311883
 30
0.0
  0
VERTEX
  5
4C0B
  8
241
  6
CONTINUOUS
 10
103.16250000000331
 20
-2.7496306570155991
 30
0.0
  0
VERTEX
  5
4C0C
  8
241
  6
CONTINUOUS
 10
103.16250000000331
 20
2.749630657015584
 30
0.0
  0
VERTEX
  5
4C0D
  8
241
  6
CONTINUOUS
 10
98.400000000003374
 20
5.4992613140311883
 30
0.0
  0
VERTEX
  5
4C0E
  8
241
  6
CONTINUOUS
 10
93.637500000003357
 20
2.7496306570155999
 30
0.0
  0
SEQEND
  5
4C0F
  8
241
  6
CONTINUOUS
  0
VIEWPORT
  5
22
 67
     1
  8
0
 10
261.51769911504419
 20
148.5
 30
0.0
 40
523.0353982300885
 41
297.0
 68
     1
 69
     1
1001
ACAD
1000
MVIEW
1002
{
1070
    16
1010
0.0
1020
0.0
1030
0.0
1010
0.0
1020
0.0
1030
1.0
1040
0.0
1040
297.0
1040
261.51769911504419
1040
148.5
1040
50.0
1040
0.0
1040
0.0
1070
     0
1070
   100
1070
     1
1070
     1
1070
     0
1070
     0
1070
     0
1070
     0
1040
0.0
1040
0.0
1040
0.0
1040
1.0
1040
1.0
1040
10.0
1040
10.0
1070
     0
1002
{
1002
}
1002
}
1001
GENIUS_GENODEF_13
1002
{
1000
HIER
1070
     0
1002
}
1002
{
1000
MANEDIT
1070
     0
1002
}
1002
{
1000
NOSEL
1070
     0
1002
}
1002
{
1000
BEHIND
1070
     0
1002
}
1002
{
1000
OTHER
1070
     0
1002
}
1002
{
1000
REACTOR
1002
}
1001
GENIUS_GENOBJ-N-SDF_13
1002
{
1000
OWNER
1000
GEN
1002
}
1001
GENIUS_GENSCREG_15
1000
PF
1040
1.0
1000
DF
1040
1.0
1000
MIN
1011
0.0
1021
0.0
1031
0.0
1021
0.0
1031
0.0
1000
MAX
1011
523.0353982300885
1021
0.0
1031
0.0
1021
297.0
1031
0.0
1000
FLAGS
1070
     4
  0
ENDSEC
  0
EOF
