  0
SECTION
  2
HEADER
  9
$ACADVER
  1
AC1009
  9
$INSBASE
 10
0.0
 20
0.0
 30
0.0
  9
$EXTMIN
 10
-59.886950190495213
 20
-50.012555687010597
 30
-0.0000000000112498
  9
$EXTMAX
 10
186.73958713666681
 20
89.003587058476555
 30
0.0000000000002956
  9
$LIMMIN
 10
0.0
 20
0.0
  9
$LIMMAX
 10
297.0
 20
210.0
  9
$ORTHOMODE
 70
     1
  9
$REGENMODE
 70
     1
  9
$FILLMODE
 70
     1
  9
$QTEXTMODE
 70
     0
  9
$MIRRTEXT
 70
     1
  9
$DRAGMODE
 70
     2
  9
$LTSCALE
 40
10.0
  9
$OSMODE
 70
    47
  9
$ATTMODE
 70
     1
  9
$TEXTSIZE
 40
3.0
  9
$TRACEWID
 40
1.0
  9
$TEXTSTYLE
  7
YOKO
  9
$CLAYER
  8
240
  9
$CELTYPE
  6
BYLAYER
  9
$CECOLOR
 62
   256
  9
$DIMSCALE
 40
1.0
  9
$DIMASZ
 40
2.2299999999999991
  9
$DIMEXO
 40
0.5
  9
$DIMDLI
 40
7.0
  9
$DIMRND
 40
0.0
  9
$DIMDLE
 40
0.0
  9
$DIMEXE
 40
1.0
  9
$DIMTP
 40
0.0
  9
$DIMTM
 40
0.01
  9
$DIMTXT
 40
2.799999999999998
  9
$DIMCEN
 40
0.0
  9
$DIMTSZ
 40
0.0
  9
$DIMTOL
 70
     0
  9
$DIMLIM
 70
     0
  9
$DIMTIH
 70
     0
  9
$DIMTOH
 70
     0
  9
$DIMSE1
 70
     0
  9
$DIMSE2
 70
     0
  9
$DIMTAD
 70
     3
  9
$DIMZIN
 70
     9
  9
$DIMBLK
  1
OPEN
  9
$DIMASO
 70
     1
  9
$DIMSHO
 70
     1
  9
$DIMPOST
  1

  9
$DIMAPOST
  1

  9
$DIMALT
 70
     0
  9
$DIMALTD
 70
     2
  9
$DIMALTF
 40
25.399999999999999
  9
$DIMLFAC
 40
1.0
  9
$DIMTOFL
 70
     1
  9
$DIMTVP
 40
0.0
  9
$DIMTIX
 70
     1
  9
$DIMSOXD
 70
     0
  9
$DIMSAH
 70
     0
  9
$DIMBLK1
  1

  9
$DIMBLK2
  1

  9
$DIMSTYLE
  2
BIGT
  9
$DIMCLRD
 70
   256
  9
$DIMCLRE
 70
   256
  9
$DIMCLRT
 70
    40
  9
$DIMTFAC
 40
1.0
  9
$DIMGAP
 40
1.0
  9
$LUNITS
 70
     2
  9
$LUPREC
 70
     3
  9
$SKETCHINC
 40
1.0
  9
$FILLETRAD
 40
0.0
  9
$AUNITS
 70
     0
  9
$AUPREC
 70
     3
  9
$MENU
  1
.
  9
$ELEVATION
 40
0.0
  9
$PELEVATION
 40
0.0
  9
$THICKNESS
 40
0.0
  9
$LIMCHECK
 70
     0
  9
$BLIPMODE
 70
     0
  9
$CHAMFERA
 40
0.25
  9
$CHAMFERB
 40
0.25
  9
$SKPOLY
 70
     0
  9
$TDCREATE
 40
2455799.607334224
  9
$TDUPDATE
 40
2457673.6733374661
  9
$TDINDWG
 40
0.0248856944
  9
$TDUSRTIMER
 40
0.0248856481
  9
$USRTIMER
 70
     1
  9
$ANGBASE
 50
0.0
  9
$ANGDIR
 70
     0
  9
$PDMODE
 70
     1
  9
$PDSIZE
 40
0.0
  9
$PLINEWID
 40
0.0
  9
$COORDS
 70
     1
  9
$SPLFRAME
 70
     0
  9
$SPLINETYPE
 70
     6
  9
$SPLINESEGS
 70
     4
  9
$ATTDIA
 70
     1
  9
$ATTREQ
 70
     1
  9
$HANDLING
 70
     1
  9
$HANDSEED
  5
2688
  9
$SURFTAB1
 70
     6
  9
$SURFTAB2
 70
     6
  9
$SURFTYPE
 70
     6
  9
$SURFU
 70
     6
  9
$SURFV
 70
     6
  9
$UCSNAME
  2

  9
$UCSORG
 10
0.0
 20
0.0
 30
0.0
  9
$UCSXDIR
 10
1.0
 20
0.0
 30
0.0
  9
$UCSYDIR
 10
0.0
 20
1.0
 30
0.0
  9
$PUCSNAME
  2

  9
$PUCSORG
 10
0.0
 20
0.0
 30
0.0
  9
$PUCSXDIR
 10
1.0
 20
0.0
 30
0.0
  9
$PUCSYDIR
 10
0.0
 20
1.0
 30
0.0
  9
$USERI1
 70
     1
  9
$USERI2
 70
     0
  9
$USERI3
 70
     0
  9
$USERI4
 70
     0
  9
$USERI5
 70
     0
  9
$USERR1
 40
0.0
  9
$USERR2
 40
0.0
  9
$USERR3
 40
0.0
  9
$USERR4
 40
0.0
  9
$USERR5
 40
0.0
  9
$WORLDVIEW
 70
     1
  9
$SHADEDGE
 70
     3
  9
$SHADEDIF
 70
    70
  9
$TILEMODE
 70
     1
  9
$MAXACTVP
 70
    16
  9
$PLIMCHECK
 70
     0
  9
$PEXTMIN
 10
1.0000000000000000E+020
 20
1.0000000000000000E+020
 30
1.0000000000000000E+020
  9
$PEXTMAX
 10
-1.0000000000000000E+020
 20
-1.0000000000000000E+020
 30
-1.0000000000000000E+020
  9
$PLIMMIN
 10
0.0
 20
0.0
  9
$PLIMMAX
 10
420.0
 20
297.0
  9
$UNITMODE
 70
     0
  9
$VISRETAIN
 70
     1
  9
$PLINEGEN
 70
     0
  9
$PSLTSCALE
 70
     1
  0
ENDSEC
  0
SECTION
  2
TABLES
  0
TABLE
  2
VPORT
 70
     1
  0
VPORT
  2
*ACTIVE
 70
     0
 10
0.0
 20
0.0
 11
1.0
 21
1.0
 12
63.426318473085807
 22
19.495515685732979
 13
0.0
 23
0.0
 14
7.0
 24
7.0
 15
7.0
 25
7.0
 16
0.0
 26
0.0
 36
1.0
 17
0.0
 27
0.0
 37
0.0
 40
163.3030710528794
 41
1.516648764769065
 42
50.0
 43
0.0
 44
0.0
 50
0.0
 51
0.0
 71
     0
 72
  2000
 73
     1
 74
     0
 75
     0
 76
     0
 77
     0
 78
     0
  0
ENDTAB
  0
TABLE
  2
LTYPE
 70
    16
  0
LTYPE
  2
CONTINUOUS
 70
     0
  3
Solid line
 72
    65
 73
     0
 40
0.0
  0
LTYPE
  2
CENTER2
 70
     0
  3
___ _ ___ _ ___ _ ___ _ ___ _ ___ _ ___ _ ___ _
 72
    65
 73
     4
 40
1.125
 49
0.75
 49
-0.125
 49
0.125
 49
-0.125
  0
LTYPE
  2
HIDDEN2
 70
     0
  3
_ _ _ _ _ _ _ _ _ _ _ _ _ _ _ _ _ _ _ _ _ _ _ _
 72
    65
 73
     2
 40
0.1875
 49
0.125
 49
-0.0625
  0
LTYPE
  2
PHANTOM2
 70
     0
  3
___ _ _ ___ _ _ ___ _ _ ___ _ _ ___ _ _ ___ _ _
 72
    65
 73
     6
 40
1.25
 49
0.625
 49
-0.125
 49
0.125
 49
-0.125
 49
0.125
 49
-0.125
  0
LTYPE
  2
CENTER
 70
     0
  3
____ _ ____ _ ____ _ ____ _ ____ _ ____ _ ____ 
 72
    65
 73
     4
 40
2.0
 49
1.25
 49
-0.25
 49
0.25
 49
-0.25
  0
LTYPE
  2
AMCONSTR
 70
     0
  3
_______________________
 72
    65
 73
     2
 40
9999.0
 49
9999.0
 49
0.0
  0
LTYPE
  2
HIDDEN
 70
     0
  3
Hidden __ __ __ __ __ __ __ __ __ __ __ __ __ _
 72
    65
 73
     2
 40
9.5249999999999986
 49
6.349999999999997
 49
-3.174999999999998
  0
LTYPE
  2
AMZIGZAG2
 70
     0
  3
/\/-/\/-/\/-/\/-/\/-/\/
 72
    65
 73
     2
 40
0.4401
 49
0.0001
 49
-0.4400000000000002
  0
LTYPE
  2
ACANSTGB
 70
     0
  3
__ . . __ . .
 72
    65
 73
     6
 40
0.35433070866
 49
0.15748031496
 49
-0.03937007874
 49
0.03937007874
 49
-0.03937007874
 49
0.03937007874
 49
-0.03937007874
  0
LTYPE
  2
ACANSTGL
 70
     0
  3
_ _ _ _ _
 72
    65
 73
     2
 40
0.11811023622
 49
0.07874015748
 49
-0.03937007874
  0
ENDTAB
  0
TABLE
  2
LAYER
 70
     8
  0
LAYER
  2
0
 70
     0
 62
     7
  6
CONTINUOUS
  0
LAYER
  2
240
 70
     0
 62
     4
  6
CONTINUOUS
  0
LAYER
  2
DEFPOINTS
 70
     0
 62
     7
  6
CONTINUOUS
  0
LAYER
  2
245
 70
     0
 62
     2
  6
CENTER2
  0
LAYER
  2
241
 70
     0
 62
   211
  6
CONTINUOUS
  0
LAYER
  2
243
 70
     0
 62
   211
  6
HIDDEN2
  0
LAYER
  2
250
 70
     0
 62
     3
  6
CONTINUOUS
  0
LAYER
  2
247
 70
     0
 62
    60
  6
CONTINUOUS
  0
ENDTAB
  0
TABLE
  2
STYLE
 70
     6
  0
STYLE
  2
STANDARD
 70
     0
 40
0.0
 41
1.0
 50
0.0
 71
     0
 42
3.0
  3
romans.shx
  4
extfont.shx
  0
STYLE
  2
YOKO
 70
     0
 40
0.0
 41
1.0
 50
0.0
 71
     0
 42
3.0
  3
romans.shx
  4
extfont.shx
  0
STYLE
  2
ACANSGDT
 70
     0
 40
0.0
 41
1.0
 50
0.0
 71
     0
 42
3.0
  3
amgdt.shx
  4

  0
ENDTAB
  0
TABLE
  2
VIEW
 70
     0
  0
ENDTAB
  0
TABLE
  2
UCS
 70
     0
  0
ENDTAB
  0
TABLE
  2
APPID
 70
    43
  0
APPID
  2
ACAD
 70
     0
  0
APPID
  2
ACADANNOTATIVE
 70
     0
  0
APPID
  2
GLOBAL
 70
     0
  0
APPID
  2
DETAIL
 70
     0
  0
APPID
  2
GRPNAME
 70
     0
  0
APPID
  2
GPARA
 70
     0
  0
APPID
  2
MCAD_NO_VIS
 70
     0
  0
APPID
  2
ACAD_TEMP_GRAPHIC
 70
     0
  0
APPID
  2
ACATTRIBSERVICES
 70
     0
  0
APPID
  2
GENIUS_GENSCREG_15
 70
     0
  0
APPID
  2
GENIUS_GENODEF_13
 70
     0
  0
APPID
  2
GENIUS_GENOBJ-N-SDF_13
 70
     0
  0
APPID
  2
GENIUS_GENREC_14
 70
     0
  0
APPID
  2
GENIUS_GENOBJ-N-REC_13
 70
     0
  0
APPID
  2
GENIUS_GENDIMSH_14
 70
     0
  0
APPID
  2
GENIUS_GENOBJ-N-DIM_13
 70
     0
  0
APPID
  2
GENIUS_GENDIM_13
 70
     0
  0
APPID
  2
GENIUS_GENDTOL_13
 70
     0
  0
APPID
  2
GENIUS_GENOLIS_13
 70
     0
  0
APPID
  2
GENIUS_GENOENT_13
 70
     0
  0
APPID
  2
GENIUS_GENOBJ-F-FEM_13
 70
     0
  0
APPID
  2
GENIUS_GENOREF_13
 70
     0
  0
APPID
  2
GENIUS_GEFFEM_13
 70
     0
  0
APPID
  2
GENIUS_GEFFEMP_13
 70
     0
  0
APPID
  2
AD_DRAW
 70
     0
  0
APPID
  2
DESIGNERASSEMBLIES
 70
     0
  0
APPID
  2
ACADM_DIM_EDIT
 70
     0
  0
APPID
  2
AMDT_DM_ADJ
 70
     0
  0
APPID
  2
GENIUS_GENOBJ-N-FIL_13
 70
     0
  0
APPID
  2
GENIUS_GENFIL_13
 70
     0
  0
APPID
  2
GENIUS_GENOBJ-N-CHA_13
 70
     0
  0
APPID
  2
GENIUS_GENOBJ-N-CRS_13
 70
     0
  0
APPID
  2
ITEMNAME
 70
     0
  0
APPID
  2
ACAD_DSTYLE_DIMJAG
 70
     0
  0
APPID
  2
ACAD_DSTYLE_DIMBREAK
 70
     0
  0
APPID
  2
ACAD_NAV_VCDISPLAY
 70
     0
  0
APPID
  2
ACAECLAYERSTANDARD
 70
     0
  0
APPID
  2
ACAD_PSEXT
 70
     0
  0
APPID
  2
ACAD_MLEADERVER
 70
     0
  0
APPID
  2
ACAD_DSTYLE_DIMARC_LENGTH_
 70
     0
  0
APPID
  2
ACAD_DSTYLE_DIM_LINETYPE
 70
     0
  0
APPID
  2
ACAD_DSTYLE_DIM_EXT1_LINETYPE
 70
     0
  0
APPID
  2
ACAD_DSTYLE_DIM_EXT2_LINETYPE
 70
     0
  0
ENDTAB
  0
TABLE
  2
DIMSTYLE
 70
     9
  0
DIMSTYLE
  2
STANDARD
 70
     0
  3

  4

  5

  6

  7

 40
1.0
 41
0.18
 42
0.0625
 43
0.38
 44
0.18
 45
0.0
 46
0.0
 47
0.0
 48
0.0
140
0.18
141
0.09
142
0.0
143
25.399999999999999
144
1.0
145
0.0
146
1.0
147
0.09
 71
     0
 72
     0
 73
     1
 74
     1
 75
     0
 76
     0
 77
     0
 78
     0
170
     0
171
     2
172
     0
173
     0
174
     0
175
     0
176
     0
177
     0
178
     0
  0
DIMSTYLE
  2
BIGT
 70
     0
  3

  4

  5

  6

  7

 40
1.0
 41
2.2299999999999991
 42
0.5
 43
7.0
 44
1.0
 45
0.0
 46
0.0
 47
0.0
 48
0.01
140
2.799999999999998
141
0.0
142
0.0
143
25.399999999999999
144
1.0
145
0.0
146
1.0
147
1.0
 71
     0
 72
     0
 73
     0
 74
     0
 75
     0
 76
     0
 77
     3
 78
     9
170
     0
171
     2
172
     1
173
     0
174
     1
175
     0
176
   256
177
   256
178
    40
  0
DIMSTYLE
  2
AM_ANSI
 70
     0
  3

  4
mm
  5

  6

  7

 40
1.0
 41
0.12
 42
0.05
 43
0.5
 44
0.1
 45
0.0
 46
0.0
 47
0.1
 48
0.1
140
0.12
141
0.0
142
0.0
143
25.399999999999999
144
1.0
145
0.0
146
0.71
147
0.06
 71
     0
 72
     0
 73
     1
 74
     1
 75
     0
 76
     0
 77
     0
 78
     7
170
     0
171
     2
172
     0
173
     0
174
     0
175
     0
176
   256
177
   256
178
     2
  0
DIMSTYLE
  2
AM_ANSI$3
 70
     0
  3

  4
mm
  5

  6

  7

 40
1.0
 41
0.12
 42
0.05
 43
0.5
 44
0.1
 45
0.0
 46
0.0
 47
0.1
 48
0.1
140
0.12
141
0.0
142
0.0
143
25.399999999999999
144
1.0
145
0.0
146
0.71
147
0.06
 71
     0
 72
     0
 73
     1
 74
     1
 75
     0
 76
     0
 77
     0
 78
     7
170
     0
171
     2
172
     0
173
     0
174
     0
175
     0
176
   256
177
   256
178
     2
  0
DIMSTYLE
  2
AM_ANSI$4
 70
     0
  3

  4
mm
  5

  6

  7

 40
1.0
 41
0.12
 42
0.05
 43
0.5
 44
0.1
 45
0.0
 46
0.0
 47
0.1
 48
0.1
140
0.12
141
0.0
142
0.0
143
25.399999999999999
144
1.0
145
0.0
146
0.71
147
0.06
 71
     0
 72
     0
 73
     1
 74
     1
 75
     0
 76
     0
 77
     0
 78
     7
170
     0
171
     2
172
     0
173
     0
174
     0
175
     0
176
   256
177
   256
178
     2
  0
DIMSTYLE
  2
AM_ANSI$7
 70
     0
  3

  4
mm
  5

  6

  7

 40
1.0
 41
0.12
 42
0.05
 43
0.5
 44
0.1
 45
0.0
 46
0.0
 47
0.1
 48
0.1
140
0.12
141
0.0
142
0.0
143
25.399999999999999
144
1.0
145
0.0
146
0.71
147
0.06
 71
     0
 72
     0
 73
     1
 74
     1
 75
     0
 76
     0
 77
     0
 78
     7
170
     0
171
     2
172
     0
173
     0
174
     0
175
     0
176
   256
177
   256
178
     2
  0
DIMSTYLE
  2
AM_ANSI$SF
 70
     0
  3

  4
mm
  5

  6

  7

 40
1.0
 41
0.12
 42
0.05
 43
0.5
 44
0.1
 45
0.0
 46
0.0
 47
0.1
 48
0.1
140
0.12
141
0.0
142
0.0
143
25.399999999999999
144
1.0
145
0.0
146
0.71
147
0.06
 71
     0
 72
     0
 73
     1
 74
     1
 75
     1
 76
     1
 77
     0
 78
     7
170
     0
171
     2
172
     0
173
     0
174
     0
175
     0
176
   256
177
   256
178
     2
  0
DIMSTYLE
  2
AM_ANSI$SH
 70
     0
  3

  4
mm
  5

  6

  7

 40
1.0
 41
0.12
 42
0.05
 43
0.5
 44
0.1
 45
0.0
 46
0.0
 47
0.1
 48
0.1
140
0.12
141
0.0
142
0.0
143
25.399999999999999
144
1.0
145
0.0
146
0.71
147
0.06
 71
     0
 72
     0
 73
     1
 74
     1
 75
     1
 76
     1
 77
     0
 78
     7
170
     0
171
     2
172
     0
173
     1
174
     0
175
     0
176
   256
177
   256
178
     2
  0
ENDTAB
  0
ENDSEC
  0
SECTION
  2
BLOCKS
  0
BLOCK
  8
0
  2
$MODEL_SPACE
 70
     0
 10
0.0
 20
0.0
 30
0.0
  3
$MODEL_SPACE
  1

  0
ENDBLK
  5
2550
  8
0
  0
BLOCK
 67
     1
  8
0
  2
$PAPER_SPACE
 70
     0
 10
0.0
 20
0.0
 30
0.0
  3
$PAPER_SPACE
  1

  0
ENDBLK
  5
254C
 67
     1
  8
0
  0
BLOCK
  8
0
  2
_OPEN
 70
     0
 10
0.0
 20
0.0
 30
0.0
  3
_OPEN
  1

  0
LINE
  5
1A64
  8
0
  6
BYBLOCK
 62
     0
 10
-1.0
 20
0.1666666666666666
 30
0.0
 11
0.0
 21
0.0
 31
0.0
  0
LINE
  5
1A65
  8
0
  6
BYBLOCK
 62
     0
 10
-1.0
 20
-0.1666666666666666
 30
0.0
 11
0.0
 21
0.0
 31
0.0
  0
LINE
  5
1A66
  8
0
  6
BYBLOCK
 62
     0
 10
0.0
 20
0.0
 30
0.0
 11
-1.0
 21
0.0
 31
0.0
  0
ENDBLK
  5
1A67
  8
0
  0
BLOCK
  8
0
  2
_ACMFILLEDHALF
 70
     0
 10
0.0
 20
0.0
 30
0.0
  3
_ACMFILLEDHALF
  1

  0
TRACE
  5
1C02
  8
240
 62
     0
 10
-0.8
 20
0.0
 30
0.0
 11
-1.0
 21
0.166666666
 31
0.0
 12
0.0
 22
0.0
 32
0.0
 13
0.0
 23
0.0
 33
0.0
  0
LINE
  5
1C03
  8
240
 62
     0
 10
-1.0
 20
0.0
 30
0.0
 11
-0.8
 21
0.0
 31
0.0
  0
ENDBLK
  5
1C01
  8
0
  0
BLOCK
  8
0
  2
*U6
 70
     1
 10
0.0
 20
0.0
 30
0.0
  3
*U6
  1

  0
TEXT
  5
260B
  8
250
 10
130.85564274666851
 20
58.058988270682249
 30
0.0
 40
2.799999999999998
  1
MGT36
  7
YOKO
  0
ENDBLK
  5
260C
  8
0
  0
ENDSEC
  0
SECTION
  2
ENTITIES
  0
TEXT
  5
1631
  8
241
  6
CONTINUOUS
 10
-48.716877975853997
 20
84.0
 30
0.0
 40
5.0
  1
HSK-A100-MGT36-165
  7
YOKO
  0
LINE
  5
1930
  8
250
  6
CONTINUOUS
 10
0.0
 20
50.5
 30
0.0
 11
0.0000000000000013
 21
71.0
 31
0.0
  0
LINE
  5
1931
  8
250
  6
CONTINUOUS
 10
165.0000000000054
 20
44.168273184818283
 30
0.0
 11
165.0000000000054
 21
71.0
 31
0.0
  0
LINE
  5
1932
  8
250
  6
CONTINUOUS
 10
2.2299999999999991
 20
70.0
 30
0.0
 11
162.77000000000541
 21
70.0
 31
0.0
  0
LINE
  5
1936
  8
250
  6
CONTINUOUS
 10
152.50000000002331
 20
47.000000000001819
 30
0.0
 11
185.23348456276199
 21
47.000000000001812
 31
0.0
  0
LINE
  5
1937
  8
250
  6
CONTINUOUS
 10
152.5000000000301
 20
-47.0
 30
0.0
 11
185.23348456276199
 21
-47.000000000001833
 31
0.0
  0
LINE
  5
1938
  8
250
  6
CONTINUOUS
 10
184.23348456276199
 20
44.770000000001808
 30
0.0
 11
184.23348456276199
 21
-44.770000000001829
 31
0.0
  0
TEXT
  5
1942
  8
250
  6
CONTINUOUS
 10
78.300000000002697
 20
71.0
 30
0.0
 40
2.799999999999998
  1
165
  0
LINE
  5
1943
  8
250
  6
CONTINUOUS
 10
162.77000000000541
 20
70.37166666666667
 30
0.0
 11
165.0000000000054
 21
70.0
 31
0.0
  0
LINE
  5
1944
  8
250
  6
CONTINUOUS
 10
162.77000000000541
 20
69.62833333333333
 30
0.0
 11
165.0000000000054
 21
70.0
 31
0.0
  0
LINE
  5
1945
  8
250
  6
CONTINUOUS
 10
165.0000000000054
 20
70.0
 30
0.0
 11
162.77000000000541
 21
70.0
 31
0.0
  0
LINE
  5
1946
  8
250
  6
CONTINUOUS
 10
2.2299999999999991
 20
69.62833333333333
 30
0.0
 11
0.0000000000000013
 21
70.0
 31
0.0
  0
LINE
  5
1947
  8
250
  6
CONTINUOUS
 10
2.2299999999999991
 20
70.37166666666667
 30
0.0
 11
0.0000000000000013
 21
70.0
 31
0.0
  0
LINE
  5
1948
  8
250
  6
CONTINUOUS
 10
0.0000000000000013
 20
70.0
 30
0.0
 11
2.2299999999999991
 21
70.0
 31
0.0
  0
TEXT
  5
1949
  8
250
  6
CONTINUOUS
 10
183.23348456276199
 20
-3.8666666666666401
 30
0.0
 40
2.799999999999998
  1
\U+220594
 50
90.0
  0
LINE
  5
194A
  8
250
  6
CONTINUOUS
 10
184.6051512294286
 20
-44.770000000001829
 30
0.0
 11
184.23348456276199
 21
-47.000000000001833
 31
0.0
  0
LINE
  5
194B
  8
250
  6
CONTINUOUS
 10
183.86181789609529
 20
-44.770000000001829
 30
0.0
 11
184.23348456276199
 21
-47.000000000001833
 31
0.0
  0
LINE
  5
194C
  8
250
  6
CONTINUOUS
 10
184.23348456276199
 20
-47.000000000001833
 30
0.0
 11
184.23348456276199
 21
-44.770000000001829
 31
0.0
  0
LINE
  5
194D
  8
250
  6
CONTINUOUS
 10
183.86181789609529
 20
44.770000000001808
 30
0.0
 11
184.23348456276199
 21
47.000000000001812
 31
0.0
  0
LINE
  5
194E
  8
250
  6
CONTINUOUS
 10
184.6051512294286
 20
44.770000000001808
 30
0.0
 11
184.23348456276199
 21
47.000000000001812
 31
0.0
  0
LINE
  5
194F
  8
250
  6
CONTINUOUS
 10
184.23348456276199
 20
47.000000000001812
 30
0.0
 11
184.23348456276199
 21
44.770000000001808
 31
0.0
  0
LINE
  5
1C21
  8
240
  6
CONTINUOUS
 10
45.000000000003347
 20
46.999999999996767
 30
0.0
 11
152.5000000000299
 21
47.00000000000005
 31
0.0
  0
LINE
  5
1C22
  8
240
  6
CONTINUOUS
 10
45.000000000003347
 20
-46.999999999996781
 30
0.0
 11
152.5000000000301
 21
-47.0
 31
0.0
  0
LINE
  5
1C24
  8
240
  6
CONTINUOUS
 10
165.0000000000054
 20
-43.6506350946132
 30
0.0
 11
165.00000000000171
 21
43.650635094614167
 31
0.0
  0
LINE
  5
1C26
  8
240
  6
CONTINUOUS
 10
152.5000000000301
 20
-47.0
 30
0.0
 11
165.0000000000054
 21
-43.6506350946132
 31
0.0
  0
LINE
  5
1C27
  8
241
  6
CONTINUOUS
 10
140.0000000000073
 20
-46.79999999999972
 30
0.0
 11
139.99999999994901
 21
46.79999999999972
 31
0.0
  0
LINE
  5
1C2A
  8
240
  6
CONTINUOUS
 10
152.5000000000299
 20
47.00000000000005
 30
0.0
 11
165.00000000000171
 21
43.650635094614167
 31
0.0
  0
LINE
  5
1C2D
  8
245
  6
CENTER2
 10
-54.037127732462167
 20
0.0
 30
0.0
 11
172.23348356276199
 21
0.0
 31
0.0
  0
LINE
  5
1C2F
  8
241
  6
CONTINUOUS
 10
120.200000000008
 20
-47.0
 30
0.0
 11
120.200000000008
 21
47.0
 31
0.0
  0
LINE
  5
1C30
  8
241
  6
CONTINUOUS
 10
121.8000000000138
 20
-47.0
 30
0.0
 11
121.8000000000138
 21
47.0
 31
0.0
  0
LINE
  5
1C31
  8
241
  6
CONTINUOUS
 10
117.200000000008
 20
-47.0
 30
0.0
 11
117.200000000008
 21
47.0
 31
0.0
  0
LINE
  5
1C32
  8
241
  6
CONTINUOUS
 10
118.80000000000651
 20
-46.999999999998181
 30
0.0
 11
118.80000000000651
 21
46.999999999998167
 31
0.0
  0
LINE
  5
1C34
  8
240
  6
CONTINUOUS
 10
29.0
 20
-42.5
 30
0.0
 11
45.000000000004597
 21
-42.5
 31
0.0
  0
LINE
  5
1C35
  8
240
  6
CONTINUOUS
 10
29.0
 20
42.5
 30
0.0
 11
45.000000000004597
 21
42.5
 31
0.0
  0
LINE
  5
1C36
  8
241
  6
CONTINUOUS
 10
45.000000000004597
 20
42.5
 30
0.0
 11
45.000000000028109
 21
-42.5
 31
0.0
  0
LINE
  5
1C38
  8
241
  6
CONTINUOUS
 10
152.50000000003081
 20
-46.869438942770557
 30
0.0
 11
152.50000000002731
 21
46.86943894277146
 31
0.0
  0
LINE
  5
1C43
  8
241
  6
CONTINUOUS
 10
29.0
 20
42.5
 30
0.0
 11
29.0
 21
-42.5
 31
0.0
1001
GRPNAME
1000
PASTMD07
  0
LINE
  5
1C98
  8
240
  6
CONTINUOUS
 10
45.000000000004597
 20
42.5
 30
0.0
 11
45.000000000003347
 21
46.999999999996767
 31
0.0
  0
LINE
  5
1C99
  8
240
  6
CONTINUOUS
 10
45.000000000004597
 20
-42.5
 30
0.0
 11
45.000000000003347
 21
-46.999999999996781
 31
0.0
  0
LINE
  5
1CB3
  8
245
  6
CENTER2
 10
99.000000000002288
 20
16.999999999999179
 30
0.0
 11
98.999999999999986
 21
50.70098556160535
 31
0.0
1001
GENIUS_GENOREF_13
1005
1CB9
  0
LINE
  5
1CB4
  8
243
  6
HIDDEN2
 10
74.000000000004448
 20
19.999999999998781
 30
0.0
 11
156.00000000000361
 21
20.00000000000011
 31
0.0
  0
LINE
  5
1CB5
  8
243
  6
HIDDEN2
 10
165.00000000000469
 20
27.199999999995772
 30
0.0
 11
156.0000000000048
 21
27.199999999995772
 31
0.0
  0
LINE
  5
1CB6
  8
243
  6
HIDDEN2
 10
74.000000000003652
 20
-19.999999999995161
 30
0.0
 11
156.00000000000281
 21
-19.999999999999751
 31
0.0
  0
LINE
  5
1CB7
  8
243
  6
HIDDEN2
 10
165.00000000000361
 20
-27.199999999995772
 30
0.0
 11
156.00000000000369
 21
-27.199999999995409
 31
0.0
  0
LINE
  5
1CB8
  8
243
  6
HIDDEN2
 10
156.0000000000025
 20
-27.199999999995409
 30
0.0
 11
156.00000000000469
 21
27.199999999995772
 31
0.0
  0
POINT
  5
1CB9
  8
0
 10
-12520.215656037741
 20
-819.74271395610708
 30
0.0
1001
GENIUS_GENOLIS_13
1002
{
1000
ENT
1005
0
1005
0
1005
1CB3
1005
0
1002
}
1001
GENIUS_GENOENT_13
1002
{
1000
MYREF
1005
1CB9
1002
}
1002
{
1000
GRP
1005
0
1002
}
1001
GENIUS_GENOBJ-N-CRS_13
1002
{
1000
OWNER
1000
GEN
1002
}
1001
GENIUS_GENODEF_13
1002
{
1000
HIER
1070
    10
1002
}
1002
{
1000
MANEDIT
1070
     1
1002
}
1002
{
1000
NOSEL
1070
     0
1002
}
1002
{
1000
BEHIND
1070
     0
1002
}
1002
{
1000
OTHER
1070
     0
1002
}
1002
{
1000
REACTOR
1002
}
  0
ARC
  5
1D14
  8
243
  6
HIDDEN2
 10
-9.4966925428961986
 20
-19.49999999999995
 30
0.0
 40
11.99999999805476
 50
270.00000005784239
 51
321.92687672764129
1001
GRPNAME
1000
PASTMD0M
  0
LINE
  5
1D15
  8
243
  6
HIDDEN2
 10
-9.4966925428961986
 20
-31.499999999999961
 30
0.0
 11
-27.11662432702553
 21
-31.499999999999961
 31
0.0
1001
GRPNAME
1000
PASTMD0M
  0
LINE
  5
1D16
  8
243
  6
HIDDEN2
 10
-30.003375672974471
 20
-26.499999999999961
 30
0.0
 11
-50.0
 21
-26.499999999999961
 31
0.0
1001
GRPNAME
1000
PASTMD0M
  0
LINE
  5
1D17
  8
243
  6
HIDDEN2
 10
-30.003375672974471
 20
-26.499999999999961
 30
0.0
 11
-27.11662432702553
 21
-31.499999999999961
 31
0.0
1001
GRPNAME
1000
PASTMD0M
  0
LINE
  5
1D18
  8
243
  6
HIDDEN2
 10
-35.0
 20
-36.249999999999957
 30
0.0
 11
-35.0
 21
-26.499999999999961
 31
0.0
1001
GRPNAME
1000
PASTMD0M
  0
LINE
  5
1D19
  8
243
  6
HIDDEN2
 10
4.999999999999087
 20
-49.999999999999957
 30
0.0
 11
4.999999999999087
 21
-43.99999999999995
 31
0.0
1001
GRPNAME
1000
PASTMD0M
  0
LINE
  5
1D1A
  8
243
  6
HIDDEN2
 10
28.999999999999091
 20
-43.99999999999995
 30
0.0
 11
4.999999999999087
 21
-43.99999999999995
 31
0.0
1001
GRPNAME
1000
PASTMD0M
  0
ARC
  5
1D1B
  8
243
  6
HIDDEN2
 10
-9.4966925428961986
 20
19.500000000000039
 30
0.0
 40
11.999999998054779
 50
38.073123330214379
 51
90.0
1001
GRPNAME
1000
PASTMD0M
  0
LINE
  5
1D1C
  8
243
  6
HIDDEN2
 10
-9.4966925428961986
 20
31.49999999805555
 30
0.0
 11
-27.116624326987509
 21
31.500000000065921
 31
0.0
1001
GRPNAME
1000
PASTMD0M
  0
LINE
  5
1D1D
  8
243
  6
HIDDEN2
 10
-40.0
 20
26.500000000000039
 30
0.0
 11
-40.0
 21
36.00000000000005
 31
0.0
1001
GRPNAME
1000
PASTMD0M
  0
LINE
  5
1D1E
  8
243
  6
HIDDEN2
 10
-30.003375672974471
 20
26.500000000000039
 30
0.0
 11
-27.116624326987509
 21
31.500000000065921
 31
0.0
1001
GRPNAME
1000
PASTMD0M
  0
LINE
  5
1D1F
  8
243
  6
HIDDEN2
 10
-30.003375672974471
 20
26.500000000000039
 30
0.0
 11
-50.0
 21
26.500000000000039
 31
0.0
1001
GRPNAME
1000
PASTMD0M
  0
LINE
  5
1D20
  8
241
  6
CONTINUOUS
 10
23.24759526419075
 20
-49.999999999999957
 30
0.0
 11
23.24759526419075
 21
31.500000000000039
 31
0.0
1001
GRPNAME
1000
PASTMD0M
  0
LINE
  5
1D21
  8
241
  6
CONTINUOUS
 10
16.752404735808341
 20
-49.999999999999957
 30
0.0
 11
16.752404735807659
 21
31.500000000000039
 31
0.0
1001
GRPNAME
1000
PASTMD0M
  0
LINE
  5
1D22
  8
243
  6
HIDDEN2
 10
4.999999999999087
 20
44.000000000000021
 30
0.0
 11
4.999999999999087
 21
50.000000000000021
 31
0.0
1001
GRPNAME
1000
PASTMD0M
  0
LINE
  5
1D23
  8
243
  6
HIDDEN2
 10
28.999999999999091
 20
44.000000000000021
 30
0.0
 11
4.999999999999087
 21
44.000000000000021
 31
0.0
1001
GRPNAME
1000
PASTMD0M
  0
LINE
  5
1D24
  8
240
  6
CONTINUOUS
 10
16.752404735808341
 20
-49.999999999999957
 30
0.0
 11
0.0
 21
-49.999999999999957
 31
0.0
1001
GRPNAME
1000
PASTMD0M
  0
LINE
  5
1D25
  8
240
  6
CONTINUOUS
 10
28.999999999999091
 20
-49.999999999999957
 30
0.0
 11
23.24759526419075
 21
-49.999999999999957
 31
0.0
1001
GRPNAME
1000
PASTMD0M
  0
LINE
  5
1D26
  8
240
  6
CONTINUOUS
 10
18.125
 20
-47.622595264191602
 30
0.0
 11
16.752404735808341
 21
-49.999999999999957
 31
0.0
1001
GRPNAME
1000
PASTMD0M
  0
LINE
  5
1D27
  8
240
  6
CONTINUOUS
 10
21.87499999999908
 20
-47.622595264191602
 30
0.0
 11
23.24759526419075
 21
-49.999999999999957
 31
0.0
1001
GRPNAME
1000
PASTMD0M
  0
LINE
  5
1D28
  8
241
  6
CONTINUOUS
 10
21.874999999999151
 20
31.500000000000039
 30
0.0
 11
21.87499999999898
 21
-45.999999999999957
 31
0.0
1001
GRPNAME
1000
PASTMD0M
  0
LINE
  5
1D29
  8
240
  6
CONTINUOUS
 10
21.874999999998799
 20
-45.999999999999957
 30
0.0
 11
21.87499999999908
 21
-47.622595264191602
 31
0.0
1001
GRPNAME
1000
PASTMD0M
  0
LINE
  5
1D2A
  8
240
  6
CONTINUOUS
 10
21.874999999998799
 20
-45.999999999999957
 30
0.0
 11
18.124999999999702
 21
-45.999999999999957
 31
0.0
1001
GRPNAME
1000
PASTMD0M
  0
LINE
  5
1D2B
  8
241
  6
CONTINUOUS
 10
18.12500000000006
 20
31.500000000000039
 30
0.0
 11
18.124999999999879
 21
-45.999999999999957
 31
0.0
1001
GRPNAME
1000
PASTMD0M
  0
LINE
  5
1D2C
  8
240
  6
CONTINUOUS
 10
18.124999999999702
 20
-45.999999999999957
 30
0.0
 11
18.125
 21
-47.622595264191602
 31
0.0
1001
GRPNAME
1000
PASTMD0M
  0
LINE
  5
1D2D
  8
240
  6
CONTINUOUS
 10
0.0
 20
-49.999999999999957
 30
0.0
 11
0.0
 21
-37.999999999999602
 31
0.0
1001
GRPNAME
1000
PASTMD0M
  0
LINE
  5
1D2E
  8
241
  6
CONTINUOUS
 10
0.0
 20
-37.999999999999602
 30
0.0
 11
0.0000000000000284
 21
37.999999999999673
 31
0.0
1001
GRPNAME
1000
PASTMD0M
  0
LINE
  5
1D2F
  8
245
  6
CENTER2
 10
-15.0
 20
-37.899999999999601
 30
0.0
 11
-15.0
 21
-29.577193358162571
 31
0.0
1001
GRPNAME
1000
PASTMD0M
  0
LINE
  5
1D30
  8
245
  6
CENTER2
 10
-15.0
 20
29.577193358162489
 30
0.0
 11
-15.0
 21
37.899999999999679
 31
0.0
1001
GRPNAME
1000
PASTMD0M
  0
LINE
  5
1D31
  8
243
  6
HIDDEN2
 10
-9.0000000000000568
 20
-37.549999999999621
 30
0.0
 11
-9.0
 21
-31.48971627984352
 31
0.0
1001
GRPNAME
1000
PASTMD0M
  0
LINE
  5
1D32
  8
243
  6
HIDDEN2
 10
-9.0
 20
31.489716279843648
 30
0.0
 11
-9.0
 21
37.54999999999967
 31
0.0
1001
GRPNAME
1000
PASTMD0M
  0
LINE
  5
1D33
  8
243
  6
HIDDEN2
 10
-21.0
 20
-36.949999999999669
 30
0.0
 11
-21.0
 21
-31.499999999999961
 31
0.0
1001
GRPNAME
1000
PASTMD0M
  0
LINE
  5
1D34
  8
243
  6
HIDDEN2
 10
-21.0
 20
31.499999999368061
 30
0.0
 11
-21.0
 21
36.949999999999747
 31
0.0
1001
GRPNAME
1000
PASTMD0M
  0
LINE
  5
1D35
  8
240
  6
CONTINUOUS
 10
0.0
 20
-37.999999999999602
 30
0.0
 11
-50.0
 21
-35.49999999999973
 31
0.0
1001
GRPNAME
1000
PASTMD0M
  0
LINE
  5
1D36
  8
240
  6
CONTINUOUS
 10
28.999999999999091
 20
-49.999999999999957
 30
0.0
 11
28.999999999999091
 21
-42.499999999998792
 31
0.0
1001
GRPNAME
1000
PASTMD0M
  0
ARC
  5
1D38
  8
241
  6
CONTINUOUS
 10
14.636897857918941
 20
28.8297566260715
 30
0.0
 40
10.0
 50
90.0
 51
164.51272597362981
  0
LINE
  5
1D39
  8
241
  6
CONTINUOUS
 10
4.999999999999087
 20
31.500000000000039
 30
0.0
 11
28.999999999999091
 21
31.500000000000039
 31
0.0
  0
LINE
  5
1D3A
  8
241
  6
CONTINUOUS
 10
18.124999999999321
 20
33.50000000000005
 30
0.0
 11
18.124999999999702
 21
46.000000000000043
 31
0.0
1001
GRPNAME
1000
PASTMD0M
  0
LINE
  5
1D3B
  8
241
  6
CONTINUOUS
 10
18.124999999999321
 20
33.50000000000005
 30
0.0
 11
21.874999999999321
 21
33.50000000000005
 31
0.0
  0
LINE
  5
1D3C
  8
241
  6
CONTINUOUS
 10
21.874999999999321
 20
33.50000000000005
 30
0.0
 11
21.874999999999321
 21
46.000000000000043
 31
0.0
1001
GRPNAME
1000
PASTMD0M
  0
LINE
  5
1D3D
  8
241
  6
CONTINUOUS
 10
16.752404735807659
 20
38.8297566260715
 30
0.0
 11
16.752404735807659
 21
50.000000000000021
 31
0.0
1001
GRPNAME
1000
PASTMD0M
  0
LINE
  5
1D3E
  8
241
  6
CONTINUOUS
 10
23.24759526419075
 20
38.8297566260715
 30
0.0
 11
23.24759526419075
 21
50.000000000000021
 31
0.0
1001
GRPNAME
1000
PASTMD0M
  0
LINE
  5
1D3F
  8
241
  6
CONTINUOUS
 10
18.124999999999321
 20
36.45235189026338
 30
0.0
 11
16.752404735807879
 21
38.8297566260715
 31
0.0
  0
LINE
  5
1D40
  8
241
  6
CONTINUOUS
 10
21.874999999999321
 20
36.452351890263621
 30
0.0
 11
23.24759526419075
 21
38.8297566260715
 31
0.0
  0
LINE
  5
1D41
  8
241
  6
CONTINUOUS
 10
14.636897857918941
 20
38.8297566260715
 30
0.0
 11
16.752404735807659
 21
38.8297566260715
 31
0.0
  0
LINE
  5
1D42
  8
241
  6
CONTINUOUS
 10
23.24759526419075
 20
38.8297566260715
 30
0.0
 11
28.999999999999091
 21
38.8297566260715
 31
0.0
  0
LINE
  5
1D43
  8
240
  6
CONTINUOUS
 10
16.752404735808341
 20
50.000000000000021
 30
0.0
 11
0.0
 21
50.000000000000021
 31
0.0
1001
GRPNAME
1000
PASTMD0M
  0
LINE
  5
1D44
  8
240
  6
CONTINUOUS
 10
28.999999999999091
 20
50.000000000000021
 30
0.0
 11
23.24759526419075
 21
50.000000000000021
 31
0.0
1001
GRPNAME
1000
PASTMD0M
  0
LINE
  5
1D45
  8
240
  6
CONTINUOUS
 10
18.125
 20
47.622595264191702
 30
0.0
 11
16.752404735808341
 21
50.000000000000021
 31
0.0
1001
GRPNAME
1000
PASTMD0M
  0
LINE
  5
1D46
  8
240
  6
CONTINUOUS
 10
21.87499999999908
 20
47.622595264191702
 30
0.0
 11
23.24759526419075
 21
50.000000000000021
 31
0.0
1001
GRPNAME
1000
PASTMD0M
  0
LINE
  5
1D47
  8
240
  6
CONTINUOUS
 10
21.874999999998799
 20
46.000000000000043
 30
0.0
 11
21.87499999999908
 21
47.622595264191702
 31
0.0
1001
GRPNAME
1000
PASTMD0M
  0
LINE
  5
1D48
  8
240
  6
CONTINUOUS
 10
21.874999999998799
 20
46.000000000000043
 30
0.0
 11
18.124999999999702
 21
46.000000000000043
 31
0.0
1001
GRPNAME
1000
PASTMD0M
  0
LINE
  5
1D49
  8
240
  6
CONTINUOUS
 10
18.124999999999702
 20
46.000000000000043
 30
0.0
 11
18.125
 21
47.622595264191702
 31
0.0
1001
GRPNAME
1000
PASTMD0M
  0
LINE
  5
1D4A
  8
240
  6
CONTINUOUS
 10
-50.0
 20
35.499999999999829
 30
0.0
 11
-50.0
 21
-35.49999999999973
 31
0.0
1001
GRPNAME
1000
PASTMD0M
  0
LINE
  5
1D4B
  8
240
  6
CONTINUOUS
 10
0.0
 20
50.000000000000021
 30
0.0
 11
0.0
 21
37.999999999999673
 31
0.0
1001
GRPNAME
1000
PASTMD0M
  0
LINE
  5
1D4C
  8
240
  6
CONTINUOUS
 10
0.0
 20
37.999999999999673
 30
0.0
 11
-50.0
 21
35.499999999999829
 31
0.0
1001
GRPNAME
1000
PASTMD0M
  0
LINE
  5
1D4D
  8
240
  6
CONTINUOUS
 10
28.999999999999091
 20
50.000000000000021
 30
0.0
 11
28.999999999999091
 21
42.499999999998877
 31
0.0
1001
GRPNAME
1000
PASTMD0M
  0
LINE
  5
1D4E
  8
247
  6
CONTINUOUS
 10
9.9999999999999432
 20
-26.250000000070049
 30
0.0
 11
9.9999999999999432
 21
-19.557692308030042
 31
0.0
  0
ARC
  5
1D4F
  8
247
  6
CONTINUOUS
 10
8.2500000000699174
 20
-26.250000000070049
 30
0.0
 40
1.7499999999299991
 50
180.0
 51
0.0
  0
ARC
  5
1D50
  8
247
  6
CONTINUOUS
 10
8.2500000000699174
 20
-19.557692308030042
 30
0.0
 40
1.7499999999299991
 50
0.0
 51
180.0
  0
LINE
  5
1D51
  8
247
  6
CONTINUOUS
 10
6.5000000001399449
 20
-25.384615384720021
 30
0.0
 11
9.5000000000199538
 21
-26.244851541962039
 31
0.0
  0
LINE
  5
1D52
  8
247
  6
CONTINUOUS
 10
7.9230769231599529
 20
-24.484983818335841
 30
0.0
 11
7.9230769231599529
 21
-25.792676125975859
 31
0.0
  0
ARC
  5
1D53
  8
247
  6
CONTINUOUS
 10
7.0495986677029201
 20
-24.145143816089799
 30
0.0
 40
0.5538165441895349
 50
72.99788967529534
 51
172.92416621851359
  0
ARC
  5
1D54
  8
247
  6
CONTINUOUS
 10
6.936033044465713
 20
-24.566878323028799
 30
0.0
 40
0.9904354236226808
 50
4.7429368522022122
 51
73.849226273266424
1001
GENIUS_GENOBJ-N-FIL_13
1002
{
1000
OWNER
1000
GEN
1002
}
1001
GENIUS_GENODEF_13
1002
{
1000
HIER
1070
     0
1002
}
1002
{
1000
MANEDIT
1070
     0
1002
}
1002
{
1000
NOSEL
1070
     0
1002
}
1002
{
1000
BEHIND
1070
     0
1002
}
1002
{
1000
OTHER
1070
     0
1002
}
1002
{
1000
REACTOR
1002
}
  0
LINE
  5
1D55
  8
247
  6
CONTINUOUS
 10
9.5000000000199538
 20
-24.937159234322021
 30
0.0
 11
9.5000000000199538
 21
-26.244851541962039
 31
0.0
  0
LINE
  5
1D56
  8
247
  6
CONTINUOUS
 10
6.5000000001399449
 20
-25.384615384720021
 30
0.0
 11
6.5000000001399449
 21
-24.07692307708
 31
0.0
  0
ARC
  5
1D57
  8
247
  6
CONTINUOUS
 10
8.4820242326654807
 20
-24.560919636546959
 30
0.0
 40
0.5640818586791229
 50
65.990941652528889
 51
172.26344345906909
  0
ARC
  5
1D58
  8
247
  6
CONTINUOUS
 10
8.4874290391865088
 20
-25.03826268534711
 30
0.0
 40
1.0176059446230981
 50
5.7019851642564632
 51
77.277338436822191
1001
GENIUS_GENOBJ-N-FIL_13
1002
{
1000
OWNER
1000
GEN
1002
}
1001
GENIUS_GENODEF_13
1002
{
1000
HIER
1070
     0
1002
}
1002
{
1000
MANEDIT
1070
     0
1002
}
1002
{
1000
NOSEL
1070
     0
1002
}
1002
{
1000
BEHIND
1070
     0
1002
}
1002
{
1000
OTHER
1070
     0
1002
}
1002
{
1000
REACTOR
1002
}
  0
LINE
  5
1D59
  8
247
  6
CONTINUOUS
 10
9.5000000000199538
 20
-23.28331308054204
 30
0.0
 11
6.5000000001399449
 21
-22.42307692330003
 31
0.0
  0
LINE
  5
1D5A
  8
247
  6
CONTINUOUS
 10
6.5000000001399449
 20
-20.000000000319989
 30
0.0
 11
6.5000000001399449
 21
-20.56573661945659
 31
0.0
  0
LINE
  5
1D5B
  8
247
  6
CONTINUOUS
 10
9.5000000000199538
 20
-21.4615384618
 30
0.0
 11
9.5000000000199538
 21
-20.846153846440028
 31
0.0
  0
ARC
  5
1D5C
  8
247
  6
CONTINUOUS
 10
8.5832851359733127
 20
-19.708791209122879
 30
0.0
 40
2.2526500823422122
 50
202.3594881415259
 51
254.99324854284609
  0
ARC
  5
1D5D
  8
247
  6
CONTINUOUS
 10
7.3083126551944702
 20
-20.37406947921324
 30
0.0
 40
0.8906723995727782
 50
94.994589319075374
 51
155.1663289573039
1001
GENIUS_GENOBJ-N-FIL_13
1002
{
1000
OWNER
1000
GEN
1002
}
1001
GENIUS_GENODEF_13
1002
{
1000
HIER
1070
     0
1002
}
1002
{
1000
MANEDIT
1070
     0
1002
}
1002
{
1000
NOSEL
1070
     0
1002
}
1002
{
1000
BEHIND
1070
     0
1002
}
1002
{
1000
OTHER
1070
     0
1002
}
1002
{
1000
REACTOR
1002
}
  0
ARC
  5
1D5E
  8
247
  6
CONTINUOUS
 10
8.1601458886677278
 20
-21.226458886212601
 30
0.0
 40
1.392781735586712
 50
15.8460965557808
 51
82.325137004169122
  0
ARC
  5
1D5F
  8
247
  6
CONTINUOUS
 10
8.4592434315272271
 20
-20.642212725840359
 30
0.0
 40
1.324563662670287
 50
249.7136016704969
 51
321.78874565640632
1001
GENIUS_GENOBJ-N-FIL_13
1002
{
1000
OWNER
1000
GEN
1002
}
1001
GENIUS_GENODEF_13
1002
{
1000
HIER
1070
     0
1002
}
1002
{
1000
MANEDIT
1070
     0
1002
}
1002
{
1000
NOSEL
1070
     0
1002
}
1002
{
1000
BEHIND
1070
     0
1002
}
1002
{
1000
OTHER
1070
     0
1002
}
1002
{
1000
REACTOR
1002
}
  0
LINE
  5
1D60
  8
247
  6
CONTINUOUS
 10
8.3461538462199201
 20
-20.538461538759989
 30
0.0
 11
8.3461538462199201
 21
-19.846153846479989
 31
0.0
  0
LINE
  5
1D61
  8
250
  6
CONTINUOUS
 10
-32.935905670000011
 20
-48.713341000781
 30
0.0
 11
-59.86923900000005
 21
-48.713341000781
 31
0.0
1001
ITEMNAME
1000
LNSP2
  0
TEXT
  5
1D62
  8
250
  6
CONTINUOUS
 10
-57.602572333333342
 20
-47.713341000780993
 30
0.0
 40
2.799999999999998
  1
HSK-A100
  7
YOKO
1001
ITEMNAME
1000
LNSP3
1001
ACAD
1000
MTEXTBEGIN
1070
    73
1070
     1
1070
    44
1040
1.0
1070
    74
1070
     0
1000
MTEXTEND
  0
LINE
  5
1D63
  8
250
  6
CONTINUOUS
 10
-27.000000001057909
 20
-38.432050807739088
 30
0.0
 11
-32.935905670000011
 21
-48.713341000781
 31
0.0
1001
ACAD
1000
DSTYLE
1002
{
1070
     6
1000
OPEN
1070
    41
1040
2.0
1070
    42
1040
2.0
1070
    44
1040
2.0
1070
   140
1040
4.0
1070
   343
1005
0
1002
}
  0
LINE
  5
1D64
  8
250
  6
CONTINUOUS
 10
-27.288675135550928
 20
-38.265384140896131
 30
0.0
 11
-26.0
 21
-36.700000000780967
 31
0.0
  0
LINE
  5
1D65
  8
250
  6
CONTINUOUS
 10
-26.71132486656489
 20
-38.598717474582067
 30
0.0
 11
-26.0
 21
-36.700000000780967
 31
0.0
  0
LINE
  5
1D66
  8
250
  6
CONTINUOUS
 10
-26.0
 20
-36.700000000780967
 30
0.0
 11
-27.000000001057909
 21
-38.432050807739088
 31
0.0
  0
LINE
  5
1D67
  8
247
  6
CONTINUOUS
 10
6.5000000001398881
 20
-26.250000000070049
 30
0.0
 11
6.5000000001398881
 21
-25.576923077020052
 31
0.0
  0
LINE
  5
2621
  8
250
  6
CONTINUOUS
 10
162.69264300473381
 20
46.17957314147246
 30
0.0
 11
161.40396787000171
 21
44.614189000683233
 31
0.0
  0
LINE
  5
2622
  8
250
  6
CONTINUOUS
 10
162.11529273557341
 20
46.512906474856408
 30
0.0
 11
161.40396787000171
 21
44.614189000683233
 31
0.0
  0
LINE
  5
2623
  8
250
  6
CONTINUOUS
 10
161.40396787000171
 20
44.614189000683233
 30
0.0
 11
162.40396787015359
 21
46.34623980816442
 31
0.0
  0
POLYLINE
  5
2624
  8
250
  6
CONTINUOUS
 66
     1
 10
0.0
 20
0.0
 30
0.0
1001
ACAD
1000
DSTYLE
1002
{
1070
     6
1000
OPEN
1070
    41
1040
2.0
1070
    42
1040
2.0
1070
    44
1040
2.0
1070
    79
1070
     2
1070
   140
1040
4.0
1070
   179
1070
     3
1070
   371
1070
    -1
1070
   372
1070
    -1
1002
}
  0
VERTEX
  5
2625
  8
250
  6
CONTINUOUS
 10
162.40396787015359
 20
46.34623980816442
 30
0.0
  0
VERTEX
  5
2626
  8
250
  6
CONTINUOUS
 10
168.58897608000169
 20
57.058988270683209
 30
0.0
  0
SEQEND
  5
2627
  8
250
  6
CONTINUOUS
  0
INSERT
  5
2628
  8
240
  2
*U6
 10
39.999999999999922
 20
0.0000000000009734
 30
0.0
  0
LINE
  5
2629
  8
250
  6
CONTINUOUS
 10
168.58897608000169
 20
57.058988270683209
 30
0.0
 11
186.72230942000169
 21
57.058988270683209
 31
0.0
1001
ITEMNAME
1000
LNSP2
  0
VIEWPORT
  5
22
 67
     1
  8
0
 10
261.51769911504419
 20
148.5
 30
0.0
 40
523.0353982300885
 41
297.0
 68
     1
 69
     1
1001
ACAD
1000
MVIEW
1002
{
1070
    16
1010
0.0
1020
0.0
1030
0.0
1010
0.0
1020
0.0
1030
1.0
1040
0.0
1040
297.0
1040
261.51769911504419
1040
148.5
1040
50.0
1040
0.0
1040
0.0
1070
     0
1070
   100
1070
     1
1070
     1
1070
     0
1070
     0
1070
     0
1070
     0
1040
0.0
1040
0.0
1040
0.0
1040
1.0
1040
1.0
1040
10.0
1040
10.0
1070
     0
1002
{
1002
}
1002
}
1001
GENIUS_GENODEF_13
1002
{
1000
HIER
1070
     0
1002
}
1002
{
1000
MANEDIT
1070
     0
1002
}
1002
{
1000
NOSEL
1070
     0
1002
}
1002
{
1000
BEHIND
1070
     0
1002
}
1002
{
1000
OTHER
1070
     0
1002
}
1002
{
1000
REACTOR
1002
}
1001
GENIUS_GENOBJ-N-SDF_13
1002
{
1000
OWNER
1000
GEN
1002
}
1001
GENIUS_GENSCREG_15
1000
PF
1040
1.0
1000
DF
1040
1.0
1000
MIN
1011
0.0
1021
0.0
1031
0.0
1021
0.0
1031
0.0
1000
MAX
1011
523.0353982300885
1021
0.0
1031
0.0
1021
297.0
1031
0.0
1000
FLAGS
1070
     4
  0
ENDSEC
  0
EOF
