  0
SECTION
  2
HEADER
  9
$ACADVER
  1
AC1009
  9
$INSBASE
 10
0.0
 20
0.0
 30
0.0
  9
$EXTMIN
 10
-59.869490703263857
 20
-50.006253942808492
 30
-0.0000000000112498
  9
$EXTMAX
 10
180.0111967848128
 20
82.014378567944505
 30
0.0000000000002956
  9
$LIMMIN
 10
0.0
 20
0.0
  9
$LIMMAX
 10
297.0
 20
210.0
  9
$ORTHOMODE
 70
     0
  9
$REGENMODE
 70
     1
  9
$FILLMODE
 70
     1
  9
$QTEXTMODE
 70
     0
  9
$MIRRTEXT
 70
     1
  9
$DRAGMODE
 70
     2
  9
$LTSCALE
 40
10.0
  9
$OSMODE
 70
    37
  9
$ATTMODE
 70
     1
  9
$TEXTSIZE
 40
3.0
  9
$TRACEWID
 40
1.0
  9
$TEXTSTYLE
  7
YOKO
  9
$CLAYER
  8
240
  9
$CELTYPE
  6
BYLAYER
  9
$CECOLOR
 62
   256
  9
$DIMSCALE
 40
1.0
  9
$DIMASZ
 40
2.2299999999999991
  9
$DIMEXO
 40
0.5
  9
$DIMDLI
 40
7.0
  9
$DIMRND
 40
0.0
  9
$DIMDLE
 40
0.0
  9
$DIMEXE
 40
1.0
  9
$DIMTP
 40
0.0
  9
$DIMTM
 40
0.01
  9
$DIMTXT
 40
2.799999999999998
  9
$DIMCEN
 40
0.0
  9
$DIMTSZ
 40
0.0
  9
$DIMTOL
 70
     0
  9
$DIMLIM
 70
     0
  9
$DIMTIH
 70
     0
  9
$DIMTOH
 70
     0
  9
$DIMSE1
 70
     0
  9
$DIMSE2
 70
     0
  9
$DIMTAD
 70
     3
  9
$DIMZIN
 70
     9
  9
$DIMBLK
  1
OPEN
  9
$DIMASO
 70
     1
  9
$DIMSHO
 70
     1
  9
$DIMPOST
  1

  9
$DIMAPOST
  1

  9
$DIMALT
 70
     0
  9
$DIMALTD
 70
     2
  9
$DIMALTF
 40
25.399999999999999
  9
$DIMLFAC
 40
1.0
  9
$DIMTOFL
 70
     1
  9
$DIMTVP
 40
0.0
  9
$DIMTIX
 70
     1
  9
$DIMSOXD
 70
     0
  9
$DIMSAH
 70
     0
  9
$DIMBLK1
  1

  9
$DIMBLK2
  1

  9
$DIMSTYLE
  2
BIGT
  9
$DIMCLRD
 70
   256
  9
$DIMCLRE
 70
   256
  9
$DIMCLRT
 70
    40
  9
$DIMTFAC
 40
1.0
  9
$DIMGAP
 40
1.0
  9
$LUNITS
 70
     2
  9
$LUPREC
 70
     6
  9
$SKETCHINC
 40
1.0
  9
$FILLETRAD
 40
0.0
  9
$AUNITS
 70
     0
  9
$AUPREC
 70
     6
  9
$MENU
  1
.
  9
$ELEVATION
 40
0.0
  9
$PELEVATION
 40
0.0
  9
$THICKNESS
 40
0.0
  9
$LIMCHECK
 70
     0
  9
$BLIPMODE
 70
     0
  9
$CHAMFERA
 40
0.2
  9
$CHAMFERB
 40
0.2
  9
$SKPOLY
 70
     0
  9
$TDCREATE
 40
2457561.3538911692
  9
$TDUPDATE
 40
2458142.7793923961
  9
$TDINDWG
 40
0.0999258681
  9
$TDUSRTIMER
 40
0.0999258218
  9
$USRTIMER
 70
     1
  9
$ANGBASE
 50
0.0
  9
$ANGDIR
 70
     0
  9
$PDMODE
 70
     1
  9
$PDSIZE
 40
0.0
  9
$PLINEWID
 40
0.0
  9
$COORDS
 70
     1
  9
$SPLFRAME
 70
     0
  9
$SPLINETYPE
 70
     6
  9
$SPLINESEGS
 70
     4
  9
$ATTDIA
 70
     1
  9
$ATTREQ
 70
     1
  9
$HANDLING
 70
     1
  9
$HANDSEED
  5
4B4B
  9
$SURFTAB1
 70
     6
  9
$SURFTAB2
 70
     6
  9
$SURFTYPE
 70
     6
  9
$SURFU
 70
     6
  9
$SURFV
 70
     6
  9
$UCSNAME
  2

  9
$UCSORG
 10
0.0
 20
0.0
 30
0.0
  9
$UCSXDIR
 10
1.0
 20
0.0
 30
0.0
  9
$UCSYDIR
 10
0.0
 20
1.0
 30
0.0
  9
$PUCSNAME
  2

  9
$PUCSORG
 10
0.0
 20
0.0
 30
0.0
  9
$PUCSXDIR
 10
1.0
 20
0.0
 30
0.0
  9
$PUCSYDIR
 10
0.0
 20
1.0
 30
0.0
  9
$USERI1
 70
     1
  9
$USERI2
 70
     0
  9
$USERI3
 70
     0
  9
$USERI4
 70
     0
  9
$USERI5
 70
     0
  9
$USERR1
 40
0.0
  9
$USERR2
 40
0.0
  9
$USERR3
 40
0.0
  9
$USERR4
 40
0.0
  9
$USERR5
 40
0.0
  9
$WORLDVIEW
 70
     1
  9
$SHADEDGE
 70
     3
  9
$SHADEDIF
 70
    70
  9
$TILEMODE
 70
     1
  9
$MAXACTVP
 70
    16
  9
$PLIMCHECK
 70
     0
  9
$PEXTMIN
 10
1.0000000000000000E+020
 20
1.0000000000000000E+020
 30
1.0000000000000000E+020
  9
$PEXTMAX
 10
-1.0000000000000000E+020
 20
-1.0000000000000000E+020
 30
-1.0000000000000000E+020
  9
$PLIMMIN
 10
0.0
 20
0.0
  9
$PLIMMAX
 10
420.0
 20
297.0
  9
$UNITMODE
 70
     0
  9
$VISRETAIN
 70
     1
  9
$PLINEGEN
 70
     0
  9
$PSLTSCALE
 70
     1
  0
ENDSEC
  0
SECTION
  2
TABLES
  0
TABLE
  2
VPORT
 70
     1
  0
VPORT
  2
*ACTIVE
 70
     0
 10
0.0
 20
0.0
 11
1.0
 21
1.0
 12
56.711879826199151
 22
33.985521589119131
 13
0.0
 23
0.0
 14
7.0
 24
7.0
 15
7.0
 25
7.0
 16
0.0
 26
0.0
 36
1.0
 17
0.0
 27
0.0
 37
0.0
 40
254.4056959586278
 41
1.515499425947187
 42
50.0
 43
0.0
 44
0.0
 50
0.0
 51
0.0
 71
     0
 72
  2000
 73
     1
 74
     0
 75
     0
 76
     1
 77
     0
 78
     0
  0
ENDTAB
  0
TABLE
  2
LTYPE
 70
    22
  0
LTYPE
  2
CONTINUOUS
 70
     0
  3
Solid line
 72
    65
 73
     0
 40
0.0
  0
LTYPE
  2
CENTER2
 70
     0
  3
___ _ ___ _ ___ _ ___ _ ___ _ ___ _ ___ _ ___ _
 72
    65
 73
     4
 40
1.125
 49
0.75
 49
-0.125
 49
0.125
 49
-0.125
  0
LTYPE
  2
HIDDEN2
 70
     0
  3
_ _ _ _ _ _ _ _ _ _ _ _ _ _ _ _ _ _ _ _ _ _ _ _
 72
    65
 73
     2
 40
0.1875
 49
0.125
 49
-0.0625
  0
LTYPE
  2
PHANTOM2
 70
     0
  3
___ _ _ ___ _ _ ___ _ _ ___ _ _ ___ _ _ ___ _ _
 72
    65
 73
     6
 40
1.25
 49
0.625
 49
-0.125
 49
0.125
 49
-0.125
 49
0.125
 49
-0.125
  0
LTYPE
  2
AMCONSTR
 70
     0
  3
_______________________
 72
    65
 73
     2
 40
9999.0
 49
9999.0
 49
0.0
  0
LTYPE
  2
HIDDEN
 70
     0
  3
Hidden __ __ __ __ __ __ __ __ __ __ __ __ __ _
 72
    65
 73
     2
 40
0.375
 49
0.25
 49
-0.125
  0
LTYPE
  2
CENTER
 70
     0
  3
Center ____ _ ____ _ ____ _ ____ _ ____ _ ____
 72
    65
 73
     4
 40
2.0
 49
1.25
 49
-0.25
 49
0.25
 49
-0.25
  0
LTYPE
  2
AMZIGZAG2
 70
     0
  3
/\/-/\/-/\/-/\/-/\/-/\/
 72
    65
 73
     2
 40
0.4401
 49
0.0001
 49
-0.4400000000000001
  0
LTYPE
  2
ACANSTGB
 70
     0
  3
__ . . __ . .
 72
    65
 73
     6
 40
0.35433070866
 49
0.15748031496
 49
-0.03937007874
 49
0.03937007874
 49
-0.03937007874
 49
0.03937007874
 49
-0.03937007874
  0
LTYPE
  2
ACANSTGL
 70
     0
  3
_ _ _ _ _
 72
    65
 73
     2
 40
0.11811023622
 49
0.07874015748
 49
-0.03937007874
  0
ENDTAB
  0
TABLE
  2
LAYER
 70
    10
  0
LAYER
  2
0
 70
     0
 62
     7
  6
CONTINUOUS
  0
LAYER
  2
240
 70
     0
 62
     4
  6
CONTINUOUS
  0
LAYER
  2
DEFPOINTS
 70
     0
 62
     7
  6
CONTINUOUS
  0
LAYER
  2
245
 70
     0
 62
     2
  6
CENTER2
  0
LAYER
  2
241
 70
     0
 62
   211
  6
CONTINUOUS
  0
LAYER
  2
242
 70
     0
 62
     3
  6
CONTINUOUS
  0
LAYER
  2
243
 70
     0
 62
   211
  6
HIDDEN2
  0
LAYER
  2
246
 70
     0
 62
     3
  6
PHANTOM2
  0
LAYER
  2
247
 70
     0
 62
    60
  6
CONTINUOUS
  0
LAYER
  2
250
 70
     0
 62
     3
  6
CONTINUOUS
  0
ENDTAB
  0
TABLE
  2
STYLE
 70
    10
  0
STYLE
  2
STANDARD
 70
     0
 40
0.0
 41
1.0
 50
0.0
 71
     0
 42
3.0
  3
romans.shx
  4
extfont.shx
  0
STYLE
  2
YOKO
 70
     0
 40
0.0
 41
1.0
 50
0.0
 71
     0
 42
3.0
  3
romans.shx
  4
extfont.shx
  0
STYLE
  2

 70
     1
 40
0.0
 41
1.0
 50
0.0
 71
     0
 42
3.0
  3
genltshp.shx
  4

  0
STYLE
  2
ACANSGDT
 70
     0
 40
0.0
 41
1.0
 50
0.0
 71
     0
 42
3.0
  3
amgdt.shx
  4

  0
ENDTAB
  0
TABLE
  2
VIEW
 70
     0
  0
ENDTAB
  0
TABLE
  2
UCS
 70
     0
  0
ENDTAB
  0
TABLE
  2
APPID
 70
    39
  0
APPID
  2
ACAD
 70
     0
  0
APPID
  2
ACADANNOTATIVE
 70
     0
  0
APPID
  2
GLOBAL
 70
     0
  0
APPID
  2
DETAIL
 70
     0
  0
APPID
  2
GRPNAME
 70
     0
  0
APPID
  2
GPARA
 70
     0
  0
APPID
  2
MCAD_NO_VIS
 70
     0
  0
APPID
  2
ACAD_TEMP_GRAPHIC
 70
     0
  0
APPID
  2
ACATTRIBSERVICES
 70
     0
  0
APPID
  2
GENIUS_GENSCREG_15
 70
     0
  0
APPID
  2
GENIUS_GENODEF_13
 70
     0
  0
APPID
  2
GENIUS_GENOBJ-N-SDF_13
 70
     0
  0
APPID
  2
GENIUS_GENREC_14
 70
     0
  0
APPID
  2
GENIUS_GENOBJ-N-REC_13
 70
     0
  0
APPID
  2
GENIUS_GENDIMSH_14
 70
     0
  0
APPID
  2
GENIUS_GENOBJ-N-DIM_13
 70
     0
  0
APPID
  2
GENIUS_GENDIM_13
 70
     0
  0
APPID
  2
GENIUS_GENDTOL_13
 70
     0
  0
APPID
  2
GENIUS_GENOLIS_13
 70
     0
  0
APPID
  2
GENIUS_GENOENT_13
 70
     0
  0
APPID
  2
GENIUS_GENOBJ-F-FEM_13
 70
     0
  0
APPID
  2
GENIUS_GENOREF_13
 70
     0
  0
APPID
  2
GENIUS_GEFFEM_13
 70
     0
  0
APPID
  2
GENIUS_GEFFEMP_13
 70
     0
  0
APPID
  2
AD_DRAW
 70
     0
  0
APPID
  2
DESIGNERASSEMBLIES
 70
     0
  0
APPID
  2
ACADM_DIM_EDIT
 70
     0
  0
APPID
  2
AMDT_DM_ADJ
 70
     0
  0
APPID
  2
ITEMNAME
 70
     0
  0
APPID
  2
GENIUS_GENOBJ-N-FIL_13
 70
     0
  0
APPID
  2
GENIUS_GENFIL_13
 70
     0
  0
APPID
  2
GENIUS_GENOBJ-N-CHA_13
 70
     0
  0
APPID
  2
ACAD_NAV_VCDISPLAY
 70
     0
  0
APPID
  2
ACAD_EXEMPT_FROM_CAD_STANDARDS
 70
     0
  0
APPID
  2
ACAD_MLEADERVER
 70
     0
  0
APPID
  2
ACAD_PSEXT
 70
     0
  0
APPID
  2
ACAECLAYERSTANDARD
 70
     0
  0
APPID
  2
ACAD_DSTYLE_DIMJAG
 70
     0
  0
APPID
  2
ACAD_DSTYLE_DIMBREAK
 70
     0
  0
ENDTAB
  0
TABLE
  2
DIMSTYLE
 70
    31
  0
DIMSTYLE
  2
STANDARD
 70
     0
  3

  4

  5

  6

  7

 40
1.0
 41
0.18
 42
0.0625
 43
0.38
 44
0.18
 45
0.0
 46
0.0
 47
0.0
 48
0.0
140
0.18
141
0.09
142
0.0
143
25.399999999999999
144
1.0
145
0.0
146
1.0
147
0.09
 71
     0
 72
     0
 73
     1
 74
     1
 75
     0
 76
     0
 77
     0
 78
     0
170
     0
171
     2
172
     0
173
     0
174
     0
175
     0
176
     0
177
     0
178
     0
  0
DIMSTYLE
  2
BIGT
 70
     0
  3

  4

  5

  6

  7

 40
1.0
 41
2.2299999999999991
 42
0.5
 43
7.0
 44
1.0
 45
0.0
 46
0.0
 47
0.0
 48
0.01
140
2.799999999999998
141
0.0
142
0.0
143
25.399999999999999
144
1.0
145
0.0
146
1.0
147
1.0
 71
     0
 72
     0
 73
     0
 74
     0
 75
     0
 76
     0
 77
     3
 78
     9
170
     0
171
     2
172
     1
173
     0
174
     1
175
     0
176
   256
177
   256
178
    40
  0
DIMSTYLE
  2
AM_ANSI
 70
     0
  3

  4
mm
  5

  6

  7

 40
1.0
 41
0.12
 42
0.05
 43
0.5
 44
0.1
 45
0.0
 46
0.0
 47
0.1
 48
0.1
140
0.12
141
0.0
142
0.0
143
25.399999999999999
144
1.0
145
0.0
146
0.71
147
0.06
 71
     0
 72
     0
 73
     1
 74
     1
 75
     0
 76
     0
 77
     0
 78
     7
170
     0
171
     2
172
     0
173
     0
174
     0
175
     0
176
   256
177
   256
178
     2
  0
DIMSTYLE
  2
AM_ANSI$3
 70
     0
  3

  4
mm
  5

  6

  7

 40
1.0
 41
0.12
 42
0.05
 43
0.5
 44
0.1
 45
0.0
 46
0.0
 47
0.1
 48
0.1
140
0.12
141
0.0
142
0.0
143
25.399999999999999
144
1.0
145
0.0
146
0.71
147
0.06
 71
     0
 72
     0
 73
     1
 74
     1
 75
     0
 76
     0
 77
     0
 78
     7
170
     0
171
     2
172
     0
173
     0
174
     0
175
     0
176
   256
177
   256
178
     2
  0
DIMSTYLE
  2
AM_ANSI$4
 70
     0
  3

  4
mm
  5

  6

  7

 40
1.0
 41
0.12
 42
0.05
 43
0.5
 44
0.1
 45
0.0
 46
0.0
 47
0.1
 48
0.1
140
0.12
141
0.0
142
0.0
143
25.399999999999999
144
1.0
145
0.0
146
0.71
147
0.06
 71
     0
 72
     0
 73
     1
 74
     1
 75
     0
 76
     0
 77
     0
 78
     7
170
     0
171
     2
172
     0
173
     0
174
     0
175
     0
176
   256
177
   256
178
     2
  0
DIMSTYLE
  2
AM_ANSI$7
 70
     0
  3

  4
mm
  5

  6

  7

 40
1.0
 41
0.12
 42
0.05
 43
0.5
 44
0.1
 45
0.0
 46
0.0
 47
0.1
 48
0.1
140
0.12
141
0.0
142
0.0
143
25.399999999999999
144
1.0
145
0.0
146
0.71
147
0.06
 71
     0
 72
     0
 73
     1
 74
     1
 75
     0
 76
     0
 77
     0
 78
     7
170
     0
171
     2
172
     0
173
     0
174
     0
175
     0
176
   256
177
   256
178
     2
  0
DIMSTYLE
  2
AM_ANSI$SF
 70
     0
  3

  4
mm
  5

  6

  7

 40
1.0
 41
0.12
 42
0.05
 43
0.5
 44
0.1
 45
0.0
 46
0.0
 47
0.1
 48
0.1
140
0.12
141
0.0
142
0.0
143
25.399999999999999
144
1.0
145
0.0
146
0.71
147
0.06
 71
     0
 72
     0
 73
     1
 74
     1
 75
     1
 76
     1
 77
     0
 78
     7
170
     0
171
     2
172
     0
173
     0
174
     0
175
     0
176
   256
177
   256
178
     2
  0
DIMSTYLE
  2
AM_ANSI$SH
 70
     0
  3

  4
mm
  5

  6
GENAXEH
  7

 40
1.0
 41
0.12
 42
0.05
 43
0.5
 44
0.1
 45
0.0
 46
0.0
 47
0.1
 48
0.1
140
0.12
141
0.0
142
0.0
143
25.399999999999999
144
1.0
145
0.0
146
0.71
147
0.06
 71
     0
 72
     0
 73
     1
 74
     1
 75
     1
 76
     1
 77
     0
 78
     7
170
     0
171
     2
172
     0
173
     1
174
     0
175
     0
176
   256
177
   256
178
     2
  0
ENDTAB
  0
ENDSEC
  0
SECTION
  2
BLOCKS
  0
BLOCK
  8
0
  2
$MODEL_SPACE
 70
     0
 10
0.0
 20
0.0
 30
0.0
  3
$MODEL_SPACE
  1

  0
ENDBLK
  5
49FE
  8
0
  0
BLOCK
 67
     1
  8
0
  2
$PAPER_SPACE
 70
     0
 10
0.0
 20
0.0
 30
0.0
  3
$PAPER_SPACE
  1

  0
ENDBLK
  5
49FA
 67
     1
  8
0
  0
BLOCK
  8
0
  2
_OPEN
 70
     0
 10
0.0
 20
0.0
 30
0.0
  3
_OPEN
  1

  0
LINE
  5
440E
  8
0
  6
BYBLOCK
 62
     0
 10
-1.0
 20
0.1666666666666666
 30
0.0
 11
0.0
 21
0.0
 31
0.0
  0
LINE
  5
440F
  8
0
  6
BYBLOCK
 62
     0
 10
-1.0
 20
-0.1666666666666666
 30
0.0
 11
0.0
 21
0.0
 31
0.0
  0
LINE
  5
4410
  8
0
  6
BYBLOCK
 62
     0
 10
0.0
 20
0.0
 30
0.0
 11
-1.0
 21
0.0
 31
0.0
  0
ENDBLK
  5
4411
  8
0
  0
BLOCK
  8
0
  2
GENAXEH
 70
     0
 10
0.0
 20
0.0
 30
0.0
  3
GENAXEH
  1

  0
LINE
  5
4449
  8
0
 10
-1.0
 20
0.0
 30
0.0
 11
1.0
 21
0.0
 31
0.0
  0
ENDBLK
  5
444A
  8
0
  0
BLOCK
  8
0
  2
_ACMFILLEDHALF
 70
     0
 10
0.0
 20
0.0
 30
0.0
  3
_ACMFILLEDHALF
  1

  0
TRACE
  5
4AC7
  8
240
 62
     0
 10
-0.8
 20
0.0
 30
0.0
 11
-1.0
 21
0.166666666
 31
0.0
 12
0.0
 22
0.0
 32
0.0
 13
0.0
 23
0.0
 33
0.0
  0
LINE
  5
4AC8
  8
240
 62
     0
 10
-1.0
 20
0.0
 30
0.0
 11
-0.8
 21
0.0
 31
0.0
  0
ENDBLK
  5
4AC6
  8
0
  0
ENDSEC
  0
SECTION
  2
ENTITIES
  0
LINE
  5
4266
  8
250
  6
CONTINUOUS
 10
-32.935905670000011
 20
-48.713341000780929
 30
0.0
 11
-59.869239000000043
 21
-48.713341000780929
 31
0.0
1001
ITEMNAME
1000
LNSP2
  0
LINE
  5
4267
  8
240
  6
CONTINUOUS
 10
-50.0
 20
10.009999999999989
 30
0.0
 11
-50.0
 21
35.50000000156183
 31
0.0
  0
LINE
  5
4268
  8
241
  6
CONTINUOUS
 10
21.875000000000011
 20
10.0
 30
0.0
 11
21.875000000000011
 21
46.0
 31
0.0
  0
LINE
  5
4269
  8
241
  6
CONTINUOUS
 10
18.125000000000011
 20
10.0
 30
0.0
 11
18.125000000000011
 21
46.0
 31
0.0
  0
LINE
  5
426A
  8
241
  6
CONTINUOUS
 10
16.752404739999982
 20
10.0
 30
0.0
 11
16.752404739999982
 21
50.0
 31
0.0
  0
LINE
  5
426B
  8
241
  6
CONTINUOUS
 10
23.247595260000029
 20
10.0
 30
0.0
 11
23.247595260000029
 21
50.0
 31
0.0
  0
LINE
  5
426C
  8
240
  6
CONTINUOUS
 10
0.0000000000000071
 20
-37.999999999934928
 30
0.0
 11
-50.0
 21
-35.50000000156183
 31
0.0
  0
LINE
  5
426D
  8
243
  6
HIDDEN2
 10
-41.999999999999993
 20
-10.009999999999989
 30
0.0
 11
-36.999999999999993
 21
-10.009999999999989
 31
0.0
  0
LINE
  5
426E
  8
243
  6
HIDDEN2
 10
-41.999999999999993
 20
10.009999999999989
 30
0.0
 11
-36.999999999999993
 21
10.009999999999989
 31
0.0
  0
LINE
  5
426F
  8
240
  6
CONTINUOUS
 10
-50.0
 20
-35.50000000156183
 30
0.0
 11
-50.0
 21
-10.009999999999989
 31
0.0
  0
LINE
  5
4270
  8
240
  6
CONTINUOUS
 10
-40.0
 20
-8.0099999999999891
 30
0.0
 11
-40.0
 21
8.0099999999999891
 31
0.0
  0
LINE
  5
4271
  8
240
  6
CONTINUOUS
 10
-50.0
 20
-10.009999999999989
 30
0.0
 11
-41.999999999999993
 21
-10.009999999999989
 31
0.0
  0
ARC
  5
4272
  8
240
  6
CONTINUOUS
 10
-41.999999999999993
 20
-8.0099999999999891
 30
0.0
 40
2.0
 50
270.0
 51
0.0
  0
ARC
  5
4273
  8
240
  6
CONTINUOUS
 10
-41.999999999999993
 20
8.0099999999999891
 30
0.0
 40
2.0
 50
0.0
 51
90.0
  0
LINE
  5
4274
  8
240
  6
CONTINUOUS
 10
-50.0
 20
10.009999999999989
 30
0.0
 11
-41.999999999999993
 21
10.009999999999989
 31
0.0
  0
LINE
  5
4275
  8
240
  6
CONTINUOUS
 10
0.0000000000000071
 20
-50.0
 30
0.0
 11
0.0000000000000071
 21
-37.999999999934928
 31
0.0
  0
LINE
  5
4276
  8
241
  6
CONTINUOUS
 10
29.000000000000011
 20
-42.5
 30
0.0
 11
29.000000000000011
 21
42.5
 31
0.0
  0
LINE
  5
4277
  8
241
  6
CONTINUOUS
 10
21.875000000000011
 20
-33.522380580000011
 30
0.0
 11
21.875000000000011
 21
-46.0
 31
0.0
  0
LINE
  5
4278
  8
241
  6
CONTINUOUS
 10
18.125000000000011
 20
-33.522380580000011
 30
0.0
 11
18.125000000000011
 21
-46.0
 31
0.0
  0
LINE
  5
4279
  8
241
  6
CONTINUOUS
 10
16.752404739999982
 20
-50.0
 30
0.0
 11
16.752404739999982
 21
-38.829756629999991
 31
0.0
  0
LINE
  5
427A
  8
241
  6
CONTINUOUS
 10
23.247595260000029
 20
-50.0
 30
0.0
 11
23.247595260000029
 21
-38.829756629999991
 31
0.0
  0
LINE
  5
427B
  8
240
  6
CONTINUOUS
 10
0.0000000000000071
 20
-50.0
 30
0.0
 11
16.752404739999982
 21
-50.0
 31
0.0
  0
LINE
  5
427C
  8
240
  6
CONTINUOUS
 10
23.247595260000029
 20
-50.0
 30
0.0
 11
29.000000000000011
 21
-50.0
 31
0.0
  0
LINE
  5
427D
  8
240
  6
CONTINUOUS
 10
21.875000000000011
 20
-46.0
 30
0.0
 11
21.875000000000011
 21
-47.622595259999997
 31
0.0
  0
LINE
  5
427E
  8
240
  6
CONTINUOUS
 10
18.125000000000011
 20
-46.0
 30
0.0
 11
18.125000000000011
 21
-47.622595259999997
 31
0.0
  0
LINE
  5
427F
  8
240
  6
CONTINUOUS
 10
18.125000000000011
 20
-47.622595259999997
 30
0.0
 11
16.752404739999982
 21
-50.0
 31
0.0
  0
LINE
  5
4280
  8
240
  6
CONTINUOUS
 10
21.875000000000011
 20
-47.622595259999997
 30
0.0
 11
23.247595260000029
 21
-50.0
 31
0.0
  0
LINE
  5
4281
  8
240
  6
CONTINUOUS
 10
18.125000000000011
 20
-46.0
 30
0.0
 11
21.875000000000011
 21
-46.0
 31
0.0
  0
LINE
  5
4282
  8
240
  6
CONTINUOUS
 10
29.000000000000011
 20
-50.0
 30
0.0
 11
29.000000000000011
 21
-42.5
 31
0.0
  0
LINE
  5
4283
  8
243
  6
HIDDEN2
 10
-35.0
 20
-8.0099999999999891
 30
0.0
 11
-34.99999999999995
 21
8.0099999999999891
 31
0.0
  0
ARC
  5
4284
  8
243
  6
HIDDEN2
 10
-36.999999999999993
 20
-8.0099999999999891
 30
0.0
 40
2.0
 50
270.0
 51
0.0
  0
ARC
  5
4285
  8
243
  6
HIDDEN2
 10
-36.999999999999993
 20
8.0099999999999891
 30
0.0
 40
2.0
 50
0.0
 51
90.0
  0
LINE
  5
4286
  8
241
  6
CONTINUOUS
 10
0.0000000000000071
 20
-37.999999999934928
 30
0.0
 11
0.0
 21
37.9999999999349
 31
0.0
  0
LINE
  5
4287
  8
241
  6
CONTINUOUS
 10
18.125000000000011
 20
-10.0
 30
0.0
 11
18.125000000000011
 21
-31.5
 31
0.0
  0
LINE
  5
4288
  8
241
  6
CONTINUOUS
 10
16.752404739999982
 20
-31.5
 30
0.0
 11
16.752404739999982
 21
-10.0
 31
0.0
  0
LINE
  5
4289
  8
241
  6
CONTINUOUS
 10
21.875000000000011
 20
-10.0
 30
0.0
 11
21.875000000000011
 21
-31.5
 31
0.0
  0
LINE
  5
428A
  8
241
  6
CONTINUOUS
 10
23.247595260000029
 20
-31.5
 30
0.0
 11
23.247595260000029
 21
-10.0
 31
0.0
  0
LINE
  5
428B
  8
241
  6
CONTINUOUS
 10
14.63689785999998
 20
-31.5
 30
0.0
 11
29.000000000000011
 21
-31.5
 31
0.0
  0
LINE
  5
428C
  8
241
  6
CONTINUOUS
 10
5.0000000000000071
 20
-38.829756629999991
 30
0.0
 11
16.752404739999982
 21
-38.829756629999991
 31
0.0
  0
ARC
  5
428D
  8
241
  6
CONTINUOUS
 10
14.63689785999998
 20
-41.5
 30
0.0
 40
10.0
 50
90.0
 51
164.5127259999978
  0
LINE
  5
428E
  8
241
  6
CONTINUOUS
 10
23.247595260000029
 20
-38.829756629999991
 30
0.0
 11
29.000000000000011
 21
-38.829756629999991
 31
0.0
  0
LINE
  5
428F
  8
241
  6
CONTINUOUS
 10
18.125000000000011
 20
-33.522380580000011
 30
0.0
 11
21.875000000000011
 21
-33.522380580000011
 31
0.0
  0
LINE
  5
4290
  8
241
  6
CONTINUOUS
 10
16.752404739999982
 20
-38.829756629999991
 30
0.0
 11
18.125000000000011
 21
-35.716404910000001
 31
0.0
  0
LINE
  5
4291
  8
241
  6
CONTINUOUS
 10
23.247595260000029
 20
-38.829756629999991
 30
0.0
 11
21.875000000000011
 21
-35.716404910000001
 31
0.0
  0
LINE
  5
4292
  8
241
  6
CONTINUOUS
 10
15.000000000000011
 20
-10.0
 30
0.0
 11
29.000000000000011
 21
-10.0
 31
0.0
  0
LINE
  5
4293
  8
241
  6
CONTINUOUS
 10
15.000000000000011
 20
10.0
 30
0.0
 11
29.000000000000011
 21
10.0
 31
0.0
  0
LINE
  5
4294
  8
240
  6
CONTINUOUS
 10
0.0000000000000071
 20
37.9999999999349
 30
0.0
 11
-50.0
 21
35.50000000156183
 31
0.0
  0
LINE
  5
4295
  8
240
  6
CONTINUOUS
 10
0.0000000000000071
 20
50.0
 30
0.0
 11
0.0000000000000071
 21
37.9999999999349
 31
0.0
  0
LINE
  5
4296
  8
240
  6
CONTINUOUS
 10
0.0000000000000071
 20
50.0
 30
0.0
 11
16.752404739999982
 21
50.0
 31
0.0
  0
LINE
  5
4297
  8
240
  6
CONTINUOUS
 10
23.247595260000029
 20
50.0
 30
0.0
 11
29.000000000000011
 21
50.0
 31
0.0
  0
LINE
  5
4298
  8
240
  6
CONTINUOUS
 10
21.875000000000011
 20
47.622595260000018
 30
0.0
 11
23.247595260000029
 21
50.0
 31
0.0
  0
LINE
  5
4299
  8
240
  6
CONTINUOUS
 10
18.125000000000011
 20
47.622595260000018
 30
0.0
 11
16.752404739999982
 21
50.0
 31
0.0
  0
LINE
  5
429A
  8
240
  6
CONTINUOUS
 10
18.125000000000011
 20
46.0
 30
0.0
 11
21.875000000000011
 21
46.0
 31
0.0
  0
LINE
  5
429B
  8
240
  6
CONTINUOUS
 10
18.125000000000011
 20
46.0
 30
0.0
 11
18.125000000000011
 21
47.622595260000018
 31
0.0
  0
LINE
  5
429C
  8
240
  6
CONTINUOUS
 10
21.875000000000011
 20
46.0
 30
0.0
 11
21.875000000000011
 21
47.622595260000018
 31
0.0
  0
LINE
  5
429D
  8
240
  6
CONTINUOUS
 10
29.000000000000011
 20
50.0
 30
0.0
 11
29.000000000000011
 21
42.5
 31
0.0
  0
TEXT
  5
42A0
  8
250
  6
CONTINUOUS
 10
-57.602572333333342
 20
-47.713341000780922
 30
0.0
 40
2.799999999999998
  1
HSK-A100
  7
YOKO
1001
ITEMNAME
1000
LNSP3
1001
ACAD
1000
MTEXTBEGIN
1070
    73
1070
     1
1070
    44
1040
1.0
1070
    74
1070
     0
1000
MTEXTEND
  0
LINE
  5
42A1
  8
250
  6
CONTINUOUS
 10
-27.000000001057909
 20
-38.432050807739017
 30
0.0
 11
-32.935905670000011
 21
-48.713341000780929
 31
0.0
1001
ACAD
1000
DSTYLE
1002
{
1070
     6
1000
OPEN
1070
    41
1040
2.0
1070
    42
1040
2.0
1070
    44
1040
2.0
1070
   140
1040
4.0
1070
   343
1005
0
1002
}
  0
LINE
  5
42A2
  8
250
  6
CONTINUOUS
 10
-27.288675135550928
 20
-38.26538414089606
 30
0.0
 11
-26.0
 21
-36.700000000780904
 31
0.0
  0
LINE
  5
42A3
  8
250
  6
CONTINUOUS
 10
-26.71132486656489
 20
-38.598717474582003
 30
0.0
 11
-26.0
 21
-36.700000000780904
 31
0.0
  0
LINE
  5
42A4
  8
250
  6
CONTINUOUS
 10
-26.0
 20
-36.700000000780904
 30
0.0
 11
-27.000000001057909
 21
-38.432050807739017
 31
0.0
  0
LINE
  5
42A5
  8
245
  6
CENTER2
 10
-48.499999999999993
 20
0.0
 30
0.0
 11
168.0
 21
0.0
 31
0.0
  0
CIRCLE
  5
42A6
  8
241
  6
CONTINUOUS
 10
-14.999999999999989
 20
0.0
 30
0.0
 40
6.0
  0
LINE
  5
42A7
  8
247
  6
CONTINUOUS
 10
10.0
 20
-26.250000000070042
 30
0.0
 11
10.0
 21
-19.557692308030031
 31
0.0
  0
ARC
  5
42A8
  8
247
  6
CONTINUOUS
 10
8.2500000000699814
 20
-26.250000000070042
 30
0.0
 40
1.7499999999299991
 50
180.0
 51
0.0
  0
ARC
  5
42A9
  8
247
  6
CONTINUOUS
 10
8.2500000000700382
 20
-19.557692308030031
 30
0.0
 40
1.7499999999299991
 50
0.0
 51
180.0
  0
LINE
  5
42AA
  8
247
  6
CONTINUOUS
 10
6.5000000001400684
 20
-25.384615384720011
 30
0.0
 11
9.5000000000200142
 21
-26.244851541962021
 31
0.0
  0
LINE
  5
42AB
  8
247
  6
CONTINUOUS
 10
7.9230769231600169
 20
-24.48498381833582
 30
0.0
 11
7.9230769231600169
 21
-25.792676125975849
 31
0.0
  0
ARC
  5
42AC
  8
247
  6
CONTINUOUS
 10
7.049598667702984
 20
-24.145143816089789
 30
0.0
 40
0.5538165441895349
 50
72.997889675292413
 51
172.92416621851351
  0
ARC
  5
42AD
  8
247
  6
CONTINUOUS
 10
6.9360330444658329
 20
-24.566878323028789
 30
0.0
 40
0.9904354236226808
 50
4.7429368522022122
 51
73.849226273266424
1001
GENIUS_GENOBJ-N-FIL_13
1002
{
1000
OWNER
1000
GEN
1002
}
1001
GENIUS_GENODEF_13
1002
{
1000
HIER
1070
     0
1002
}
1002
{
1000
MANEDIT
1070
     0
1002
}
1002
{
1000
NOSEL
1070
     0
1002
}
1002
{
1000
BEHIND
1070
     0
1002
}
1002
{
1000
OTHER
1070
     0
1002
}
1002
{
1000
REACTOR
1002
}
  0
LINE
  5
42AE
  8
247
  6
CONTINUOUS
 10
9.5000000000200142
 20
-24.937159234321999
 30
0.0
 11
9.5000000000200142
 21
-26.244851541962021
 31
0.0
  0
LINE
  5
42AF
  8
247
  6
CONTINUOUS
 10
6.5000000001400684
 20
-25.384615384720011
 30
0.0
 11
6.5000000001400684
 21
-24.076923077079989
 31
0.0
  0
ARC
  5
42B0
  8
247
  6
CONTINUOUS
 10
8.4820242326656015
 20
-24.560919636546942
 30
0.0
 40
0.5640818586791229
 50
65.990941652528889
 51
172.26344345906909
  0
ARC
  5
42B1
  8
247
  6
CONTINUOUS
 10
8.4874290391866296
 20
-25.038262685347089
 30
0.0
 40
1.0176059446230981
 50
5.701985164256504
 51
77.277338436822191
1001
GENIUS_GENOBJ-N-FIL_13
1002
{
1000
OWNER
1000
GEN
1002
}
1001
GENIUS_GENODEF_13
1002
{
1000
HIER
1070
     0
1002
}
1002
{
1000
MANEDIT
1070
     0
1002
}
1002
{
1000
NOSEL
1070
     0
1002
}
1002
{
1000
BEHIND
1070
     0
1002
}
1002
{
1000
OTHER
1070
     0
1002
}
1002
{
1000
REACTOR
1002
}
  0
LINE
  5
42B2
  8
247
  6
CONTINUOUS
 10
9.5000000000200142
 20
-23.28331308054203
 30
0.0
 11
6.5000000001400684
 21
-22.42307692330002
 31
0.0
  0
LINE
  5
42B3
  8
247
  6
CONTINUOUS
 10
6.5000000001400684
 20
-20.000000000319972
 30
0.0
 11
6.5000000001400684
 21
-20.565736619456569
 31
0.0
  0
LINE
  5
42B4
  8
247
  6
CONTINUOUS
 10
9.5000000000200142
 20
-21.461538461799989
 30
0.0
 11
9.5000000000200142
 21
-20.846153846440021
 31
0.0
  0
ARC
  5
42B5
  8
247
  6
CONTINUOUS
 10
8.5832851359733766
 20
-19.708791209122861
 30
0.0
 40
2.2526500823422122
 50
202.3594881415263
 51
254.99324854284609
  0
ARC
  5
42B6
  8
247
  6
CONTINUOUS
 10
7.3083126551945341
 20
-20.37406947921323
 30
0.0
 40
0.8906723995727782
 50
94.994589319075374
 51
155.1663289573041
1001
GENIUS_GENOBJ-N-FIL_13
1002
{
1000
OWNER
1000
GEN
1002
}
1001
GENIUS_GENODEF_13
1002
{
1000
HIER
1070
     0
1002
}
1002
{
1000
MANEDIT
1070
     0
1002
}
1002
{
1000
NOSEL
1070
     0
1002
}
1002
{
1000
BEHIND
1070
     0
1002
}
1002
{
1000
OTHER
1070
     0
1002
}
1002
{
1000
REACTOR
1002
}
  0
ARC
  5
42B7
  8
247
  6
CONTINUOUS
 10
8.1601458886677918
 20
-21.22645888621258
 30
0.0
 40
1.392781735586712
 50
15.846096555780679
 51
82.325137004169122
  0
ARC
  5
42B8
  8
247
  6
CONTINUOUS
 10
8.4592434315272911
 20
-20.642212725840348
 30
0.0
 40
1.324563662670287
 50
249.7136016704969
 51
321.78874565640581
1001
GENIUS_GENOBJ-N-FIL_13
1002
{
1000
OWNER
1000
GEN
1002
}
1001
GENIUS_GENODEF_13
1002
{
1000
HIER
1070
     0
1002
}
1002
{
1000
MANEDIT
1070
     0
1002
}
1002
{
1000
NOSEL
1070
     0
1002
}
1002
{
1000
BEHIND
1070
     0
1002
}
1002
{
1000
OTHER
1070
     0
1002
}
1002
{
1000
REACTOR
1002
}
  0
LINE
  5
42B9
  8
247
  6
CONTINUOUS
 10
8.3461538462199822
 20
-20.538461538759979
 30
0.0
 11
8.3461538462199822
 21
-19.846153846479961
 31
0.0
  0
ARC
  5
42BA
  8
241
  6
CONTINUOUS
 10
15.000000000000011
 20
0.0
 30
0.0
 40
10.0
 50
90.0
 51
270.0
  0
LINE
  5
42BB
  8
247
  6
CONTINUOUS
 10
6.500000000139952
 20
-26.250000000070042
 30
0.0
 11
6.500000000139952
 21
-25.576923077020041
 31
0.0
  0
LINE
  5
42E9
  8
250
  6
CONTINUOUS
 10
0.0000000000000036
 20
50.5
 30
0.0
 11
0.0000000000000036
 21
64.0
 31
0.0
  0
LINE
  5
42EA
  8
250
  6
CONTINUOUS
 10
165.0
 20
25.500000000000011
 30
0.0
 11
165.0
 21
64.0
 31
0.0
  0
LINE
  5
42EB
  8
250
  6
CONTINUOUS
 10
2.0000000000000031
 20
63.0
 30
0.0
 11
163.0
 21
63.0
 31
0.0
  0
LINE
  5
42EC
  8
250
  6
CONTINUOUS
 10
2.0000000000000031
 20
62.66666666666665
 30
0.0
 11
0.0000000000000036
 21
63.0
 31
0.0
  0
LINE
  5
42ED
  8
250
  6
CONTINUOUS
 10
2.0000000000000031
 20
63.333333333333329
 30
0.0
 11
0.0000000000000036
 21
63.0
 31
0.0
  0
LINE
  5
42EE
  8
250
  6
CONTINUOUS
 10
0.0000000000000036
 20
63.0
 30
0.0
 11
2.0000000000000031
 21
63.0
 31
0.0
  0
LINE
  5
42EF
  8
250
  6
CONTINUOUS
 10
163.0
 20
63.333333333333329
 30
0.0
 11
165.0
 21
63.0
 31
0.0
  0
LINE
  5
42F0
  8
250
  6
CONTINUOUS
 10
163.0
 20
62.66666666666665
 30
0.0
 11
165.0
 21
63.0
 31
0.0
  0
LINE
  5
42F1
  8
250
  6
CONTINUOUS
 10
165.0
 20
63.0
 30
0.0
 11
163.0
 21
63.0
 31
0.0
  0
TEXT
  5
42F2
  8
250
  6
CONTINUOUS
 10
76.474670349999982
 20
64.000000000000014
 30
0.0
 40
2.799999999999998
  1
6.496
1001
ACAD
1000
MTEXTBEGIN
1070
    73
1070
     1
1070
    44
1040
1.0
1070
    74
1070
     0
1000
MTEXTEND
  0
TEXT
  5
42F3
  8
241
  6
CONTINUOUS
 10
-50.0
 20
77.0
 30
0.0
 40
5.0
  1
HSK-A100-MEGAER32-165NL
  7
YOKO
 11
-50.0
 21
77.0
 31
0.0
 73
     1
  0
LINE
  5
42F4
  8
250
  6
CONTINUOUS
 10
54.0
 20
10.65
 30
0.0
 11
54.0
 21
57.0
 31
0.0
  0
LINE
  5
42F5
  8
250
  6
CONTINUOUS
 10
165.0
 20
25.5
 30
0.0
 11
165.0
 21
57.0
 31
0.0
  0
LINE
  5
42F6
  8
250
  6
CONTINUOUS
 10
56.229999999999997
 20
56.0
 30
0.0
 11
162.77000000000001
 21
56.0
 31
0.0
  0
LINE
  5
42F7
  8
250
  6
CONTINUOUS
 10
56.229999999999997
 20
55.62833333333333
 30
0.0
 11
54.0
 21
56.0
 31
0.0
  0
LINE
  5
42F8
  8
250
  6
CONTINUOUS
 10
56.229999999999997
 20
56.37166666666667
 30
0.0
 11
54.0
 21
56.0
 31
0.0
  0
LINE
  5
42F9
  8
250
  6
CONTINUOUS
 10
54.0
 20
56.0
 30
0.0
 11
56.229999999999997
 21
56.0
 31
0.0
  0
LINE
  5
42FA
  8
250
  6
CONTINUOUS
 10
162.77000000000001
 20
56.37166666666667
 30
0.0
 11
165.0
 21
56.0
 31
0.0
  0
LINE
  5
42FB
  8
250
  6
CONTINUOUS
 10
162.77000000000001
 20
55.62833333333333
 30
0.0
 11
165.0
 21
56.0
 31
0.0
  0
LINE
  5
42FC
  8
250
  6
CONTINUOUS
 10
165.0
 20
56.0
 30
0.0
 11
162.77000000000001
 21
56.0
 31
0.0
  0
TEXT
  5
42FD
  8
250
  6
CONTINUOUS
 10
99.724557250000004
 20
56.999999999999993
 30
0.0
 40
2.799999999999998
  1
(max.4.37)
1001
ACAD
1000
MTEXTBEGIN
1070
    73
1070
     1
1070
    44
1040
1.0
1070
    74
1070
     0
1000
MTEXTEND
  0
LINE
  5
42FE
  8
240
  6
CONTINUOUS
 10
39.0
 20
-42.5
 30
0.0
 11
29.000000000000011
 21
-42.5
 31
0.0
  0
LINE
  5
42FF
  8
240
  6
CONTINUOUS
 10
39.0
 20
42.5
 30
0.0
 11
29.000000000000011
 21
42.5
 31
0.0
  0
LINE
  5
4302
  8
240
  6
CONTINUOUS
 10
132.0001575694036
 20
-25.0
 30
0.0
 11
45.764640669999977
 21
-25.0
 31
0.0
  0
LINE
  5
4303
  8
240
  6
CONTINUOUS
 10
39.0
 20
-34.319329445617122
 30
0.0
 11
39.0
 21
-42.5
 31
0.0
  0
LINE
  5
4305
  8
241
  6
CONTINUOUS
 10
42.263602980000002
 20
-26.430303219999999
 30
0.0
 11
42.263602980000002
 21
26.430303219999999
 31
0.0
  0
LINE
  5
4306
  8
241
  6
CONTINUOUS
 10
39.0
 20
34.31932944561715
 30
0.0
 11
39.0
 21
-34.319329445617107
 31
0.0
  0
ARC
  5
4307
  8
240
  6
CONTINUOUS
 10
45.764640669999977
 20
-30.0
 30
0.0
 40
5.0
 50
90.0
 51
160.0
  0
LINE
  5
4309
  8
240
  6
CONTINUOUS
 10
132.00015756940371
 20
25.0
 30
0.0
 11
45.764640669999977
 21
25.0
 31
0.0
  0
ARC
  5
430C
  8
240
  6
CONTINUOUS
 10
45.764640669999977
 20
30.0
 30
0.0
 40
5.0
 50
199.99999999999989
 51
270.0
  0
LINE
  5
430D
  8
240
  6
CONTINUOUS
 10
39.0
 20
34.319329445617122
 30
0.0
 11
39.0
 21
42.5
 31
0.0
  0
LINE
  5
4341
  8
240
  6
CONTINUOUS
 10
154.00000000000011
 20
18.8999999999997
 30
0.0
 11
153.9999999999994
 21
-18.90000000000007
 31
0.0
  0
LINE
  5
4342
  8
240
  6
CONTINUOUS
 10
152.09474411167341
 20
-20.000000000000071
 30
0.0
 11
138.7310976770699
 21
-20.00000000000005
 31
0.0
  0
LINE
  5
4343
  8
240
  6
CONTINUOUS
 10
132.0001575694036
 20
-25.0
 30
0.0
 11
132.00015756940419
 21
-20.4999999999911
 31
0.0
  0
LINE
  5
4344
  8
240
  6
CONTINUOUS
 10
132.00015756940419
 20
-20.4999999999911
 30
0.0
 11
138.21148243480101
 21
-20.50000000000119
 31
0.0
  0
LINE
  5
4345
  8
241
  6
CONTINUOUS
 10
137.50015756940459
 20
-20.500000000000021
 30
0.0
 11
137.50015756940721
 21
20.5
 31
0.0
1001
GRPNAME
1000
PASTMD0T
  0
LINE
  5
4346
  8
241
  6
CONTINUOUS
 10
136.4001575694046
 20
-20.499999999998241
 30
0.0
 11
136.40015756940741
 21
20.49999999999822
 31
0.0
1001
GRPNAME
1000
PASTMD0T
  0
LINE
  5
4347
  8
242
  6
CONTINUOUS
 10
140.50015756940351
 20
-19.999999999999918
 30
0.0
 11
140.50015756940579
 21
20.000000000000021
 31
0.0
  0
LINE
  5
4348
  8
240
  6
CONTINUOUS
 10
138.38468751555621
 20
-20.199999999999971
 30
0.0
 11
138.21148243480101
 21
-20.50000000000119
 31
0.0
  0
ARC
  5
4349
  8
240
  6
CONTINUOUS
 10
138.7310976770699
 20
-20.399999999999999
 30
0.0
 40
0.4
 50
90.0
 51
150.0
  0
LINE
  5
434A
  8
241
  6
CONTINUOUS
 10
138.5001575693943
 20
-20.073401367628879
 30
0.0
 11
138.5001575693943
 21
20.07340136763041
 31
0.0
  0
LINE
  5
434B
  8
241
  6
CONTINUOUS
 10
138.21148243479911
 20
-20.50000000000119
 30
0.0
 11
138.21148243479999
 21
20.500000000001162
 31
0.0
  0
LINE
  5
434C
  8
242
  6
CONTINUOUS
 10
140.50015756940101
 20
-19.249999999999972
 30
0.0
 11
153.39378221735191
 21
-19.24999999999984
 31
0.0
  0
LINE
  5
434D
  8
240
  6
CONTINUOUS
 10
153.9999999999994
 20
-18.90000000000007
 30
0.0
 11
152.09474411167341
 21
-20.000000000000071
 31
0.0
  0
LINE
  5
434E
  8
241
  6
CONTINUOUS
 10
152.0947441116742
 20
-20.000000000000231
 30
0.0
 11
152.0947441116744
 21
20.000000000000028
 31
0.0
  0
LINE
  5
434F
  8
241
  6
CONTINUOUS
 10
132.00015756940419
 20
-20.4999999999911
 30
0.0
 11
132.00015756940419
 21
20.499999999991079
 31
0.0
  0
LINE
  5
4350
  8
240
  6
CONTINUOUS
 10
152.09474411167341
 20
20.00000000000005
 30
0.0
 11
138.7310976770699
 21
20.000000000000021
 31
0.0
  0
LINE
  5
4351
  8
240
  6
CONTINUOUS
 10
132.00015756940419
 20
20.499999999991079
 30
0.0
 11
132.00015756940371
 21
25.0
 31
0.0
  0
LINE
  5
4352
  8
240
  6
CONTINUOUS
 10
132.00015756940419
 20
20.499999999991079
 30
0.0
 11
138.21148243480101
 21
20.500000000001162
 31
0.0
  0
LINE
  5
4353
  8
240
  6
CONTINUOUS
 10
138.38468751555621
 20
20.19999999999995
 30
0.0
 11
138.21148243480101
 21
20.500000000001162
 31
0.0
  0
ARC
  5
4354
  8
240
  6
CONTINUOUS
 10
138.7310976770699
 20
20.399999999999991
 30
0.0
 40
0.4
 50
210.0
 51
270.0
  0
LINE
  5
4355
  8
242
  6
CONTINUOUS
 10
140.50015756940101
 20
19.24999999999995
 30
0.0
 11
153.39378221735191
 21
19.249999999999812
 31
0.0
  0
LINE
  5
4356
  8
240
  6
CONTINUOUS
 10
154.00000000000011
 20
18.8999999999997
 30
0.0
 11
152.09474411167341
 21
20.00000000000005
 31
0.0
  0
LINE
  5
4357
  8
246
  6
PHANTOM2
 10
165.0
 20
-25.0
 30
0.0
 11
165.0
 21
25.0
 31
0.0
1001
GRPNAME
1000
PASTMD01
  0
LINE
  5
4358
  8
246
  6
PHANTOM2
 10
165.0
 20
25.0
 30
0.0
 11
134.80000000000001
 21
25.0
 31
0.0
  0
LINE
  5
4359
  8
250
  6
CONTINUOUS
 10
165.5
 20
-25.0
 30
0.0
 11
180.0
 21
-25.0
 31
0.0
  0
LINE
  5
435A
  8
250
  6
CONTINUOUS
 10
165.5
 20
25.0
 30
0.0
 11
180.00000000000011
 21
25.0
 31
0.0
  0
LINE
  5
435B
  8
250
  6
CONTINUOUS
 10
179.0
 20
-23.0
 30
0.0
 11
179.00000000000011
 21
23.0
 31
0.0
  0
INSERT
  5
435C
  8
250
  6
CONTINUOUS
  2
_OPEN
 10
179.0
 20
-25.0
 30
0.0
 41
2.0
 42
2.0
 43
2.0
 50
270.0
  0
INSERT
  5
435D
  8
250
  6
CONTINUOUS
  2
_OPEN
 10
179.00000000000011
 20
25.0
 30
0.0
 41
2.0
 42
2.0
 43
2.0
 50
90.0
  0
LINE
  5
435F
  8
246
  6
PHANTOM2
 10
165.0
 20
-25.0
 30
0.0
 11
134.80000000000001
 21
-25.0
 31
0.0
  0
LINE
  5
4360
  8
243
  6
HIDDEN2
 10
125.0
 20
12.174337938566079
 30
0.0
 11
154.0
 21
16.250022144935539
 31
0.0
  0
LINE
  5
4361
  8
243
  6
HIDDEN2
 10
125.0
 20
-12.174337938566079
 30
0.0
 11
154.0
 21
-16.250022144935539
 31
0.0
  0
LINE
  5
4923
  8
240
  6
CONTINUOUS
 10
39.0
 20
34.319329445617122
 30
0.0
 11
41.06617756
 21
28.28989928
 31
0.0
  0
LINE
  5
4924
  8
240
  6
CONTINUOUS
 10
39.0
 20
-34.319329445617122
 30
0.0
 11
41.06617756
 21
-28.28989928
 31
0.0
  0
TEXT
  5
4AE6
  8
250
 10
177.5134031217078
 20
-7.0949782011444924
 30
0.0
 40
2.799999999999998
  1
\U+2205
 50
90.0
  0
TEXT
  5
4AE7
  8
250
 10
177.5134031217078
 20
-4.5616448678111601
 30
0.0
 40
2.799999999999998
  1
1.969
 50
90.0
  0
VIEWPORT
  5
22
 67
     1
  8
0
 10
261.51769911504419
 20
148.5
 30
0.0
 40
523.0353982300885
 41
297.0
 68
     1
 69
     1
1001
ACAD
1000
MVIEW
1002
{
1070
    16
1010
0.0
1020
0.0
1030
0.0
1010
0.0
1020
0.0
1030
1.0
1040
0.0
1040
297.0
1040
261.51769911504419
1040
148.5
1040
50.0
1040
0.0
1040
0.0
1070
     0
1070
   100
1070
     1
1070
     1
1070
     0
1070
     0
1070
     0
1070
     0
1040
0.0
1040
0.0
1040
0.0
1040
1.0
1040
1.0
1040
10.0
1040
10.0
1070
     0
1002
{
1002
}
1002
}
1001
GENIUS_GENODEF_13
1002
{
1000
HIER
1070
     0
1002
}
1002
{
1000
MANEDIT
1070
     0
1002
}
1002
{
1000
NOSEL
1070
     0
1002
}
1002
{
1000
BEHIND
1070
     0
1002
}
1002
{
1000
OTHER
1070
     0
1002
}
1002
{
1000
REACTOR
1002
}
1001
GENIUS_GENOBJ-N-SDF_13
1002
{
1000
OWNER
1000
GEN
1002
}
1001
GENIUS_GENSCREG_15
1000
PF
1040
1.0
1000
DF
1040
1.0
1000
MIN
1011
0.0
1021
0.0
1031
0.0
1021
0.0
1031
0.0
1000
MAX
1011
523.0353982300885
1021
0.0
1031
0.0
1021
297.0
1031
0.0
1000
FLAGS
1070
     4
  0
ENDSEC
  0
EOF
