  0
SECTION
  2
HEADER
  9
$ACADVER
  1
AC1009
  9
$INSBASE
 10
0.0
 20
0.0
 30
0.0
  9
$EXTMIN
 10
-59.869239000000043
 20
-50.0
 30
0.0
  9
$EXTMAX
 10
146.0
 20
82.000000000000014
 30
0.0
  9
$LIMMIN
 10
0.0
 20
0.0
  9
$LIMMAX
 10
297.0
 20
210.0
  9
$ORTHOMODE
 70
     0
  9
$REGENMODE
 70
     1
  9
$FILLMODE
 70
     1
  9
$QTEXTMODE
 70
     0
  9
$MIRRTEXT
 70
     1
  9
$DRAGMODE
 70
     2
  9
$LTSCALE
 40
10.0
  9
$OSMODE
 70
    37
  9
$ATTMODE
 70
     1
  9
$TEXTSIZE
 40
3.0
  9
$TRACEWID
 40
1.0
  9
$TEXTSTYLE
  7
YOKO
  9
$CLAYER
  8
240
  9
$CELTYPE
  6
BYLAYER
  9
$CECOLOR
 62
   256
  9
$DIMSCALE
 40
1.0
  9
$DIMASZ
 40
2.2299999999999991
  9
$DIMEXO
 40
0.5
  9
$DIMDLI
 40
7.0
  9
$DIMRND
 40
0.0
  9
$DIMDLE
 40
0.0
  9
$DIMEXE
 40
1.0
  9
$DIMTP
 40
0.0
  9
$DIMTM
 40
0.01
  9
$DIMTXT
 40
2.7999999999999989
  9
$DIMCEN
 40
0.0
  9
$DIMTSZ
 40
0.0
  9
$DIMTOL
 70
     0
  9
$DIMLIM
 70
     0
  9
$DIMTIH
 70
     0
  9
$DIMTOH
 70
     0
  9
$DIMSE1
 70
     0
  9
$DIMSE2
 70
     0
  9
$DIMTAD
 70
     3
  9
$DIMZIN
 70
     9
  9
$DIMBLK
  1
OPEN
  9
$DIMASO
 70
     1
  9
$DIMSHO
 70
     1
  9
$DIMPOST
  1

  9
$DIMAPOST
  1

  9
$DIMALT
 70
     0
  9
$DIMALTD
 70
     2
  9
$DIMALTF
 40
25.399999999999999
  9
$DIMLFAC
 40
1.0
  9
$DIMTOFL
 70
     1
  9
$DIMTVP
 40
0.0
  9
$DIMTIX
 70
     1
  9
$DIMSOXD
 70
     0
  9
$DIMSAH
 70
     0
  9
$DIMBLK1
  1

  9
$DIMBLK2
  1

  9
$DIMSTYLE
  2
BIGT
  9
$DIMCLRD
 70
   256
  9
$DIMCLRE
 70
   256
  9
$DIMCLRT
 70
    40
  9
$DIMTFAC
 40
1.0
  9
$DIMGAP
 40
1.0
  9
$LUNITS
 70
     2
  9
$LUPREC
 70
     6
  9
$SKETCHINC
 40
1.0
  9
$FILLETRAD
 40
5.0
  9
$AUNITS
 70
     0
  9
$AUPREC
 70
     6
  9
$MENU
  1
.
  9
$ELEVATION
 40
0.0
  9
$PELEVATION
 40
0.0
  9
$THICKNESS
 40
0.0
  9
$LIMCHECK
 70
     0
  9
$BLIPMODE
 70
     0
  9
$CHAMFERA
 40
0.2
  9
$CHAMFERB
 40
0.2
  9
$SKPOLY
 70
     0
  9
$TDCREATE
 40
2458143.4636306022
  9
$TDUPDATE
 40
2458143.5748542482
  9
$TDINDWG
 40
0.0202675116
  9
$TDUSRTIMER
 40
0.0202674884
  9
$USRTIMER
 70
     1
  9
$ANGBASE
 50
0.0
  9
$ANGDIR
 70
     0
  9
$PDMODE
 70
     1
  9
$PDSIZE
 40
0.0
  9
$PLINEWID
 40
0.0
  9
$COORDS
 70
     1
  9
$SPLFRAME
 70
     0
  9
$SPLINETYPE
 70
     6
  9
$SPLINESEGS
 70
     4
  9
$ATTDIA
 70
     1
  9
$ATTREQ
 70
     1
  9
$HANDLING
 70
     1
  9
$HANDSEED
  5
45D9
  9
$SURFTAB1
 70
     6
  9
$SURFTAB2
 70
     6
  9
$SURFTYPE
 70
     6
  9
$SURFU
 70
     6
  9
$SURFV
 70
     6
  9
$UCSNAME
  2

  9
$UCSORG
 10
0.0
 20
0.0
 30
0.0
  9
$UCSXDIR
 10
1.0
 20
0.0
 30
0.0
  9
$UCSYDIR
 10
0.0
 20
1.0
 30
0.0
  9
$PUCSNAME
  2

  9
$PUCSORG
 10
0.0
 20
0.0
 30
0.0
  9
$PUCSXDIR
 10
1.0
 20
0.0
 30
0.0
  9
$PUCSYDIR
 10
0.0
 20
1.0
 30
0.0
  9
$USERI1
 70
     1
  9
$USERI2
 70
     0
  9
$USERI3
 70
     0
  9
$USERI4
 70
     0
  9
$USERI5
 70
     0
  9
$USERR1
 40
0.0
  9
$USERR2
 40
0.0
  9
$USERR3
 40
0.0
  9
$USERR4
 40
0.0
  9
$USERR5
 40
0.0
  9
$WORLDVIEW
 70
     1
  9
$SHADEDGE
 70
     3
  9
$SHADEDIF
 70
    70
  9
$TILEMODE
 70
     1
  9
$MAXACTVP
 70
    16
  9
$PLIMCHECK
 70
     0
  9
$PEXTMIN
 10
1.0000000000000000E+020
 20
1.0000000000000000E+020
 30
1.0000000000000000E+020
  9
$PEXTMAX
 10
-1.0000000000000000E+020
 20
-1.0000000000000000E+020
 30
-1.0000000000000000E+020
  9
$PLIMMIN
 10
0.0
 20
0.0
  9
$PLIMMAX
 10
420.0
 20
297.0
  9
$UNITMODE
 70
     0
  9
$VISRETAIN
 70
     1
  9
$PLINEGEN
 70
     0
  9
$PSLTSCALE
 70
     1
  0
ENDSEC
  0
SECTION
  2
TABLES
  0
TABLE
  2
VPORT
 70
     1
  0
VPORT
  2
*ACTIVE
 70
     0
 10
0.0
 20
0.0
 11
1.0
 21
1.0
 12
47.550213140036298
 22
10.152617059871901
 13
0.0
 23
0.0
 14
7.0
 24
7.0
 15
7.0
 25
7.0
 16
0.0
 26
0.0
 36
1.0
 17
0.0
 27
0.0
 37
0.0
 40
176.9055545010788
 41
1.515499425947187
 42
50.0
 43
0.0
 44
0.0
 50
0.0
 51
0.0
 71
     0
 72
  2000
 73
     1
 74
     0
 75
     0
 76
     1
 77
     0
 78
     0
  0
ENDTAB
  0
TABLE
  2
LTYPE
 70
    21
  0
LTYPE
  2
CONTINUOUS
 70
     0
  3
Solid line
 72
    65
 73
     0
 40
0.0
  0
LTYPE
  2
CENTER2
 70
     0
  3
___ _ ___ _ ___ _ ___ _ ___ _ ___ _ ___ _ ___ _
 72
    65
 73
     4
 40
1.125
 49
0.75
 49
-0.125
 49
0.125
 49
-0.125
  0
LTYPE
  2
HIDDEN2
 70
     0
  3
_ _ _ _ _ _ _ _ _ _ _ _ _ _ _ _ _ _ _ _ _ _ _ _
 72
    65
 73
     2
 40
0.1875
 49
0.125
 49
-0.0625
  0
LTYPE
  2
PHANTOM2
 70
     0
  3
___ _ _ ___ _ _ ___ _ _ ___ _ _ ___ _ _ ___ _ _
 72
    65
 73
     6
 40
1.25
 49
0.625
 49
-0.125
 49
0.125
 49
-0.125
 49
0.125
 49
-0.125
  0
LTYPE
  2
AM_ISO02W050
 70
     0
  3
__ __ __ __ __ __ __ __ __ __ __ __ __ __ __
 72
    65
 73
     2
 40
7.5
 49
6.0
 49
-1.5
  0
LTYPE
  2
AMCONSTR
 70
     0
  3
_______________________
 72
    65
 73
     2
 40
9999.0
 49
9999.0
 49
0.0
  0
LTYPE
  2
ACISOWELD
 70
     0
  3
_ _ _ _ _
 72
    65
 73
     2
 40
2.0
 49
2.0
 49
-1.0
  0
LTYPE
  2
ACISOTGB
 70
     0
  3
__ . . __ . .
 72
    65
 73
     6
 40
9.0
 49
4.0
 49
-1.0
 49
1.0
 49
-1.0
 49
1.0
 49
-1.0
  0
LTYPE
  2
ACISOTGL
 70
     0
  3
_ _ _ _ _
 72
    65
 73
     2
 40
3.0
 49
2.0
 49
-1.0
  0
LTYPE
  2
AM_ISO08W050
 70
     0
  3
____ . ____ . ____ . ____ . ____ . ____ . ____
 72
    65
 73
     4
 40
18.0
 49
12.0
 49
-1.5
 49
3.0
 49
-1.5
  0
LTYPE
  2
AM_ISO09W050
 70
     0
  3
_____ . . _____ . . _____ . . ____ .. ____
 72
    65
 73
     6
 40
22.5
 49
12.0
 49
-1.5
 49
3.0
 49
-1.5
 49
3.0
 49
-1.5
  0
LTYPE
  2
AM_ISO08W050X2
 70
     0
  3
__ . __ . __ . __ . __ . __
 72
    65
 73
     4
 40
9.0
 49
6.0
 49
-0.75
 49
1.5
 49
-0.75
  0
LTYPE
  2
AM_ISO02W050X2
 70
     0
  3
 _ _ _ _ _ _ _ _ _ _ _ _
 72
    65
 73
     2
 40
3.75
 49
3.0
 49
-0.75
  0
LTYPE
  2
AMZIGZAG
 70
     0
  3
/\/-/\/-/\/-/\/-/\/-/\/
 72
    65
 73
     2
 40
11.0001
 49
0.0001
 49
-11.0
  0
ENDTAB
  0
TABLE
  2
LAYER
 70
    10
  0
LAYER
  2
0
 70
     0
 62
     7
  6
CONTINUOUS
  0
LAYER
  2
DEFPOINTS
 70
     0
 62
     7
  6
CONTINUOUS
  0
LAYER
  2
245
 70
     0
 62
     2
  6
CENTER2
  0
LAYER
  2
240
 70
     0
 62
     4
  6
CONTINUOUS
  0
LAYER
  2
241
 70
     0
 62
   211
  6
CONTINUOUS
  0
LAYER
  2
242
 70
     0
 62
     3
  6
CONTINUOUS
  0
LAYER
  2
243
 70
     0
 62
   211
  6
HIDDEN2
  0
LAYER
  2
246
 70
     0
 62
     3
  6
PHANTOM2
  0
LAYER
  2
247
 70
     0
 62
    60
  6
CONTINUOUS
  0
LAYER
  2
250
 70
     0
 62
     3
  6
CONTINUOUS
  0
ENDTAB
  0
TABLE
  2
STYLE
 70
     8
  0
STYLE
  2
STANDARD
 70
     0
 40
0.0
 41
1.0
 50
0.0
 71
     0
 42
3.0
  3
romans.shx
  4
extfont.shx
  0
STYLE
  2
ACISOGDT
 70
     0
 40
0.0
 41
1.0
 50
0.0
 71
     0
 42
3.0
  3
amgdt.shx
  4
extfont.shx
  0
STYLE
  2
YOKO
 70
     0
 40
0.0
 41
1.0
 50
0.0
 71
     0
 42
3.0
  3
romans.shx
  4
extfont.shx
  0
STYLE
  2

 70
     1
 40
0.0
 41
1.0
 50
0.0
 71
     0
 42
3.0
  3
genltshp.shx
  4

  0
ENDTAB
  0
TABLE
  2
VIEW
 70
     0
  0
ENDTAB
  0
TABLE
  2
UCS
 70
     0
  0
ENDTAB
  0
TABLE
  2
APPID
 70
    39
  0
APPID
  2
ACAD
 70
     0
  0
APPID
  2
GLOBAL
 70
     0
  0
APPID
  2
DETAIL
 70
     0
  0
APPID
  2
GRPNAME
 70
     0
  0
APPID
  2
GPARA
 70
     0
  0
APPID
  2
MCAD_NO_VIS
 70
     0
  0
APPID
  2
ACAD_TEMP_GRAPHIC
 70
     0
  0
APPID
  2
ACATTRIBSERVICES
 70
     0
  0
APPID
  2
GENIUS_GENSCREG_15
 70
     0
  0
APPID
  2
GENIUS_GENODEF_13
 70
     0
  0
APPID
  2
GENIUS_GENOBJ-N-SDF_13
 70
     0
  0
APPID
  2
GENIUS_GENREC_14
 70
     0
  0
APPID
  2
GENIUS_GENOBJ-N-REC_13
 70
     0
  0
APPID
  2
GENIUS_GENDIMSH_14
 70
     0
  0
APPID
  2
GENIUS_GENOBJ-N-DIM_13
 70
     0
  0
APPID
  2
GENIUS_GENDIM_13
 70
     0
  0
APPID
  2
GENIUS_GENDTOL_13
 70
     0
  0
APPID
  2
GENIUS_GENOLIS_13
 70
     0
  0
APPID
  2
GENIUS_GENOENT_13
 70
     0
  0
APPID
  2
GENIUS_GENOBJ-F-FEM_13
 70
     0
  0
APPID
  2
GENIUS_GENOREF_13
 70
     0
  0
APPID
  2
GENIUS_GEFFEM_13
 70
     0
  0
APPID
  2
GENIUS_GEFFEMP_13
 70
     0
  0
APPID
  2
AD_DRAW
 70
     0
  0
APPID
  2
DESIGNERASSEMBLIES
 70
     0
  0
APPID
  2
ACADM_DIM_EDIT
 70
     0
  0
APPID
  2
AMDT_DM_ADJ
 70
     0
  0
APPID
  2
ITEMNAME
 70
     0
  0
APPID
  2
GENIUS_GENOBJ-N-FIL_13
 70
     0
  0
APPID
  2
GENIUS_GENFIL_13
 70
     0
  0
APPID
  2
GENIUS_GENOBJ-N-CHA_13
 70
     0
  0
APPID
  2
ACAECLAYERSTANDARD
 70
     0
  0
APPID
  2
ACAD_NAV_VCDISPLAY
 70
     0
  0
APPID
  2
ACAD_EXEMPT_FROM_CAD_STANDARDS
 70
     0
  0
APPID
  2
ACAD_PSEXT
 70
     0
  0
APPID
  2
ACAD_DSTYLE_DIMJAG
 70
     0
  0
APPID
  2
ACAD_DSTYLE_DIMBREAK
 70
     0
  0
APPID
  2
ACAD_DSTYLE_DIMINSPECT
 70
     0
  0
APPID
  2
ACAD_MLEADERVER
 70
     0
  0
ENDTAB
  0
TABLE
  2
DIMSTYLE
 70
    29
  0
DIMSTYLE
  2
BIGT
 70
     0
  3

  4

  5
OPEN
  6

  7

 40
1.0
 41
2.2299999999999991
 42
0.5
 43
7.0
 44
1.0
 45
0.0
 46
0.0
 47
0.0
 48
0.01
140
2.7999999999999989
141
0.0
142
0.0
143
25.399999999999999
144
1.0
145
0.0
146
1.0
147
1.0
 71
     0
 72
     0
 73
     0
 74
     0
 75
     0
 76
     0
 77
     3
 78
     9
170
     0
171
     2
172
     1
173
     0
174
     1
175
     0
176
   256
177
   256
178
    40
  0
DIMSTYLE
  2
AM_ISO
 70
     0
  3

  4
"
  5

  6

  7

 40
1.0
 41
2.5
 42
1.0
 43
10.0
 44
1.0
 45
0.0
 46
0.0
 47
0.1
 48
0.1
140
3.5
141
0.0
142
0.0
143
0.0393701
144
1.0
145
0.0
146
0.71
147
1.5
 71
     0
 72
     0
 73
     0
 74
     0
 75
     0
 76
     0
 77
     1
 78
     8
170
     0
171
     2
172
     1
173
     0
174
     0
175
     0
176
   256
177
   256
178
     2
  0
DIMSTYLE
  2
AM_ISO$3
 70
     0
  3

  4
"
  5

  6

  7

 40
1.0
 41
2.5
 42
1.0
 43
10.0
 44
1.0
 45
0.0
 46
0.0
 47
0.1
 48
0.1
140
3.5
141
0.0
142
0.0
143
0.0393701
144
1.0
145
0.0
146
0.71
147
1.5
 71
     0
 72
     0
 73
     0
 74
     1
 75
     0
 76
     0
 77
     1
 78
     8
170
     0
171
     2
172
     0
173
     0
174
     0
175
     0
176
   256
177
   256
178
     2
  0
DIMSTYLE
  2
AM_ISO$4
 70
     0
  3

  4
"
  5

  6

  7

 40
1.0
 41
2.5
 42
1.0
 43
10.0
 44
1.0
 45
0.0
 46
0.0
 47
0.1
 48
0.1
140
3.5
141
0.0
142
0.0
143
0.0393701
144
1.0
145
0.0
146
0.71
147
1.5
 71
     0
 72
     0
 73
     0
 74
     1
 75
     0
 76
     0
 77
     1
 78
     8
170
     0
171
     2
172
     0
173
     0
174
     0
175
     0
176
   256
177
   256
178
     2
  0
DIMSTYLE
  2
AM_ISO$6
 70
     0
  3

  4
"
  5

  6

  7

 40
1.0
 41
2.5
 42
1.0
 43
10.0
 44
1.0
 45
0.0
 46
0.0
 47
0.1
 48
0.1
140
3.5
141
0.0
142
0.0
143
0.0393701
144
1.0
145
0.0
146
0.71
147
1.5
 71
     0
 72
     0
 73
     0
 74
     0
 75
     0
 76
     0
 77
     0
 78
     8
170
     0
171
     2
172
     1
173
     0
174
     0
175
     0
176
   256
177
   256
178
     2
  0
DIMSTYLE
  2
AM_ISO$7
 70
     0
  3

  4
"
  5

  6

  7

 40
1.0
 41
2.5
 42
1.0
 43
10.0
 44
1.0
 45
0.0
 46
0.0
 47
0.1
 48
0.1
140
5.0
141
0.0
142
0.0
143
0.0393701
144
1.0
145
0.0
146
0.71
147
1.5
 71
     0
 72
     0
 73
     0
 74
     0
 75
     0
 76
     0
 77
     1
 78
     8
170
     0
171
     2
172
     1
173
     0
174
     0
175
     0
176
   256
177
   256
178
     2
  0
DIMSTYLE
  2
AM_ISO$SF
 70
     0
  3

  4
"
  5

  6

  7

 40
1.0
 41
2.5
 42
1.0
 43
10.0
 44
1.0
 45
0.0
 46
0.0
 47
0.1
 48
0.1
140
3.5
141
0.0
142
0.0
143
0.0393701
144
1.0
145
0.0
146
0.71
147
1.5
 71
     0
 72
     0
 73
     0
 74
     0
 75
     1
 76
     1
 77
     1
 78
     8
170
     0
171
     2
172
     1
173
     0
174
     0
175
     0
176
   256
177
   256
178
     2
  0
DIMSTYLE
  2
AM_ISO$SH
 70
     0
  3

  4
"
  5

  6
GENAXEH
  7

 40
1.0
 41
2.5
 42
1.0
 43
10.0
 44
1.0
 45
0.0
 46
0.0
 47
0.1
 48
0.1
140
3.5
141
0.0
142
0.0
143
0.0393701
144
2.0
145
0.0
146
0.71
147
1.5
 71
     0
 72
     0
 73
     0
 74
     0
 75
     1
 76
     1
 77
     1
 78
     8
170
     0
171
     2
172
     1
173
     1
174
     0
175
     0
176
   256
177
   256
178
     2
  0
ENDTAB
  0
ENDSEC
  0
SECTION
  2
BLOCKS
  0
BLOCK
  8
0
  2
$MODEL_SPACE
 70
     0
 10
0.0
 20
0.0
 30
0.0
  3
$MODEL_SPACE
  1

  0
ENDBLK
  5
1C
  8
0
  0
BLOCK
 67
     1
  8
0
  2
$PAPER_SPACE
 70
     0
 10
0.0
 20
0.0
 30
0.0
  3
$PAPER_SPACE
  1

  0
ENDBLK
  5
19
 67
     1
  8
0
  0
BLOCK
  8
0
  2
_OPEN
 70
     0
 10
0.0
 20
0.0
 30
0.0
  3
_OPEN
  1

  0
LINE
  5
3E1A
  8
0
  6
BYBLOCK
 62
     0
 10
-1.0
 20
0.1666666666666666
 30
0.0
 11
0.0
 21
0.0
 31
0.0
  0
LINE
  5
3E1B
  8
0
  6
BYBLOCK
 62
     0
 10
-1.0
 20
-0.1666666666666666
 30
0.0
 11
0.0
 21
0.0
 31
0.0
  0
LINE
  5
3E1C
  8
0
  6
BYBLOCK
 62
     0
 10
0.0
 20
0.0
 30
0.0
 11
-1.0
 21
0.0
 31
0.0
  0
ENDBLK
  5
3E1D
  8
0
  0
BLOCK
  8
0
  2
GENAXEH
 70
     0
 10
0.0
 20
0.0
 30
0.0
  3
GENAXEH
  1

  0
LINE
  5
3E45
  8
0
 10
-1.0
 20
0.0
 30
0.0
 11
1.0
 21
0.0
 31
0.0
  0
ENDBLK
  5
3E46
  8
0
  0
ENDSEC
  0
SECTION
  2
ENTITIES
  0
LINE
  5
42FE
  8
250
  6
CONTINUOUS
 10
-32.935905670000011
 20
-48.713341000780929
 30
0.0
 11
-59.869239000000043
 21
-48.713341000780929
 31
0.0
1001
ITEMNAME
1000
LNSP2
  0
LINE
  5
42FF
  8
240
  6
CONTINUOUS
 10
-50.0
 20
10.009999999999989
 30
0.0
 11
-50.0
 21
35.50000000156183
 31
0.0
  0
LINE
  5
4300
  8
241
  6
CONTINUOUS
 10
21.875000000000011
 20
10.0
 30
0.0
 11
21.875000000000011
 21
46.0
 31
0.0
  0
LINE
  5
4301
  8
241
  6
CONTINUOUS
 10
18.125000000000011
 20
10.0
 30
0.0
 11
18.125000000000011
 21
46.0
 31
0.0
  0
LINE
  5
4302
  8
241
  6
CONTINUOUS
 10
16.752404739999982
 20
10.0
 30
0.0
 11
16.752404739999982
 21
50.0
 31
0.0
  0
LINE
  5
4303
  8
241
  6
CONTINUOUS
 10
23.247595260000029
 20
10.0
 30
0.0
 11
23.247595260000029
 21
50.0
 31
0.0
  0
LINE
  5
4304
  8
240
  6
CONTINUOUS
 10
0.0000000000000071
 20
-37.999999999934928
 30
0.0
 11
-50.0
 21
-35.50000000156183
 31
0.0
  0
LINE
  5
4305
  8
243
  6
HIDDEN2
 10
-41.999999999999993
 20
-10.009999999999989
 30
0.0
 11
-36.999999999999993
 21
-10.009999999999989
 31
0.0
  0
LINE
  5
4306
  8
243
  6
HIDDEN2
 10
-41.999999999999993
 20
10.009999999999989
 30
0.0
 11
-36.999999999999993
 21
10.009999999999989
 31
0.0
  0
LINE
  5
4307
  8
240
  6
CONTINUOUS
 10
-50.0
 20
-35.50000000156183
 30
0.0
 11
-50.0
 21
-10.009999999999989
 31
0.0
  0
LINE
  5
4308
  8
240
  6
CONTINUOUS
 10
-40.0
 20
-8.0099999999999891
 30
0.0
 11
-40.0
 21
8.0099999999999891
 31
0.0
  0
LINE
  5
4309
  8
240
  6
CONTINUOUS
 10
-50.0
 20
-10.009999999999989
 30
0.0
 11
-41.999999999999993
 21
-10.009999999999989
 31
0.0
  0
ARC
  5
430A
  8
240
  6
CONTINUOUS
 10
-41.999999999999993
 20
-8.0099999999999891
 30
0.0
 40
2.0
 50
270.0
 51
0.0
  0
ARC
  5
430B
  8
240
  6
CONTINUOUS
 10
-41.999999999999993
 20
8.0099999999999891
 30
0.0
 40
2.0
 50
0.0
 51
90.0
  0
LINE
  5
430C
  8
240
  6
CONTINUOUS
 10
-50.0
 20
10.009999999999989
 30
0.0
 11
-41.999999999999993
 21
10.009999999999989
 31
0.0
  0
LINE
  5
430D
  8
240
  6
CONTINUOUS
 10
0.0000000000000071
 20
-50.0
 30
0.0
 11
0.0000000000000071
 21
-37.999999999934928
 31
0.0
  0
LINE
  5
430E
  8
241
  6
CONTINUOUS
 10
29.0
 20
-42.5
 30
0.0
 11
29.000000000000071
 21
42.5
 31
0.0
  0
LINE
  5
430F
  8
241
  6
CONTINUOUS
 10
21.875000000000011
 20
-33.522380580000011
 30
0.0
 11
21.875000000000011
 21
-46.0
 31
0.0
  0
LINE
  5
4310
  8
241
  6
CONTINUOUS
 10
18.125000000000011
 20
-33.522380580000011
 30
0.0
 11
18.125000000000011
 21
-46.0
 31
0.0
  0
LINE
  5
4311
  8
241
  6
CONTINUOUS
 10
16.752404739999982
 20
-50.0
 30
0.0
 11
16.752404739999982
 21
-38.829756629999991
 31
0.0
  0
LINE
  5
4312
  8
241
  6
CONTINUOUS
 10
23.247595260000029
 20
-50.0
 30
0.0
 11
23.247595260000029
 21
-38.829756629999991
 31
0.0
  0
LINE
  5
4313
  8
240
  6
CONTINUOUS
 10
0.0000000000000071
 20
-50.0
 30
0.0
 11
16.752404739999982
 21
-50.0
 31
0.0
  0
LINE
  5
4314
  8
240
  6
CONTINUOUS
 10
23.247595260000029
 20
-50.0
 30
0.0
 11
29.000000000000011
 21
-50.0
 31
0.0
  0
LINE
  5
4315
  8
240
  6
CONTINUOUS
 10
21.875000000000011
 20
-46.0
 30
0.0
 11
21.875000000000011
 21
-47.622595259999997
 31
0.0
  0
LINE
  5
4316
  8
240
  6
CONTINUOUS
 10
18.125000000000011
 20
-46.0
 30
0.0
 11
18.125000000000011
 21
-47.622595259999997
 31
0.0
  0
LINE
  5
4317
  8
240
  6
CONTINUOUS
 10
18.125000000000011
 20
-47.622595259999997
 30
0.0
 11
16.752404739999982
 21
-50.0
 31
0.0
  0
LINE
  5
4318
  8
240
  6
CONTINUOUS
 10
21.875000000000011
 20
-47.622595259999997
 30
0.0
 11
23.247595260000029
 21
-50.0
 31
0.0
  0
LINE
  5
4319
  8
240
  6
CONTINUOUS
 10
18.125000000000011
 20
-46.0
 30
0.0
 11
21.875000000000011
 21
-46.0
 31
0.0
  0
LINE
  5
431A
  8
240
  6
CONTINUOUS
 10
29.000000000000011
 20
-50.0
 30
0.0
 11
29.000000000000011
 21
-42.499999999999993
 31
0.0
  0
LINE
  5
431B
  8
243
  6
HIDDEN2
 10
-35.0
 20
-8.0099999999999891
 30
0.0
 11
-34.99999999999995
 21
8.0099999999999891
 31
0.0
  0
ARC
  5
431C
  8
243
  6
HIDDEN2
 10
-36.999999999999993
 20
-8.0099999999999891
 30
0.0
 40
2.0
 50
270.0
 51
0.0
  0
ARC
  5
431D
  8
243
  6
HIDDEN2
 10
-36.999999999999993
 20
8.0099999999999891
 30
0.0
 40
2.0
 50
0.0
 51
90.0
  0
LINE
  5
431E
  8
241
  6
CONTINUOUS
 10
0.0000000000000071
 20
-37.999999999934928
 30
0.0
 11
0.0
 21
37.9999999999349
 31
0.0
  0
LINE
  5
431F
  8
241
  6
CONTINUOUS
 10
18.125000000000011
 20
-10.0
 30
0.0
 11
18.125000000000011
 21
-31.5
 31
0.0
  0
LINE
  5
4320
  8
241
  6
CONTINUOUS
 10
16.752404739999982
 20
-31.5
 30
0.0
 11
16.752404739999982
 21
-10.0
 31
0.0
  0
LINE
  5
4321
  8
241
  6
CONTINUOUS
 10
21.875000000000011
 20
-10.0
 30
0.0
 11
21.875000000000011
 21
-31.5
 31
0.0
  0
LINE
  5
4322
  8
241
  6
CONTINUOUS
 10
23.247595260000029
 20
-31.5
 30
0.0
 11
23.247595260000029
 21
-10.0
 31
0.0
  0
LINE
  5
4323
  8
241
  6
CONTINUOUS
 10
14.63689785999998
 20
-31.5
 30
0.0
 11
29.000000000000011
 21
-31.5
 31
0.0
  0
LINE
  5
4324
  8
241
  6
CONTINUOUS
 10
5.0000000000000071
 20
-38.829756629999991
 30
0.0
 11
16.752404739999982
 21
-38.829756629999991
 31
0.0
  0
ARC
  5
4325
  8
241
  6
CONTINUOUS
 10
14.63689785999998
 20
-41.5
 30
0.0
 40
10.0
 50
90.0
 51
164.5127259999978
  0
LINE
  5
4326
  8
241
  6
CONTINUOUS
 10
23.247595260000029
 20
-38.829756629999991
 30
0.0
 11
29.000000000000011
 21
-38.829756629999991
 31
0.0
  0
LINE
  5
4327
  8
241
  6
CONTINUOUS
 10
18.125000000000011
 20
-33.522380580000011
 30
0.0
 11
21.875000000000011
 21
-33.522380580000011
 31
0.0
  0
LINE
  5
4328
  8
241
  6
CONTINUOUS
 10
16.752404739999982
 20
-38.829756629999991
 30
0.0
 11
18.125000000000011
 21
-35.716404910000001
 31
0.0
  0
LINE
  5
4329
  8
241
  6
CONTINUOUS
 10
23.247595260000029
 20
-38.829756629999991
 30
0.0
 11
21.875000000000011
 21
-35.716404910000001
 31
0.0
  0
LINE
  5
432A
  8
241
  6
CONTINUOUS
 10
15.000000000000011
 20
-10.0
 30
0.0
 11
29.000000000000011
 21
-10.0
 31
0.0
  0
LINE
  5
432B
  8
241
  6
CONTINUOUS
 10
15.000000000000011
 20
10.0
 30
0.0
 11
29.000000000000011
 21
10.0
 31
0.0
  0
LINE
  5
432C
  8
240
  6
CONTINUOUS
 10
0.0000000000000071
 20
37.9999999999349
 30
0.0
 11
-50.0
 21
35.50000000156183
 31
0.0
  0
LINE
  5
432D
  8
240
  6
CONTINUOUS
 10
0.0000000000000071
 20
50.0
 30
0.0
 11
0.0000000000000071
 21
37.9999999999349
 31
0.0
  0
LINE
  5
432E
  8
240
  6
CONTINUOUS
 10
0.0000000000000071
 20
50.0
 30
0.0
 11
16.752404739999982
 21
50.0
 31
0.0
  0
LINE
  5
432F
  8
240
  6
CONTINUOUS
 10
23.247595260000029
 20
50.0
 30
0.0
 11
29.000000000000011
 21
50.0
 31
0.0
  0
LINE
  5
4330
  8
240
  6
CONTINUOUS
 10
21.875000000000011
 20
47.622595260000018
 30
0.0
 11
23.247595260000029
 21
50.0
 31
0.0
  0
LINE
  5
4331
  8
240
  6
CONTINUOUS
 10
18.125000000000011
 20
47.622595260000018
 30
0.0
 11
16.752404739999982
 21
50.0
 31
0.0
  0
LINE
  5
4332
  8
240
  6
CONTINUOUS
 10
18.125000000000011
 20
46.0
 30
0.0
 11
21.875000000000011
 21
46.0
 31
0.0
  0
LINE
  5
4333
  8
240
  6
CONTINUOUS
 10
18.125000000000011
 20
46.0
 30
0.0
 11
18.125000000000011
 21
47.622595260000018
 31
0.0
  0
LINE
  5
4334
  8
240
  6
CONTINUOUS
 10
21.875000000000011
 20
46.0
 30
0.0
 11
21.875000000000011
 21
47.622595260000018
 31
0.0
  0
LINE
  5
4335
  8
240
  6
CONTINUOUS
 10
29.000000000000011
 20
50.0
 30
0.0
 11
29.000000000000011
 21
42.5
 31
0.0
  0
TEXT
  5
4336
  8
250
  6
CONTINUOUS
 10
-57.602572333333342
 20
-47.713341000780922
 30
0.0
 40
2.799999999999998
  1
HSK-A100
  7
YOKO
1001
ITEMNAME
1000
LNSP3
1001
ACAD
1000
MTEXTBEGIN
1070
    73
1070
     1
1070
    44
1040
1.0
1070
    74
1070
     0
1000
MTEXTEND
  0
LINE
  5
4337
  8
250
  6
CONTINUOUS
 10
-27.000000001057909
 20
-38.432050807739017
 30
0.0
 11
-32.935905670000011
 21
-48.713341000780929
 31
0.0
1001
ACAD
1000
DSTYLE
1002
{
1070
     6
1000
OPEN
1070
    41
1040
2.0
1070
    42
1040
2.0
1070
    44
1040
2.0
1070
   140
1040
4.0
1070
   343
1005
0
1002
}
  0
LINE
  5
4338
  8
250
  6
CONTINUOUS
 10
-27.288675135550928
 20
-38.26538414089606
 30
0.0
 11
-26.0
 21
-36.700000000780904
 31
0.0
  0
LINE
  5
4339
  8
250
  6
CONTINUOUS
 10
-26.71132486656489
 20
-38.598717474582003
 30
0.0
 11
-26.0
 21
-36.700000000780904
 31
0.0
  0
LINE
  5
433A
  8
250
  6
CONTINUOUS
 10
-26.0
 20
-36.700000000780904
 30
0.0
 11
-27.000000001057909
 21
-38.432050807739017
 31
0.0
  0
LINE
  5
433B
  8
245
  6
CENTER2
 10
-48.499999999999993
 20
0.0
 30
0.0
 11
137.28030175157591
 21
0.0
 31
0.0
  0
CIRCLE
  5
433C
  8
241
  6
CONTINUOUS
 10
-14.999999999999989
 20
0.0
 30
0.0
 40
6.0
  0
LINE
  5
433D
  8
247
  6
CONTINUOUS
 10
10.0
 20
-26.250000000070042
 30
0.0
 11
10.0
 21
-19.557692308030031
 31
0.0
  0
ARC
  5
433E
  8
247
  6
CONTINUOUS
 10
8.2500000000699814
 20
-26.250000000070042
 30
0.0
 40
1.7499999999299991
 50
180.0
 51
0.0
  0
ARC
  5
433F
  8
247
  6
CONTINUOUS
 10
8.2500000000700382
 20
-19.557692308030031
 30
0.0
 40
1.7499999999299991
 50
0.0
 51
180.0
  0
LINE
  5
4340
  8
247
  6
CONTINUOUS
 10
6.5000000001400684
 20
-25.384615384720011
 30
0.0
 11
9.5000000000200142
 21
-26.244851541962021
 31
0.0
  0
LINE
  5
4341
  8
247
  6
CONTINUOUS
 10
7.9230769231600169
 20
-24.48498381833582
 30
0.0
 11
7.9230769231600169
 21
-25.792676125975849
 31
0.0
  0
ARC
  5
4342
  8
247
  6
CONTINUOUS
 10
7.049598667702984
 20
-24.145143816089789
 30
0.0
 40
0.5538165441895349
 50
72.997889675292413
 51
172.92416621851351
  0
ARC
  5
4343
  8
247
  6
CONTINUOUS
 10
6.936033044465832
 20
-24.566878323028789
 30
0.0
 40
0.9904354236226808
 50
4.7429368522022122
 51
73.849226273266424
1001
GENIUS_GENOBJ-N-FIL_13
1002
{
1000
OWNER
1000
GEN
1002
}
1001
GENIUS_GENODEF_13
1002
{
1000
HIER
1070
     0
1002
}
1002
{
1000
MANEDIT
1070
     0
1002
}
1002
{
1000
NOSEL
1070
     0
1002
}
1002
{
1000
BEHIND
1070
     0
1002
}
1002
{
1000
OTHER
1070
     0
1002
}
1002
{
1000
REACTOR
1002
}
  0
LINE
  5
4344
  8
247
  6
CONTINUOUS
 10
9.5000000000200142
 20
-24.937159234321999
 30
0.0
 11
9.5000000000200142
 21
-26.244851541962021
 31
0.0
  0
LINE
  5
4345
  8
247
  6
CONTINUOUS
 10
6.5000000001400684
 20
-25.384615384720011
 30
0.0
 11
6.5000000001400684
 21
-24.076923077079989
 31
0.0
  0
ARC
  5
4346
  8
247
  6
CONTINUOUS
 10
8.4820242326656015
 20
-24.560919636546942
 30
0.0
 40
0.5640818586791229
 50
65.990941652528889
 51
172.26344345906909
  0
ARC
  5
4347
  8
247
  6
CONTINUOUS
 10
8.4874290391866296
 20
-25.038262685347089
 30
0.0
 40
1.0176059446230981
 50
5.701985164256504
 51
77.277338436822191
1001
GENIUS_GENOBJ-N-FIL_13
1002
{
1000
OWNER
1000
GEN
1002
}
1001
GENIUS_GENODEF_13
1002
{
1000
HIER
1070
     0
1002
}
1002
{
1000
MANEDIT
1070
     0
1002
}
1002
{
1000
NOSEL
1070
     0
1002
}
1002
{
1000
BEHIND
1070
     0
1002
}
1002
{
1000
OTHER
1070
     0
1002
}
1002
{
1000
REACTOR
1002
}
  0
LINE
  5
4348
  8
247
  6
CONTINUOUS
 10
9.5000000000200142
 20
-23.28331308054203
 30
0.0
 11
6.5000000001400684
 21
-22.42307692330002
 31
0.0
  0
LINE
  5
4349
  8
247
  6
CONTINUOUS
 10
6.5000000001400684
 20
-20.000000000319972
 30
0.0
 11
6.5000000001400684
 21
-20.565736619456569
 31
0.0
  0
LINE
  5
434A
  8
247
  6
CONTINUOUS
 10
9.5000000000200142
 20
-21.461538461799989
 30
0.0
 11
9.5000000000200142
 21
-20.846153846440021
 31
0.0
  0
ARC
  5
434B
  8
247
  6
CONTINUOUS
 10
8.5832851359733766
 20
-19.708791209122861
 30
0.0
 40
2.2526500823422122
 50
202.3594881415263
 51
254.99324854284609
  0
ARC
  5
434C
  8
247
  6
CONTINUOUS
 10
7.3083126551945341
 20
-20.37406947921323
 30
0.0
 40
0.8906723995727782
 50
94.994589319075374
 51
155.1663289573041
1001
GENIUS_GENOBJ-N-FIL_13
1002
{
1000
OWNER
1000
GEN
1002
}
1001
GENIUS_GENODEF_13
1002
{
1000
HIER
1070
     0
1002
}
1002
{
1000
MANEDIT
1070
     0
1002
}
1002
{
1000
NOSEL
1070
     0
1002
}
1002
{
1000
BEHIND
1070
     0
1002
}
1002
{
1000
OTHER
1070
     0
1002
}
1002
{
1000
REACTOR
1002
}
  0
ARC
  5
434D
  8
247
  6
CONTINUOUS
 10
8.1601458886677918
 20
-21.22645888621258
 30
0.0
 40
1.392781735586712
 50
15.846096555780679
 51
82.325137004169122
  0
ARC
  5
434E
  8
247
  6
CONTINUOUS
 10
8.4592434315272911
 20
-20.642212725840348
 30
0.0
 40
1.324563662670287
 50
249.7136016704969
 51
321.78874565640581
1001
GENIUS_GENOBJ-N-FIL_13
1002
{
1000
OWNER
1000
GEN
1002
}
1001
GENIUS_GENODEF_13
1002
{
1000
HIER
1070
     0
1002
}
1002
{
1000
MANEDIT
1070
     0
1002
}
1002
{
1000
NOSEL
1070
     0
1002
}
1002
{
1000
BEHIND
1070
     0
1002
}
1002
{
1000
OTHER
1070
     0
1002
}
1002
{
1000
REACTOR
1002
}
  0
LINE
  5
434F
  8
247
  6
CONTINUOUS
 10
8.3461538462199822
 20
-20.538461538759979
 30
0.0
 11
8.3461538462199822
 21
-19.846153846479961
 31
0.0
  0
ARC
  5
4350
  8
241
  6
CONTINUOUS
 10
15.000000000000011
 20
0.0
 30
0.0
 40
10.0
 50
90.0
 51
270.0
  0
LINE
  5
4351
  8
247
  6
CONTINUOUS
 10
6.500000000139952
 20
-26.250000000070042
 30
0.0
 11
6.500000000139952
 21
-25.576923077020041
 31
0.0
  0
TEXT
  5
435C
  8
241
  6
CONTINUOUS
 10
-50.0
 20
77.0
 30
0.0
 40
5.0
  1
HSK-A100-MEGAER16-135NL
  7
YOKO
 11
-50.0
 21
77.0
 31
0.0
 73
     1
  0
LINE
  5
4367
  8
240
  6
CONTINUOUS
 10
39.0
 20
-42.5
 30
0.0
 11
29.000000000000011
 21
-42.5
 31
0.0
  0
LINE
  5
4368
  8
240
  6
CONTINUOUS
 10
39.000000000000007
 20
42.5
 30
0.0
 11
29.000000000000011
 21
42.5
 31
0.0
  0
LINE
  5
436A
  8
240
  6
CONTINUOUS
 10
39.0
 20
-25.143572671453629
 30
0.0
 11
39.0
 21
-42.5
 31
0.0
  0
LINE
  5
436B
  8
241
  6
CONTINUOUS
 10
39.000000000000007
 20
25.14357267145374
 30
0.0
 11
39.000000000000007
 21
-25.143572671453629
 31
0.0
  0
LINE
  5
436E
  8
240
  6
CONTINUOUS
 10
39.000000000000007
 20
25.14357267145374
 30
0.0
 11
39.000000000000007
 21
42.5
 31
0.0
  0
LINE
  5
4370
  8
240
  6
CONTINUOUS
 10
126.19999999999909
 20
9.8999999999996167
 30
0.0
 11
126.2000000000007
 21
-9.8999999999986965
 31
0.0
  0
LINE
  5
4371
  8
240
  6
CONTINUOUS
 10
124.2947441116719
 20
-11.00000000000025
 30
0.0
 11
113.4309401076722
 21
-10.999999999999901
 31
0.0
  0
LINE
  5
4372
  8
240
  6
CONTINUOUS
 10
107.09999999999999
 20
-11.499999999990701
 30
0.0
 11
112.9113248653973
 21
-11.500000000002069
 31
0.0
  0
LINE
  5
4373
  8
240
  6
CONTINUOUS
 10
107.0999999999993
 20
-15.00000000000003
 30
0.0
 11
107.09999999999999
 21
-11.499999999990701
 31
0.0
  0
LINE
  5
4374
  8
241
  6
CONTINUOUS
 10
111.10000000000041
 20
-11.49999999999835
 30
0.0
 11
111.1000000000037
 21
11.49999999999852
 31
0.0
1001
GRPNAME
1000
PASTMD0T
  0
LINE
  5
4375
  8
241
  6
CONTINUOUS
 10
112.2000000000002
 20
-11.50000000000054
 30
0.0
 11
112.1999999999954
 21
11.50000000000068
 31
0.0
1001
GRPNAME
1000
PASTMD0T
  0
LINE
  5
4376
  8
242
  6
CONTINUOUS
 10
115.1999999999999
 20
-11.00000000000003
 30
0.0
 11
115.1999999999679
 21
10.99999999999997
 31
0.0
  0
LINE
  5
4377
  8
240
  6
CONTINUOUS
 10
113.0845299461585
 20
-11.1999999999999
 30
0.0
 11
112.9113248653973
 21
-11.500000000002069
 31
0.0
  0
ARC
  5
4378
  8
240
  6
CONTINUOUS
 10
113.4309401076722
 20
-11.39999999999989
 30
0.0
 40
0.4
 50
90.0
 51
150.00000000000091
  0
LINE
  5
4379
  8
241
  6
CONTINUOUS
 10
113.19999999999661
 20
-11.07340136762866
 30
0.0
 11
113.19999999999661
 21
11.07340136762893
 31
0.0
  0
LINE
  5
437A
  8
241
  6
CONTINUOUS
 10
112.9113248654027
 20
-11.49999999999136
 30
0.0
 11
112.91132486540759
 21
11.500000000002069
 31
0.0
  0
LINE
  5
437B
  8
242
  6
CONTINUOUS
 10
115.19999999999879
 20
-10.25000000000003
 30
0.0
 11
125.59378221734811
 21
-10.2500000000004
 31
0.0
  0
LINE
  5
437C
  8
240
  6
CONTINUOUS
 10
126.2000000000007
 20
-9.8999999999986965
 30
0.0
 11
124.2947441116719
 21
-11.00000000000025
 31
0.0
  0
LINE
  5
437D
  8
241
  6
CONTINUOUS
 10
124.2947441116734
 20
-10.98171652200088
 30
0.0
 11
124.2947441116735
 21
11.00000000000025
 31
0.0
  0
LINE
  5
437E
  8
241
  6
CONTINUOUS
 10
107.1000001144152
 20
-11.500000280940499
 30
0.0
 11
107.1000001144152
 21
11.49999999999069
 31
0.0
  0
LINE
  5
437F
  8
240
  6
CONTINUOUS
 10
124.2947441116719
 20
11.00000000000025
 30
0.0
 11
113.4309401076722
 21
10.999999999999901
 31
0.0
  0
LINE
  5
4380
  8
240
  6
CONTINUOUS
 10
107.09999999999999
 20
11.49999999999069
 30
0.0
 11
112.9113248653973
 21
11.500000000002069
 31
0.0
  0
LINE
  5
4381
  8
240
  6
CONTINUOUS
 10
107.0999999999993
 20
15.00000000000022
 30
0.0
 11
107.09999999999999
 21
11.49999999999069
 31
0.0
  0
LINE
  5
4382
  8
240
  6
CONTINUOUS
 10
113.0845299461585
 20
11.1999999999999
 30
0.0
 11
112.9113248653973
 21
11.500000000002069
 31
0.0
  0
ARC
  5
4383
  8
240
  6
CONTINUOUS
 10
113.4309401076722
 20
11.39999999999989
 30
0.0
 40
0.4
 50
209.99999999999901
 51
270.0
  0
LINE
  5
4384
  8
242
  6
CONTINUOUS
 10
115.19999999999879
 20
10.25000000000003
 30
0.0
 11
125.59378221734811
 21
10.2500000000004
 31
0.0
  0
LINE
  5
4385
  8
240
  6
CONTINUOUS
 10
126.19999999999909
 20
9.8999999999996167
 30
0.0
 11
124.2947441116719
 21
11.00000000000025
 31
0.0
  0
LINE
  5
4386
  8
246
  6
PHANTOM2
 10
134.99999999999989
 20
-15.0
 30
0.0
 11
135.0
 21
15.0
 31
0.0
1001
GRPNAME
1000
PASTMD01
  0
LINE
  5
4387
  8
246
  6
PHANTOM2
 10
134.99999999999989
 20
-15.0
 30
0.0
 11
110.0
 21
-14.999999999999909
 31
0.0
  0
LINE
  5
4388
  8
246
  6
PHANTOM2
 10
135.0
 20
15.0
 30
0.0
 11
110.0
 21
15.000000000000069
 31
0.0
  0
LINE
  5
4389
  8
250
  6
CONTINUOUS
 10
135.49999999999989
 20
-14.98075528957704
 30
0.0
 11
146.0
 21
-14.98075528957704
 31
0.0
  0
LINE
  5
438A
  8
250
  6
CONTINUOUS
 10
135.5
 20
15.019244710422971
 30
0.0
 11
146.0
 21
15.019244710422971
 31
0.0
  0
LINE
  5
438B
  8
250
  6
CONTINUOUS
 10
145.0
 20
-12.98075528957704
 30
0.0
 11
145.0
 21
13.019244710422971
 31
0.0
  0
INSERT
  5
438C
  8
250
  6
CONTINUOUS
  2
_OPEN
 10
145.0
 20
-14.98075528957704
 30
0.0
 41
2.0
 42
2.0
 43
2.0
 50
270.0
  0
INSERT
  5
438D
  8
250
  6
CONTINUOUS
  2
_OPEN
 10
145.0
 20
15.019244710422971
 30
0.0
 41
2.0
 42
2.0
 43
2.0
 50
90.0
  0
LINE
  5
438E
  8
243
  6
HIDDEN2
 10
107.69999999999941
 20
5.650016702941369
 30
0.0
 11
126.19999999999921
 21
8.2500221449357696
 31
0.0
  0
LINE
  5
438F
  8
243
  6
HIDDEN2
 10
107.69999999999941
 20
-5.650016702941369
 30
0.0
 11
126.19999999999921
 21
-8.2500221449357696
 31
0.0
  0
TEXT
  5
4390
  8
250
  6
CONTINUOUS
 10
143.82466683220511
 20
-6.8935935443234371
 30
0.0
 40
2.799999999999998
  1
\U+2205
 50
90.0
  0
TEXT
  5
4391
  8
250
  6
CONTINUOUS
 10
143.82466683220511
 20
-4.3602602109901021
 30
0.0
 40
2.799999999999998
  1
1.181
 50
90.0
  0
LINE
  5
4438
  8
240
  6
CONTINUOUS
 10
107.0999999999993
 20
-15.00000000000003
 30
0.0
 11
46.064640667621823
 21
-15.00000000000014
 31
0.0
  0
LINE
  5
4439
  8
240
  6
CONTINUOUS
 10
107.0999999999993
 20
15.00000000000022
 30
0.0
 11
46.064640667621667
 21
15.00000000000051
 31
0.0
  0
ARC
  5
443A
  8
240
  6
CONTINUOUS
 10
40.999999999999972
 20
-25.143572671453629
 30
0.0
 40
2.0
 50
159.99999999999989
 51
180.0
  0
LINE
  5
443B
  8
240
  6
CONTINUOUS
 10
39.120614758428168
 20
-24.459532384802291
 30
0.0
 11
41.366177563692268
 21
-18.289899283371831
 31
0.0
  0
ARC
  5
443D
  8
240
  6
CONTINUOUS
 10
40.99999999999995
 20
25.14357267145374
 30
0.0
 40
2.0
 50
180.0
 51
200.0
  0
LINE
  5
443E
  8
240
  6
CONTINUOUS
 10
39.12061475842814
 20
24.459532384802401
 30
0.0
 11
41.36617756369214
 21
18.289899283372211
 31
0.0
  0
ARC
  5
4440
  8
240
  6
CONTINUOUS
 10
46.064640667621703
 20
20.000000000000519
 30
0.0
 40
5.0
 50
199.9999999999996
 51
269.99999999999977
1001
GENIUS_GENOBJ-N-FIL_13
1002
{
1000
OWNER
1000
GEN
1002
}
1001
GENIUS_GENODEF_13
1002
{
1000
HIER
1070
     0
1002
}
1002
{
1000
MANEDIT
1070
     0
1002
}
1002
{
1000
NOSEL
1070
     0
1002
}
1002
{
1000
BEHIND
1070
     0
1002
}
1002
{
1000
OTHER
1070
     0
1002
}
1002
{
1000
REACTOR
1002
}
  0
ARC
  5
4441
  8
240
  6
CONTINUOUS
 10
46.064640667621831
 20
-20.000000000000139
 30
0.0
 40
5.0
 50
90.000000000000099
 51
160.0000000000004
1001
GENIUS_GENOBJ-N-FIL_13
1002
{
1000
OWNER
1000
GEN
1002
}
1001
GENIUS_GENODEF_13
1002
{
1000
HIER
1070
     0
1002
}
1002
{
1000
MANEDIT
1070
     0
1002
}
1002
{
1000
NOSEL
1070
     0
1002
}
1002
{
1000
BEHIND
1070
     0
1002
}
1002
{
1000
OTHER
1070
     0
1002
}
1002
{
1000
REACTOR
1002
}
  0
LINE
  5
4448
  8
241
  6
CONTINUOUS
 10
42.599999999999909
 20
-16.330303222140738
 30
0.0
 11
42.599999999999348
 21
16.394966706914669
 31
0.0
  0
LINE
  5
44B8
  8
250
  6
CONTINUOUS
 10
135.0
 20
15.5
 30
0.0
 11
135.0
 21
57.0
 31
0.0
  0
LINE
  5
44B9
  8
250
  6
CONTINUOUS
 10
28.500000000000011
 20
12.80000000000001
 30
0.0
 11
28.500000000000011
 21
57.0
 31
0.0
  0
LINE
  5
44BA
  8
250
  6
CONTINUOUS
 10
132.77000000000001
 20
56.0
 30
0.0
 11
30.730000000000011
 21
56.0
 31
0.0
  0
LINE
  5
44BE
  8
250
  6
CONTINUOUS
 10
0.0000000000000071
 20
50.5
 30
0.0
 11
0.000000000000008
 21
64.0
 31
0.0
  0
LINE
  5
44BF
  8
250
  6
CONTINUOUS
 10
135.0
 20
15.5
 30
0.0
 11
135.0
 21
64.0
 31
0.0
  0
LINE
  5
44C0
  8
250
  6
CONTINUOUS
 10
2.2300000000000071
 20
63.0
 30
0.0
 11
132.77000000000001
 21
63.0
 31
0.0
  0
TEXT
  5
44C4
  8
250
  6
CONTINUOUS
 10
72.627302945303683
 20
56.823058106576347
 30
0.0
 40
2.7999999999999989
  1
(max.4.19)
  0
LINE
  5
44C5
  8
250
  6
CONTINUOUS
 10
30.730000000000011
 20
55.62833333333333
 30
0.0
 11
28.500000000000011
 21
56.0
 31
0.0
  0
LINE
  5
44C6
  8
250
  6
CONTINUOUS
 10
30.730000000000011
 20
56.37166666666667
 30
0.0
 11
28.500000000000011
 21
56.0
 31
0.0
  0
LINE
  5
44C7
  8
250
  6
CONTINUOUS
 10
28.500000000000011
 20
56.0
 30
0.0
 11
30.730000000000011
 21
56.0
 31
0.0
  0
LINE
  5
44C8
  8
250
  6
CONTINUOUS
 10
132.77000000000001
 20
56.37166666666667
 30
0.0
 11
135.0
 21
56.0
 31
0.0
  0
LINE
  5
44C9
  8
250
  6
CONTINUOUS
 10
132.77000000000001
 20
55.62833333333333
 30
0.0
 11
135.0
 21
56.0
 31
0.0
  0
LINE
  5
44CA
  8
250
  6
CONTINUOUS
 10
135.0
 20
56.0
 30
0.0
 11
132.77000000000001
 21
56.0
 31
0.0
  0
TEXT
  5
44CB
  8
250
  6
CONTINUOUS
 10
61.500000000000028
 20
64.000000000000014
 30
0.0
 40
2.7999999999999989
  1
5.315
  0
LINE
  5
44CC
  8
250
  6
CONTINUOUS
 10
132.77000000000001
 20
63.37166666666667
 30
0.0
 11
135.0
 21
63.0
 31
0.0
  0
LINE
  5
44CD
  8
250
  6
CONTINUOUS
 10
132.77000000000001
 20
62.62833333333333
 30
0.0
 11
135.0
 21
63.0
 31
0.0
  0
LINE
  5
44CE
  8
250
  6
CONTINUOUS
 10
135.0
 20
63.0
 30
0.0
 11
132.77000000000001
 21
63.0
 31
0.0
  0
LINE
  5
44CF
  8
250
  6
CONTINUOUS
 10
2.2300000000000071
 20
62.62833333333333
 30
0.0
 11
0.0000000000000079
 21
63.0
 31
0.0
  0
LINE
  5
44D0
  8
250
  6
CONTINUOUS
 10
2.2300000000000071
 20
63.37166666666667
 30
0.0
 11
0.0000000000000079
 21
63.0
 31
0.0
  0
LINE
  5
44D1
  8
250
  6
CONTINUOUS
 10
0.0000000000000079
 20
63.0
 30
0.0
 11
2.2300000000000071
 21
63.0
 31
0.0
  0
VIEWPORT
  5
22
 67
     1
  8
0
 10
261.51769911504419
 20
148.5
 30
0.0
 40
523.0353982300885
 41
297.0
 68
     1
 69
     1
1001
ACAD
1000
MVIEW
1002
{
1070
    16
1010
0.0
1020
0.0
1030
0.0
1010
0.0
1020
0.0
1030
1.0
1040
0.0
1040
297.0
1040
261.51769911504419
1040
148.5
1040
50.0
1040
0.0
1040
0.0
1070
     0
1070
   100
1070
     1
1070
     1
1070
     0
1070
     0
1070
     0
1070
     0
1040
0.0
1040
0.0
1040
0.0
1040
1.0
1040
1.0
1040
10.0
1040
10.0
1070
     0
1002
{
1002
}
1002
}
1001
GENIUS_GENODEF_13
1002
{
1000
HIER
1070
     0
1002
}
1002
{
1000
MANEDIT
1070
     0
1002
}
1002
{
1000
NOSEL
1070
     0
1002
}
1002
{
1000
BEHIND
1070
     0
1002
}
1002
{
1000
OTHER
1070
     0
1002
}
1002
{
1000
REACTOR
1002
}
1001
GENIUS_GENOBJ-N-SDF_13
1002
{
1000
OWNER
1000
GEN
1002
}
1001
GENIUS_GENSCREG_15
1000
PF
1040
1.0
1000
DF
1040
1.0
1000
MIN
1011
0.0
1021
0.0
1031
0.0
1021
0.0
1031
0.0
1000
MAX
1011
523.0353982300885
1021
0.0
1031
0.0
1021
297.0
1031
0.0
1000
FLAGS
1070
     4
  0
ENDSEC
  0
EOF
