  0
SECTION
  2
HEADER
  9
$ACADVER
  1
AC1009
  9
$INSBASE
 10
0.0
 20
0.0
 30
0.0
  9
$EXTMIN
 10
-59.86923900000005
 20
-49.999999999999957
 30
0.0
  9
$EXTMAX
 10
129.98836524525089
 20
81.000000000000057
 30
0.0
  9
$LIMMIN
 10
0.0
 20
0.0
  9
$LIMMAX
 10
297.0
 20
210.0
  9
$ORTHOMODE
 70
     0
  9
$REGENMODE
 70
     1
  9
$FILLMODE
 70
     1
  9
$QTEXTMODE
 70
     0
  9
$MIRRTEXT
 70
     1
  9
$DRAGMODE
 70
     2
  9
$LTSCALE
 40
10.0
  9
$OSMODE
 70
    37
  9
$ATTMODE
 70
     1
  9
$TEXTSIZE
 40
3.0
  9
$TRACEWID
 40
1.0
  9
$TEXTSTYLE
  7
YOKO
  9
$CLAYER
  8
240
  9
$CELTYPE
  6
BYLAYER
  9
$CECOLOR
 62
   256
  9
$DIMSCALE
 40
1.0
  9
$DIMASZ
 40
2.2299999999999991
  9
$DIMEXO
 40
0.5
  9
$DIMDLI
 40
7.0
  9
$DIMRND
 40
0.0
  9
$DIMDLE
 40
0.0
  9
$DIMEXE
 40
1.0
  9
$DIMTP
 40
0.0
  9
$DIMTM
 40
0.01
  9
$DIMTXT
 40
2.7999999999999989
  9
$DIMCEN
 40
0.0
  9
$DIMTSZ
 40
0.0
  9
$DIMTOL
 70
     0
  9
$DIMLIM
 70
     0
  9
$DIMTIH
 70
     0
  9
$DIMTOH
 70
     0
  9
$DIMSE1
 70
     0
  9
$DIMSE2
 70
     0
  9
$DIMTAD
 70
     3
  9
$DIMZIN
 70
     9
  9
$DIMBLK
  1
OPEN
  9
$DIMASO
 70
     1
  9
$DIMSHO
 70
     1
  9
$DIMPOST
  1

  9
$DIMAPOST
  1

  9
$DIMALT
 70
     0
  9
$DIMALTD
 70
     2
  9
$DIMALTF
 40
25.399999999999999
  9
$DIMLFAC
 40
1.0
  9
$DIMTOFL
 70
     1
  9
$DIMTVP
 40
0.0
  9
$DIMTIX
 70
     1
  9
$DIMSOXD
 70
     0
  9
$DIMSAH
 70
     0
  9
$DIMBLK1
  1

  9
$DIMBLK2
  1

  9
$DIMSTYLE
  2
BIGT
  9
$DIMCLRD
 70
   256
  9
$DIMCLRE
 70
   256
  9
$DIMCLRT
 70
    40
  9
$DIMTFAC
 40
1.0
  9
$DIMGAP
 40
1.0
  9
$LUNITS
 70
     2
  9
$LUPREC
 70
     6
  9
$SKETCHINC
 40
1.0
  9
$FILLETRAD
 40
5.0
  9
$AUNITS
 70
     0
  9
$AUPREC
 70
     6
  9
$MENU
  1
.
  9
$ELEVATION
 40
0.0
  9
$PELEVATION
 40
0.0
  9
$THICKNESS
 40
0.0
  9
$LIMCHECK
 70
     0
  9
$BLIPMODE
 70
     0
  9
$CHAMFERA
 40
0.2
  9
$CHAMFERB
 40
0.2
  9
$SKPOLY
 70
     0
  9
$TDCREATE
 40
2458141.554616007
  9
$TDUPDATE
 40
2458142.5497347689
  9
$TDINDWG
 40
0.0320966435
  9
$TDUSRTIMER
 40
0.0320966204
  9
$USRTIMER
 70
     1
  9
$ANGBASE
 50
0.0
  9
$ANGDIR
 70
     0
  9
$PDMODE
 70
     1
  9
$PDSIZE
 40
0.0
  9
$PLINEWID
 40
0.0
  9
$COORDS
 70
     1
  9
$SPLFRAME
 70
     0
  9
$SPLINETYPE
 70
     6
  9
$SPLINESEGS
 70
     4
  9
$ATTDIA
 70
     1
  9
$ATTREQ
 70
     1
  9
$HANDLING
 70
     1
  9
$HANDSEED
  5
46E9
  9
$SURFTAB1
 70
     6
  9
$SURFTAB2
 70
     6
  9
$SURFTYPE
 70
     6
  9
$SURFU
 70
     6
  9
$SURFV
 70
     6
  9
$UCSNAME
  2

  9
$UCSORG
 10
0.0
 20
0.0
 30
0.0
  9
$UCSXDIR
 10
1.0
 20
0.0
 30
0.0
  9
$UCSYDIR
 10
0.0
 20
1.0
 30
0.0
  9
$PUCSNAME
  2

  9
$PUCSORG
 10
0.0
 20
0.0
 30
0.0
  9
$PUCSXDIR
 10
1.0
 20
0.0
 30
0.0
  9
$PUCSYDIR
 10
0.0
 20
1.0
 30
0.0
  9
$USERI1
 70
     1
  9
$USERI2
 70
     0
  9
$USERI3
 70
     0
  9
$USERI4
 70
     0
  9
$USERI5
 70
     0
  9
$USERR1
 40
0.0
  9
$USERR2
 40
0.0
  9
$USERR3
 40
0.0
  9
$USERR4
 40
0.0
  9
$USERR5
 40
0.0
  9
$WORLDVIEW
 70
     1
  9
$SHADEDGE
 70
     3
  9
$SHADEDIF
 70
    70
  9
$TILEMODE
 70
     1
  9
$MAXACTVP
 70
    16
  9
$PLIMCHECK
 70
     0
  9
$PEXTMIN
 10
1.0000000000000000E+020
 20
1.0000000000000000E+020
 30
1.0000000000000000E+020
  9
$PEXTMAX
 10
-1.0000000000000000E+020
 20
-1.0000000000000000E+020
 30
-1.0000000000000000E+020
  9
$PLIMMIN
 10
0.0
 20
0.0
  9
$PLIMMAX
 10
420.0
 20
297.0
  9
$UNITMODE
 70
     0
  9
$VISRETAIN
 70
     1
  9
$PLINEGEN
 70
     0
  9
$PSLTSCALE
 70
     1
  0
ENDSEC
  0
SECTION
  2
TABLES
  0
TABLE
  2
VPORT
 70
     1
  0
VPORT
  2
*ACTIVE
 70
     0
 10
0.0
 20
0.0
 11
1.0
 21
1.0
 12
64.545098771885961
 22
19.965176894313711
 13
0.0
 23
0.0
 14
7.0
 24
7.0
 15
7.0
 25
7.0
 16
0.0
 26
0.0
 36
1.0
 17
0.0
 27
0.0
 37
0.0
 40
205.0319141410308
 41
1.4533622559652919
 42
50.0
 43
0.0
 44
0.0
 50
0.0
 51
0.0
 71
     0
 72
  2000
 73
     1
 74
     0
 75
     0
 76
     1
 77
     0
 78
     0
  0
ENDTAB
  0
TABLE
  2
LTYPE
 70
    21
  0
LTYPE
  2
CONTINUOUS
 70
     0
  3
Solid line
 72
    65
 73
     0
 40
0.0
  0
LTYPE
  2
CENTER2
 70
     0
  3
___ _ ___ _ ___ _ ___ _ ___ _ ___ _ ___ _ ___ _
 72
    65
 73
     4
 40
1.125
 49
0.75
 49
-0.125
 49
0.125
 49
-0.125
  0
LTYPE
  2
HIDDEN2
 70
     0
  3
_ _ _ _ _ _ _ _ _ _ _ _ _ _ _ _ _ _ _ _ _ _ _ _
 72
    65
 73
     2
 40
0.1875
 49
0.125
 49
-0.0625
  0
LTYPE
  2
AM_ISO02W050
 70
     0
  3
__ __ __ __ __ __ __ __ __ __ __ __ __ __ __
 72
    65
 73
     2
 40
7.5
 49
6.0
 49
-1.5
  0
LTYPE
  2
AMCONSTR
 70
     0
  3
_______________________
 72
    65
 73
     2
 40
9999.0
 49
9999.0
 49
0.0
  0
LTYPE
  2
ACISOWELD
 70
     0
  3
_ _ _ _ _
 72
    65
 73
     2
 40
2.0
 49
2.0
 49
-1.0
  0
LTYPE
  2
ACISOTGB
 70
     0
  3
__ . . __ . .
 72
    65
 73
     6
 40
9.0
 49
4.0
 49
-1.0
 49
1.0
 49
-1.0
 49
1.0
 49
-1.0
  0
LTYPE
  2
ACISOTGL
 70
     0
  3
_ _ _ _ _
 72
    65
 73
     2
 40
3.0
 49
2.0
 49
-1.0
  0
LTYPE
  2
AM_ISO08W050
 70
     0
  3
____ . ____ . ____ . ____ . ____ . ____ . ____
 72
    65
 73
     4
 40
18.0
 49
12.0
 49
-1.5
 49
3.0
 49
-1.5
  0
LTYPE
  2
AM_ISO09W050
 70
     0
  3
_____ . . _____ . . _____ . . ____ .. ____
 72
    65
 73
     6
 40
22.5
 49
12.0
 49
-1.5
 49
3.0
 49
-1.5
 49
3.0
 49
-1.5
  0
LTYPE
  2
AM_ISO08W050X2
 70
     0
  3
__ . __ . __ . __ . __ . __
 72
    65
 73
     4
 40
9.0
 49
6.0
 49
-0.75
 49
1.5
 49
-0.75
  0
LTYPE
  2
AM_ISO02W050X2
 70
     0
  3
 _ _ _ _ _ _ _ _ _ _ _ _
 72
    65
 73
     2
 40
3.75
 49
3.0
 49
-0.75
  0
LTYPE
  2
AMZIGZAG
 70
     0
  3
/\/-/\/-/\/-/\/-/\/-/\/
 72
    65
 73
     2
 40
11.0001
 49
0.0001
 49
-11.0
  0
ENDTAB
  0
TABLE
  2
LAYER
 70
     8
  0
LAYER
  2
0
 70
     0
 62
     7
  6
CONTINUOUS
  0
LAYER
  2
DEFPOINTS
 70
     0
 62
     7
  6
CONTINUOUS
  0
LAYER
  2
245
 70
     0
 62
     2
  6
CENTER2
  0
LAYER
  2
240
 70
     0
 62
     4
  6
CONTINUOUS
  0
LAYER
  2
241
 70
     0
 62
   211
  6
CONTINUOUS
  0
LAYER
  2
243
 70
     0
 62
   211
  6
HIDDEN2
  0
LAYER
  2
247
 70
     0
 62
    60
  6
CONTINUOUS
  0
LAYER
  2
250
 70
     0
 62
     3
  6
CONTINUOUS
  0
ENDTAB
  0
TABLE
  2
STYLE
 70
     8
  0
STYLE
  2
STANDARD
 70
     0
 40
0.0
 41
1.0
 50
0.0
 71
     0
 42
3.0
  3
romans.shx
  4
extfont.shx
  0
STYLE
  2
ACISOGDT
 70
     0
 40
0.0
 41
1.0
 50
0.0
 71
     0
 42
3.0
  3
amgdt.shx
  4
extfont.shx
  0
STYLE
  2
YOKO
 70
     0
 40
0.0
 41
1.0
 50
0.0
 71
     0
 42
3.0
  3
romans.shx
  4
extfont.shx
  0
STYLE
  2

 70
     1
 40
0.0
 41
1.0
 50
0.0
 71
     0
 42
3.0
  3
genltshp.shx
  4

  0
ENDTAB
  0
TABLE
  2
VIEW
 70
     0
  0
ENDTAB
  0
TABLE
  2
UCS
 70
     0
  0
ENDTAB
  0
TABLE
  2
APPID
 70
    41
  0
APPID
  2
ACAD
 70
     0
  0
APPID
  2
GLOBAL
 70
     0
  0
APPID
  2
DETAIL
 70
     0
  0
APPID
  2
GRPNAME
 70
     0
  0
APPID
  2
GPARA
 70
     0
  0
APPID
  2
MCAD_NO_VIS
 70
     0
  0
APPID
  2
ACAD_TEMP_GRAPHIC
 70
     0
  0
APPID
  2
ACATTRIBSERVICES
 70
     0
  0
APPID
  2
GENIUS_GENSCREG_15
 70
     0
  0
APPID
  2
GENIUS_GENODEF_13
 70
     0
  0
APPID
  2
GENIUS_GENOBJ-N-SDF_13
 70
     0
  0
APPID
  2
GENIUS_GENREC_14
 70
     0
  0
APPID
  2
GENIUS_GENOBJ-N-REC_13
 70
     0
  0
APPID
  2
GENIUS_GENDIMSH_14
 70
     0
  0
APPID
  2
GENIUS_GENOBJ-N-DIM_13
 70
     0
  0
APPID
  2
GENIUS_GENDIM_13
 70
     0
  0
APPID
  2
GENIUS_GENDTOL_13
 70
     0
  0
APPID
  2
GENIUS_GENOLIS_13
 70
     0
  0
APPID
  2
GENIUS_GENOENT_13
 70
     0
  0
APPID
  2
GENIUS_GENOBJ-F-FEM_13
 70
     0
  0
APPID
  2
GENIUS_GENOREF_13
 70
     0
  0
APPID
  2
GENIUS_GEFFEM_13
 70
     0
  0
APPID
  2
GENIUS_GEFFEMP_13
 70
     0
  0
APPID
  2
AD_DRAW
 70
     0
  0
APPID
  2
DESIGNERASSEMBLIES
 70
     0
  0
APPID
  2
ACADM_DIM_EDIT
 70
     0
  0
APPID
  2
AMDT_DM_ADJ
 70
     0
  0
APPID
  2
ITEMNAME
 70
     0
  0
APPID
  2
GENIUS_GENOBJ-N-FIL_13
 70
     0
  0
APPID
  2
GENIUS_GENFIL_13
 70
     0
  0
APPID
  2
GENIUS_GENOBJ-N-CHA_13
 70
     0
  0
APPID
  2
ACAECLAYERSTANDARD
 70
     0
  0
APPID
  2
ACAD_NAV_VCDISPLAY
 70
     0
  0
APPID
  2
ACAD_PSEXT
 70
     0
  0
APPID
  2
ACAD_DSTYLE_DIMJAG
 70
     0
  0
APPID
  2
ACAD_DSTYLE_DIMTALN
 70
     0
  0
APPID
  2
ACAD_EXEMPT_FROM_CAD_STANDARDS
 70
     0
  0
APPID
  2
ACAD_DSTYLE_DIMBREAK
 70
     0
  0
APPID
  2
ACAD_DSTYLE_DIMINSPECT
 70
     0
  0
APPID
  2
ACAD_DSTYLE_DIMANGULAR_EXT
 70
     0
  0
APPID
  2
ACAD_MLEADERVER
 70
     0
  0
ENDTAB
  0
TABLE
  2
DIMSTYLE
 70
    29
  0
DIMSTYLE
  2
BIGT
 70
     0
  3

  4

  5
OPEN
  6

  7

 40
1.0
 41
2.2299999999999991
 42
0.5
 43
7.0
 44
1.0
 45
0.0
 46
0.0
 47
0.0
 48
0.01
140
2.7999999999999989
141
0.0
142
0.0
143
25.399999999999999
144
1.0
145
0.0
146
1.0
147
1.0
 71
     0
 72
     0
 73
     0
 74
     0
 75
     0
 76
     0
 77
     3
 78
     9
170
     0
171
     2
172
     1
173
     0
174
     1
175
     0
176
   256
177
   256
178
    40
  0
DIMSTYLE
  2
AM_ISO
 70
     0
  3

  4
"
  5

  6

  7

 40
1.0
 41
2.5
 42
1.0
 43
10.0
 44
1.0
 45
0.0
 46
0.0
 47
0.1
 48
0.1
140
3.5
141
0.0
142
0.0
143
0.0393701
144
1.0
145
0.0
146
0.71
147
1.5
 71
     0
 72
     0
 73
     0
 74
     0
 75
     0
 76
     0
 77
     1
 78
     8
170
     0
171
     2
172
     1
173
     0
174
     0
175
     0
176
   256
177
   256
178
     2
  0
DIMSTYLE
  2
AM_ISO$3
 70
     0
  3

  4
"
  5

  6

  7

 40
1.0
 41
2.5
 42
1.0
 43
10.0
 44
1.0
 45
0.0
 46
0.0
 47
0.1
 48
0.1
140
3.5
141
0.0
142
0.0
143
0.0393701
144
1.0
145
0.0
146
0.71
147
1.5
 71
     0
 72
     0
 73
     0
 74
     1
 75
     0
 76
     0
 77
     1
 78
     8
170
     0
171
     2
172
     0
173
     0
174
     0
175
     0
176
   256
177
   256
178
     2
  0
DIMSTYLE
  2
AM_ISO$4
 70
     0
  3

  4
"
  5

  6

  7

 40
1.0
 41
2.5
 42
1.0
 43
10.0
 44
1.0
 45
0.0
 46
0.0
 47
0.1
 48
0.1
140
3.5
141
0.0
142
0.0
143
0.0393701
144
1.0
145
0.0
146
0.71
147
1.5
 71
     0
 72
     0
 73
     0
 74
     1
 75
     0
 76
     0
 77
     1
 78
     8
170
     0
171
     2
172
     0
173
     0
174
     0
175
     0
176
   256
177
   256
178
     2
  0
DIMSTYLE
  2
AM_ISO$6
 70
     0
  3

  4
"
  5

  6

  7

 40
1.0
 41
2.5
 42
1.0
 43
10.0
 44
1.0
 45
0.0
 46
0.0
 47
0.1
 48
0.1
140
3.5
141
0.0
142
0.0
143
0.0393701
144
1.0
145
0.0
146
0.71
147
1.5
 71
     0
 72
     0
 73
     0
 74
     0
 75
     0
 76
     0
 77
     0
 78
     8
170
     0
171
     2
172
     1
173
     0
174
     0
175
     0
176
   256
177
   256
178
     2
  0
DIMSTYLE
  2
AM_ISO$7
 70
     0
  3

  4
"
  5

  6

  7

 40
1.0
 41
2.5
 42
1.0
 43
10.0
 44
1.0
 45
0.0
 46
0.0
 47
0.1
 48
0.1
140
5.0
141
0.0
142
0.0
143
0.0393701
144
1.0
145
0.0
146
0.71
147
1.5
 71
     0
 72
     0
 73
     0
 74
     0
 75
     0
 76
     0
 77
     1
 78
     8
170
     0
171
     2
172
     1
173
     0
174
     0
175
     0
176
   256
177
   256
178
     2
  0
DIMSTYLE
  2
AM_ISO$SF
 70
     0
  3

  4
"
  5

  6

  7

 40
1.0
 41
2.5
 42
1.0
 43
10.0
 44
1.0
 45
0.0
 46
0.0
 47
0.1
 48
0.1
140
3.5
141
0.0
142
0.0
143
0.0393701
144
1.0
145
0.0
146
0.71
147
1.5
 71
     0
 72
     0
 73
     0
 74
     0
 75
     1
 76
     1
 77
     1
 78
     8
170
     0
171
     2
172
     1
173
     0
174
     0
175
     0
176
   256
177
   256
178
     2
  0
DIMSTYLE
  2
AM_ISO$SH
 70
     0
  3

  4
"
  5

  6
GENAXEH
  7

 40
1.0
 41
2.5
 42
1.0
 43
10.0
 44
1.0
 45
0.0
 46
0.0
 47
0.1
 48
0.1
140
3.5
141
0.0
142
0.0
143
0.0393701
144
2.0
145
0.0
146
0.71
147
1.5
 71
     0
 72
     0
 73
     0
 74
     0
 75
     1
 76
     1
 77
     1
 78
     8
170
     0
171
     2
172
     1
173
     1
174
     0
175
     0
176
   256
177
   256
178
     2
  0
ENDTAB
  0
ENDSEC
  0
SECTION
  2
BLOCKS
  0
BLOCK
  8
0
  2
$MODEL_SPACE
 70
     0
 10
0.0
 20
0.0
 30
0.0
  3
$MODEL_SPACE
  1

  0
ENDBLK
  5
1C
  8
0
  0
BLOCK
 67
     1
  8
0
  2
$PAPER_SPACE
 70
     0
 10
0.0
 20
0.0
 30
0.0
  3
$PAPER_SPACE
  1

  0
ENDBLK
  5
19
 67
     1
  8
0
  0
BLOCK
  8
0
  2
_OPEN
 70
     0
 10
0.0
 20
0.0
 30
0.0
  3
_OPEN
  1

  0
LINE
  5
3E1A
  8
0
  6
BYBLOCK
 62
     0
 10
-1.0
 20
0.1666666666666666
 30
0.0
 11
0.0
 21
0.0
 31
0.0
  0
LINE
  5
3E1B
  8
0
  6
BYBLOCK
 62
     0
 10
-1.0
 20
-0.1666666666666666
 30
0.0
 11
0.0
 21
0.0
 31
0.0
  0
LINE
  5
3E1C
  8
0
  6
BYBLOCK
 62
     0
 10
0.0
 20
0.0
 30
0.0
 11
-1.0
 21
0.0
 31
0.0
  0
ENDBLK
  5
3E1D
  8
0
  0
BLOCK
  8
0
  2
GENAXEH
 70
     0
 10
0.0
 20
0.0
 30
0.0
  3
GENAXEH
  1

  0
LINE
  5
3E45
  8
0
 10
-1.0
 20
0.0
 30
0.0
 11
1.0
 21
0.0
 31
0.0
  0
ENDBLK
  5
3E46
  8
0
  0
ENDSEC
  0
SECTION
  2
ENTITIES
  0
LINE
  5
42C1
  8
245
  6
CENTER2
 10
-51.78893325440162
 20
-0.0000000000000711
 30
0.0
 11
105.0
 21
0.0
 31
0.0
1001
GRPNAME
1000
PASTMD3W
  0
ARC
  5
42C2
  8
243
  6
HIDDEN2
 10
-9.4966925428961986
 20
-19.49999999999995
 30
0.0
 40
11.99999999805476
 50
270.00000005784239
 51
321.92687672764129
1001
GRPNAME
1000
PASTMD0M
  0
LINE
  5
42C3
  8
243
  6
HIDDEN2
 10
-9.4966925428961986
 20
-31.499999999999961
 30
0.0
 11
-27.11662432702553
 21
-31.499999999999961
 31
0.0
1001
GRPNAME
1000
PASTMD0M
  0
LINE
  5
42C4
  8
243
  6
HIDDEN2
 10
-30.003375672974471
 20
-26.499999999999961
 30
0.0
 11
-50.0
 21
-26.499999999999961
 31
0.0
1001
GRPNAME
1000
PASTMD0M
  0
LINE
  5
42C5
  8
243
  6
HIDDEN2
 10
-30.003375672974471
 20
-26.499999999999961
 30
0.0
 11
-27.11662432702553
 21
-31.499999999999961
 31
0.0
1001
GRPNAME
1000
PASTMD0M
  0
LINE
  5
42C6
  8
243
  6
HIDDEN2
 10
-35.0
 20
-36.249999999999957
 30
0.0
 11
-35.0
 21
-26.499999999999961
 31
0.0
1001
GRPNAME
1000
PASTMD0M
  0
LINE
  5
42C7
  8
243
  6
HIDDEN2
 10
4.9999999999990878
 20
-49.999999999999957
 30
0.0
 11
4.9999999999990878
 21
-43.99999999999995
 31
0.0
1001
GRPNAME
1000
PASTMD0M
  0
LINE
  5
42C8
  8
243
  6
HIDDEN2
 10
28.999999999999091
 20
-43.99999999999995
 30
0.0
 11
4.9999999999990878
 21
-43.99999999999995
 31
0.0
1001
GRPNAME
1000
PASTMD0M
  0
ARC
  5
42C9
  8
243
  6
HIDDEN2
 10
-9.4966925428961986
 20
19.500000000000039
 30
0.0
 40
11.999999998054779
 50
38.073123330214379
 51
90.0
1001
GRPNAME
1000
PASTMD0M
  0
LINE
  5
42CA
  8
243
  6
HIDDEN2
 10
-9.4966925428961986
 20
31.49999999805555
 30
0.0
 11
-27.116624326987509
 21
31.500000000065921
 31
0.0
1001
GRPNAME
1000
PASTMD0M
  0
LINE
  5
42CB
  8
243
  6
HIDDEN2
 10
-40.0
 20
26.500000000000039
 30
0.0
 11
-40.0
 21
36.00000000000005
 31
0.0
1001
GRPNAME
1000
PASTMD0M
  0
LINE
  5
42CC
  8
243
  6
HIDDEN2
 10
-30.003375672974471
 20
26.500000000000039
 30
0.0
 11
-27.116624326987509
 21
31.500000000065921
 31
0.0
1001
GRPNAME
1000
PASTMD0M
  0
LINE
  5
42CD
  8
243
  6
HIDDEN2
 10
-30.003375672974471
 20
26.500000000000039
 30
0.0
 11
-50.0
 21
26.500000000000039
 31
0.0
1001
GRPNAME
1000
PASTMD0M
  0
LINE
  5
42CE
  8
241
  6
CONTINUOUS
 10
23.24759526419075
 20
-49.999999999999957
 30
0.0
 11
23.24759526419075
 21
31.500000000000039
 31
0.0
1001
GRPNAME
1000
PASTMD0M
  0
LINE
  5
42CF
  8
241
  6
CONTINUOUS
 10
16.752404735808341
 20
-49.999999999999957
 30
0.0
 11
16.752404735807659
 21
31.500000000000039
 31
0.0
1001
GRPNAME
1000
PASTMD0M
  0
LINE
  5
42D0
  8
243
  6
HIDDEN2
 10
4.9999999999990878
 20
44.000000000000021
 30
0.0
 11
4.9999999999990878
 21
50.000000000000021
 31
0.0
1001
GRPNAME
1000
PASTMD0M
  0
LINE
  5
42D1
  8
243
  6
HIDDEN2
 10
28.999999999999091
 20
44.000000000000021
 30
0.0
 11
4.9999999999990878
 21
44.000000000000021
 31
0.0
1001
GRPNAME
1000
PASTMD0M
  0
LINE
  5
42D2
  8
240
  6
CONTINUOUS
 10
16.752404735808341
 20
-49.999999999999957
 30
0.0
 11
0.0
 21
-49.999999999999957
 31
0.0
1001
GRPNAME
1000
PASTMD0M
  0
LINE
  5
42D3
  8
240
  6
CONTINUOUS
 10
28.999999999999091
 20
-49.999999999999957
 30
0.0
 11
23.24759526419075
 21
-49.999999999999957
 31
0.0
1001
GRPNAME
1000
PASTMD0M
  0
LINE
  5
42D4
  8
240
  6
CONTINUOUS
 10
18.125
 20
-47.622595264191602
 30
0.0
 11
16.752404735808341
 21
-49.999999999999957
 31
0.0
1001
GRPNAME
1000
PASTMD0M
  0
LINE
  5
42D5
  8
240
  6
CONTINUOUS
 10
21.87499999999908
 20
-47.622595264191602
 30
0.0
 11
23.24759526419075
 21
-49.999999999999957
 31
0.0
1001
GRPNAME
1000
PASTMD0M
  0
LINE
  5
42D6
  8
241
  6
CONTINUOUS
 10
21.874999999999151
 20
31.500000000000039
 30
0.0
 11
21.87499999999898
 21
-45.999999999999957
 31
0.0
1001
GRPNAME
1000
PASTMD0M
  0
LINE
  5
42D7
  8
240
  6
CONTINUOUS
 10
21.874999999998799
 20
-45.999999999999957
 30
0.0
 11
21.87499999999908
 21
-47.622595264191602
 31
0.0
1001
GRPNAME
1000
PASTMD0M
  0
LINE
  5
42D8
  8
240
  6
CONTINUOUS
 10
21.874999999998799
 20
-45.999999999999957
 30
0.0
 11
18.124999999999702
 21
-45.999999999999957
 31
0.0
1001
GRPNAME
1000
PASTMD0M
  0
LINE
  5
42D9
  8
241
  6
CONTINUOUS
 10
18.12500000000006
 20
31.500000000000039
 30
0.0
 11
18.124999999999879
 21
-45.999999999999957
 31
0.0
1001
GRPNAME
1000
PASTMD0M
  0
LINE
  5
42DA
  8
240
  6
CONTINUOUS
 10
18.124999999999702
 20
-45.999999999999957
 30
0.0
 11
18.125
 21
-47.622595264191602
 31
0.0
1001
GRPNAME
1000
PASTMD0M
  0
LINE
  5
42DB
  8
240
  6
CONTINUOUS
 10
0.0
 20
-49.999999999999957
 30
0.0
 11
0.0
 21
-37.999999999999602
 31
0.0
1001
GRPNAME
1000
PASTMD0M
  0
LINE
  5
42DC
  8
241
  6
CONTINUOUS
 10
0.0
 20
-37.999999999999602
 30
0.0
 11
0.0000000000000284
 21
37.999999999999673
 31
0.0
1001
GRPNAME
1000
PASTMD0M
  0
LINE
  5
42DD
  8
245
  6
CENTER2
 10
-15.0
 20
-37.899999999999601
 30
0.0
 11
-15.0
 21
-29.577193358162571
 31
0.0
1001
GRPNAME
1000
PASTMD0M
  0
LINE
  5
42DE
  8
245
  6
CENTER2
 10
-15.0
 20
29.577193358162489
 30
0.0
 11
-15.0
 21
37.899999999999679
 31
0.0
1001
GRPNAME
1000
PASTMD0M
  0
LINE
  5
42DF
  8
243
  6
HIDDEN2
 10
-9.0000000000000568
 20
-37.549999999999621
 30
0.0
 11
-9.0
 21
-31.48971627984352
 31
0.0
1001
GRPNAME
1000
PASTMD0M
  0
LINE
  5
42E0
  8
243
  6
HIDDEN2
 10
-9.0
 20
31.489716279843648
 30
0.0
 11
-9.0
 21
37.54999999999967
 31
0.0
1001
GRPNAME
1000
PASTMD0M
  0
LINE
  5
42E1
  8
243
  6
HIDDEN2
 10
-21.0
 20
-36.949999999999669
 30
0.0
 11
-21.0
 21
-31.499999999999961
 31
0.0
1001
GRPNAME
1000
PASTMD0M
  0
LINE
  5
42E2
  8
243
  6
HIDDEN2
 10
-21.0
 20
31.499999999368061
 30
0.0
 11
-21.0
 21
36.949999999999747
 31
0.0
1001
GRPNAME
1000
PASTMD0M
  0
LINE
  5
42E3
  8
240
  6
CONTINUOUS
 10
0.0
 20
-37.999999999999602
 30
0.0
 11
-50.0
 21
-35.49999999999973
 31
0.0
1001
GRPNAME
1000
PASTMD0M
  0
LINE
  5
42E4
  8
240
  6
CONTINUOUS
 10
28.999999999999091
 20
-49.999999999999957
 30
0.0
 11
28.999999999999091
 21
-42.499999999998792
 31
0.0
1001
GRPNAME
1000
PASTMD0M
  0
LINE
  5
42E5
  8
241
  6
CONTINUOUS
 10
28.999999999999091
 20
-42.499999999998792
 30
0.0
 11
28.999999999999091
 21
42.500000000000021
 31
0.0
1001
GRPNAME
1000
PASTMD0M
  0
ARC
  5
42E6
  8
241
  6
CONTINUOUS
 10
14.636897857918941
 20
28.8297566260715
 30
0.0
 40
10.0
 50
90.0
 51
164.51272597362981
  0
LINE
  5
42E7
  8
241
  6
CONTINUOUS
 10
4.9999999999990878
 20
31.500000000000039
 30
0.0
 11
28.999999999999091
 21
31.500000000000039
 31
0.0
  0
LINE
  5
42E8
  8
241
  6
CONTINUOUS
 10
18.124999999999321
 20
33.50000000000005
 30
0.0
 11
18.124999999999702
 21
46.000000000000043
 31
0.0
1001
GRPNAME
1000
PASTMD0M
  0
LINE
  5
42E9
  8
241
  6
CONTINUOUS
 10
18.124999999999321
 20
33.50000000000005
 30
0.0
 11
21.874999999999321
 21
33.50000000000005
 31
0.0
  0
LINE
  5
42EA
  8
241
  6
CONTINUOUS
 10
21.874999999999321
 20
33.50000000000005
 30
0.0
 11
21.874999999999321
 21
46.000000000000043
 31
0.0
1001
GRPNAME
1000
PASTMD0M
  0
LINE
  5
42EB
  8
241
  6
CONTINUOUS
 10
16.752404735807659
 20
38.8297566260715
 30
0.0
 11
16.752404735807659
 21
50.000000000000021
 31
0.0
1001
GRPNAME
1000
PASTMD0M
  0
LINE
  5
42EC
  8
241
  6
CONTINUOUS
 10
23.24759526419075
 20
38.8297566260715
 30
0.0
 11
23.24759526419075
 21
50.000000000000021
 31
0.0
1001
GRPNAME
1000
PASTMD0M
  0
LINE
  5
42ED
  8
241
  6
CONTINUOUS
 10
18.124999999999321
 20
36.45235189026338
 30
0.0
 11
16.752404735807879
 21
38.8297566260715
 31
0.0
  0
LINE
  5
42EE
  8
241
  6
CONTINUOUS
 10
21.874999999999321
 20
36.452351890263621
 30
0.0
 11
23.24759526419075
 21
38.8297566260715
 31
0.0
  0
LINE
  5
42EF
  8
241
  6
CONTINUOUS
 10
14.636897857918941
 20
38.8297566260715
 30
0.0
 11
16.752404735807659
 21
38.8297566260715
 31
0.0
  0
LINE
  5
42F0
  8
241
  6
CONTINUOUS
 10
23.24759526419075
 20
38.8297566260715
 30
0.0
 11
28.999999999999091
 21
38.8297566260715
 31
0.0
  0
LINE
  5
42F1
  8
240
  6
CONTINUOUS
 10
16.752404735808341
 20
50.000000000000021
 30
0.0
 11
0.0
 21
50.000000000000021
 31
0.0
1001
GRPNAME
1000
PASTMD0M
  0
LINE
  5
42F2
  8
240
  6
CONTINUOUS
 10
28.999999999999091
 20
50.000000000000021
 30
0.0
 11
23.24759526419075
 21
50.000000000000021
 31
0.0
1001
GRPNAME
1000
PASTMD0M
  0
LINE
  5
42F3
  8
240
  6
CONTINUOUS
 10
18.125
 20
47.622595264191702
 30
0.0
 11
16.752404735808341
 21
50.000000000000021
 31
0.0
1001
GRPNAME
1000
PASTMD0M
  0
LINE
  5
42F4
  8
240
  6
CONTINUOUS
 10
21.87499999999908
 20
47.622595264191702
 30
0.0
 11
23.24759526419075
 21
50.000000000000021
 31
0.0
1001
GRPNAME
1000
PASTMD0M
  0
LINE
  5
42F5
  8
240
  6
CONTINUOUS
 10
21.874999999998799
 20
46.000000000000043
 30
0.0
 11
21.87499999999908
 21
47.622595264191702
 31
0.0
1001
GRPNAME
1000
PASTMD0M
  0
LINE
  5
42F6
  8
240
  6
CONTINUOUS
 10
21.874999999998799
 20
46.000000000000043
 30
0.0
 11
18.124999999999702
 21
46.000000000000043
 31
0.0
1001
GRPNAME
1000
PASTMD0M
  0
LINE
  5
42F7
  8
240
  6
CONTINUOUS
 10
18.124999999999702
 20
46.000000000000043
 30
0.0
 11
18.125
 21
47.622595264191702
 31
0.0
1001
GRPNAME
1000
PASTMD0M
  0
LINE
  5
42F8
  8
240
  6
CONTINUOUS
 10
-50.0
 20
35.499999999999829
 30
0.0
 11
-50.0
 21
-35.49999999999973
 31
0.0
1001
GRPNAME
1000
PASTMD0M
  0
LINE
  5
42F9
  8
240
  6
CONTINUOUS
 10
0.0
 20
50.000000000000021
 30
0.0
 11
0.0
 21
37.999999999999673
 31
0.0
1001
GRPNAME
1000
PASTMD0M
  0
LINE
  5
42FA
  8
240
  6
CONTINUOUS
 10
0.0
 20
37.999999999999673
 30
0.0
 11
-50.0
 21
35.499999999999829
 31
0.0
1001
GRPNAME
1000
PASTMD0M
  0
LINE
  5
42FB
  8
240
  6
CONTINUOUS
 10
28.999999999999091
 20
50.000000000000021
 30
0.0
 11
28.999999999999091
 21
42.499999999998877
 31
0.0
1001
GRPNAME
1000
PASTMD0M
  0
LINE
  5
42FD
  8
240
  6
CONTINUOUS
 10
45.000000000000213
 20
-42.499999999999439
 30
0.0
 11
28.999999999999201
 21
-42.499999999998792
 31
0.0
  0
LINE
  5
42FE
  8
247
  6
CONTINUOUS
 10
9.9999999999999432
 20
-26.250000000070049
 30
0.0
 11
9.9999999999999432
 21
-19.557692308030042
 31
0.0
  0
ARC
  5
42FF
  8
247
  6
CONTINUOUS
 10
8.2500000000699174
 20
-26.250000000070049
 30
0.0
 40
1.7499999999299991
 50
180.0
 51
0.0
  0
ARC
  5
4300
  8
247
  6
CONTINUOUS
 10
8.2500000000699174
 20
-19.557692308030042
 30
0.0
 40
1.7499999999299991
 50
0.0
 51
180.0
  0
LINE
  5
4301
  8
247
  6
CONTINUOUS
 10
6.5000000001399458
 20
-25.384615384720021
 30
0.0
 11
9.500000000019952
 21
-26.244851541962039
 31
0.0
  0
LINE
  5
4302
  8
247
  6
CONTINUOUS
 10
7.9230769231599529
 20
-24.484983818335841
 30
0.0
 11
7.9230769231599529
 21
-25.792676125975859
 31
0.0
  0
ARC
  5
4303
  8
247
  6
CONTINUOUS
 10
7.049598667702921
 20
-24.145143816089799
 30
0.0
 40
0.5538165441895349
 50
72.99788967529534
 51
172.92416621851359
  0
ARC
  5
4304
  8
247
  6
CONTINUOUS
 10
6.9360330444657139
 20
-24.566878323028799
 30
0.0
 40
0.9904354236226808
 50
4.7429368522022122
 51
73.849226273266424
1001
GENIUS_GENOBJ-N-FIL_13
1002
{
1000
OWNER
1000
GEN
1002
}
1001
GENIUS_GENODEF_13
1002
{
1000
HIER
1070
     0
1002
}
1002
{
1000
MANEDIT
1070
     0
1002
}
1002
{
1000
NOSEL
1070
     0
1002
}
1002
{
1000
BEHIND
1070
     0
1002
}
1002
{
1000
OTHER
1070
     0
1002
}
1002
{
1000
REACTOR
1002
}
  0
LINE
  5
4305
  8
247
  6
CONTINUOUS
 10
9.500000000019952
 20
-24.937159234322021
 30
0.0
 11
9.500000000019952
 21
-26.244851541962039
 31
0.0
  0
LINE
  5
4306
  8
247
  6
CONTINUOUS
 10
6.5000000001399458
 20
-25.384615384720021
 30
0.0
 11
6.5000000001399458
 21
-24.07692307708
 31
0.0
  0
ARC
  5
4307
  8
247
  6
CONTINUOUS
 10
8.4820242326654807
 20
-24.560919636546959
 30
0.0
 40
0.5640818586791229
 50
65.990941652528889
 51
172.26344345906909
  0
ARC
  5
4308
  8
247
  6
CONTINUOUS
 10
8.4874290391865088
 20
-25.03826268534711
 30
0.0
 40
1.0176059446230981
 50
5.7019851642564632
 51
77.277338436822191
1001
GENIUS_GENOBJ-N-FIL_13
1002
{
1000
OWNER
1000
GEN
1002
}
1001
GENIUS_GENODEF_13
1002
{
1000
HIER
1070
     0
1002
}
1002
{
1000
MANEDIT
1070
     0
1002
}
1002
{
1000
NOSEL
1070
     0
1002
}
1002
{
1000
BEHIND
1070
     0
1002
}
1002
{
1000
OTHER
1070
     0
1002
}
1002
{
1000
REACTOR
1002
}
  0
LINE
  5
4309
  8
247
  6
CONTINUOUS
 10
9.500000000019952
 20
-23.28331308054204
 30
0.0
 11
6.5000000001399458
 21
-22.42307692330003
 31
0.0
  0
LINE
  5
430A
  8
247
  6
CONTINUOUS
 10
6.5000000001399458
 20
-20.000000000319989
 30
0.0
 11
6.5000000001399458
 21
-20.56573661945659
 31
0.0
  0
LINE
  5
430B
  8
247
  6
CONTINUOUS
 10
9.500000000019952
 20
-21.4615384618
 30
0.0
 11
9.500000000019952
 21
-20.846153846440028
 31
0.0
  0
ARC
  5
430C
  8
247
  6
CONTINUOUS
 10
8.5832851359733127
 20
-19.708791209122879
 30
0.0
 40
2.2526500823422122
 50
202.3594881415259
 51
254.99324854284609
  0
ARC
  5
430D
  8
247
  6
CONTINUOUS
 10
7.3083126551944702
 20
-20.37406947921324
 30
0.0
 40
0.8906723995727782
 50
94.994589319075374
 51
155.1663289573039
1001
GENIUS_GENOBJ-N-FIL_13
1002
{
1000
OWNER
1000
GEN
1002
}
1001
GENIUS_GENODEF_13
1002
{
1000
HIER
1070
     0
1002
}
1002
{
1000
MANEDIT
1070
     0
1002
}
1002
{
1000
NOSEL
1070
     0
1002
}
1002
{
1000
BEHIND
1070
     0
1002
}
1002
{
1000
OTHER
1070
     0
1002
}
1002
{
1000
REACTOR
1002
}
  0
ARC
  5
430E
  8
247
  6
CONTINUOUS
 10
8.1601458886677278
 20
-21.226458886212601
 30
0.0
 40
1.392781735586712
 50
15.8460965557808
 51
82.325137004169122
  0
ARC
  5
430F
  8
247
  6
CONTINUOUS
 10
8.4592434315272271
 20
-20.642212725840359
 30
0.0
 40
1.324563662670287
 50
249.7136016704969
 51
321.78874565640632
1001
GENIUS_GENOBJ-N-FIL_13
1002
{
1000
OWNER
1000
GEN
1002
}
1001
GENIUS_GENODEF_13
1002
{
1000
HIER
1070
     0
1002
}
1002
{
1000
MANEDIT
1070
     0
1002
}
1002
{
1000
NOSEL
1070
     0
1002
}
1002
{
1000
BEHIND
1070
     0
1002
}
1002
{
1000
OTHER
1070
     0
1002
}
1002
{
1000
REACTOR
1002
}
  0
LINE
  5
4310
  8
247
  6
CONTINUOUS
 10
8.3461538462199201
 20
-20.538461538759989
 30
0.0
 11
8.3461538462199201
 21
-19.846153846479989
 31
0.0
  0
LINE
  5
4311
  8
250
  6
CONTINUOUS
 10
-32.935905670000011
 20
-48.713341000781
 30
0.0
 11
-59.86923900000005
 21
-48.713341000781
 31
0.0
1001
ITEMNAME
1000
LNSP2
  0
TEXT
  5
4312
  8
250
  6
CONTINUOUS
 10
-57.602572333333342
 20
-47.713341000780993
 30
0.0
 40
2.799999999999998
  1
HSK-A100
  7
YOKO
1001
ITEMNAME
1000
LNSP3
1001
ACAD
1000
MTEXTBEGIN
1070
    73
1070
     1
1070
    44
1040
1.0
1070
    74
1070
     0
1000
MTEXTEND
  0
LINE
  5
4313
  8
250
  6
CONTINUOUS
 10
-27.000000001057909
 20
-38.432050807739088
 30
0.0
 11
-32.935905670000011
 21
-48.713341000781
 31
0.0
1001
ACAD
1000
DSTYLE
1002
{
1070
     6
1000
OPEN
1070
    41
1040
2.0
1070
    42
1040
2.0
1070
    44
1040
2.0
1070
   140
1040
4.0
1070
   343
1005
0
1002
}
  0
LINE
  5
4314
  8
250
  6
CONTINUOUS
 10
-27.288675135550928
 20
-38.265384140896131
 30
0.0
 11
-26.0
 21
-36.700000000780967
 31
0.0
  0
LINE
  5
4315
  8
250
  6
CONTINUOUS
 10
-26.71132486656489
 20
-38.598717474582067
 30
0.0
 11
-26.0
 21
-36.700000000780967
 31
0.0
  0
LINE
  5
4316
  8
250
  6
CONTINUOUS
 10
-26.0
 20
-36.700000000780967
 30
0.0
 11
-27.000000001057909
 21
-38.432050807739088
 31
0.0
  0
LINE
  5
4317
  8
247
  6
CONTINUOUS
 10
6.500000000139889
 20
-26.250000000070049
 30
0.0
 11
6.500000000139889
 21
-25.576923077020052
 31
0.0
  0
LINE
  5
4339
  8
241
  6
CONTINUOUS
 10
35.599999999999902
 20
-42.500000000000277
 30
0.0
 11
35.599999999999902
 21
42.499999999998991
 31
0.0
  0
LINE
  5
433A
  8
241
  6
CONTINUOUS
 10
34.400000000000077
 20
-42.500000000000277
 30
0.0
 11
34.399999999999849
 21
42.499999999998941
 31
0.0
  0
LINE
  5
433B
  8
240
  6
CONTINUOUS
 10
49.344335451957633
 20
-36.425352453445107
 30
0.0
 11
63.900000000001143
 21
-34.499999999999993
 31
0.0
  0
LINE
  5
433D
  8
241
  6
CONTINUOUS
 10
45.000000000000213
 20
-41.180434352725598
 30
0.0
 11
45.000000000000213
 21
41.382176436646411
 31
0.0
  0
LINE
  5
4349
  8
240
  6
CONTINUOUS
 10
45.000000000000213
 20
-41.382176436646461
 30
0.0
 11
45.000000000000213
 21
-42.499999999999439
 31
0.0
  0
ARC
  5
434A
  8
240
  6
CONTINUOUS
 10
50.000000000000213
 20
-41.382176436646461
 30
0.0
 40
5.0
 50
97.535063723328932
 51
180.0
1001
GENIUS_GENODEF_13
1002
{
1000
HIER
1070
     0
1002
}
1002
{
1000
MANEDIT
1070
     0
1002
}
1002
{
1000
NOSEL
1070
     0
1002
}
1002
{
1000
BEHIND
1070
     0
1002
}
1002
{
1000
OTHER
1070
     0
1002
}
1002
{
1000
REACTOR
1002
}
1001
GENIUS_GENOBJ-N-FIL_13
1002
{
1000
OWNER
1000
GEN
1002
}
  0
LINE
  5
43AA
  8
250
  6
CONTINUOUS
 10
126.6838959478368
 20
45.480290173531401
 30
0.0
 11
104.4872704296274
 21
45.480290173531401
 31
0.0
  0
LINE
  5
43AB
  8
250
  6
CONTINUOUS
 10
104.4872704296274
 20
45.480290173531401
 30
0.0
 11
79.762883211254973
 21
13.459854061687031
 31
0.0
  0
LINE
  5
43AC
  8
250
  6
CONTINUOUS
 10
79.762883211254973
 20
13.459854061687031
 30
0.0
 11
78.400000000000233
 21
11.69479050688796
 31
0.0
  0
LINE
  5
43AD
  8
250
  6
CONTINUOUS
 10
79.530508186901969
 20
13.6392810395681
 30
0.0
 11
78.400000000000233
 21
11.69479050688796
 31
0.0
  0
LINE
  5
43AE
  8
250
  6
CONTINUOUS
 10
78.400000000000233
 20
11.69479050688796
 30
0.0
 11
79.995258235607977
 21
13.28042708380595
 31
0.0
  0
LINE
  5
43AF
  8
250
  6
CONTINUOUS
 10
102.09999999999989
 20
9.5250000000005706
 30
0.0
 11
123.5999999999995
 21
9.5250000000005706
 31
0.0
  0
LINE
  5
43B0
  8
250
  6
CONTINUOUS
 10
102.09999999999989
 20
-9.5250000000006025
 30
0.0
 11
123.5999999999995
 21
-9.5250000000006185
 31
0.0
  0
LINE
  5
43B1
  8
250
  6
CONTINUOUS
 10
122.5999999999995
 20
7.7700000000004472
 30
0.0
 11
122.5999999999995
 21
-7.770000000000457
 31
0.0
  0
TEXT
  5
43B2
  8
250
  6
CONTINUOUS
 10
121.5999999999995
 20
-5.9862515085899659
 30
0.0
 40
2.799999999999998
  1
\U+2205.750
 50
90.0
  0
LINE
  5
43B3
  8
250
  6
CONTINUOUS
 10
122.9716666666661
 20
-7.2950000000006101
 30
0.0
 11
122.5999999999995
 21
-9.5250000000006185
 31
0.0
  0
LINE
  5
43B4
  8
250
  6
CONTINUOUS
 10
122.2283333333328
 20
-7.2950000000006101
 30
0.0
 11
122.5999999999995
 21
-9.5250000000006185
 31
0.0
  0
LINE
  5
43B5
  8
250
  6
CONTINUOUS
 10
122.5999999999995
 20
-9.5250000000006185
 30
0.0
 11
122.5999999999995
 21
-7.2950000000006101
 31
0.0
  0
LINE
  5
43B6
  8
250
  6
CONTINUOUS
 10
122.2283333333328
 20
7.2950000000005737
 30
0.0
 11
122.5999999999995
 21
9.5250000000005706
 31
0.0
  0
LINE
  5
43B7
  8
250
  6
CONTINUOUS
 10
122.9716666666661
 20
7.2950000000005737
 30
0.0
 11
122.5999999999995
 21
9.5250000000005706
 31
0.0
  0
LINE
  5
43B8
  8
250
  6
CONTINUOUS
 10
122.5999999999995
 20
9.5250000000005706
 30
0.0
 11
122.5999999999995
 21
7.2950000000005737
 31
0.0
  0
LINE
  5
43B9
  8
243
  6
HIDDEN2
 10
52.600000000000279
 20
9.5250000000005706
 30
0.0
 11
101.59999999999989
 21
9.5250000000005706
 31
0.0
1001
GRPNAME
1000
PASTMD40
  0
LINE
  5
43BA
  8
240
  6
CONTINUOUS
 10
75.450704155515979
 20
30.350000000000371
 30
0.0
 11
80.245999999999285
 21
30.350000000000371
 31
0.0
1001
GRPNAME
1000
PASTMD3W
  0
LINE
  5
43BB
  8
240
  6
CONTINUOUS
 10
81.745999999999313
 20
30.0
 30
0.0
 11
94.557347502412227
 21
30.0
 31
0.0
1001
GRPNAME
1000
PASTMD3W
  0
LINE
  5
43BC
  8
240
  6
CONTINUOUS
 10
101.5999999999995
 20
16.458578643763762
 30
0.0
 11
101.59870880218151
 21
16.46339745962177
 31
0.0
  0
LINE
  5
43BD
  8
241
  6
CONTINUOUS
 10
63.899999999999793
 20
34.499999999999972
 30
0.0
 11
63.899999999999757
 21
-34.5
 31
0.0
  0
LINE
  5
43BE
  8
240
  6
CONTINUOUS
 10
100.39999999999969
 20
23.169744029546109
 30
0.0
 11
100.39999999999969
 21
19.779807614876241
 31
0.0
  0
ARC
  5
43BF
  8
240
  6
CONTINUOUS
 10
94.399999999999807
 20
23.169744029546109
 30
0.0
 40
6.0
 50
0.0
 51
45.000000000008782
1001
GENIUS_GENODEF_13
1002
{
1000
HIER
1070
     0
1002
}
1002
{
1000
MANEDIT
1070
     0
1002
}
1002
{
1000
NOSEL
1070
     0
1002
}
1002
{
1000
BEHIND
1070
     0
1002
}
1002
{
1000
OTHER
1070
     0
1002
}
1002
{
1000
REACTOR
1002
}
1001
GENIUS_GENOBJ-N-FIL_13
1002
{
1000
OWNER
1000
GEN
1002
}
  0
LINE
  5
43C0
  8
240
  6
CONTINUOUS
 10
72.477350269188832
 20
33.5
 30
0.0
 11
73.718653347947367
 21
31.349999999999898
 31
0.0
  0
ARC
  5
43C1
  8
240
  6
CONTINUOUS
 10
75.450704155515979
 20
32.350000000000371
 30
0.0
 40
2.0
 50
210.00000000001521
 51
270.0
1001
GENIUS_GENODEF_13
1002
{
1000
HIER
1070
     0
1002
}
1002
{
1000
MANEDIT
1070
     0
1002
}
1002
{
1000
NOSEL
1070
     0
1002
}
1002
{
1000
BEHIND
1070
     0
1002
}
1002
{
1000
OTHER
1070
     0
1002
}
1002
{
1000
REACTOR
1002
}
1001
GENIUS_GENOBJ-N-FIL_13
1002
{
1000
OWNER
1000
GEN
1002
}
  0
ARC
  5
43C2
  8
240
  6
CONTINUOUS
 10
70.745299461619766
 20
32.5
 30
0.0
 40
2.0
 50
29.999999999992411
 51
90.0
1001
GENIUS_GENOBJ-N-FIL_13
1002
{
1000
OWNER
1000
GEN
1002
}
1001
GENIUS_GENODEF_13
1002
{
1000
HIER
1070
     0
1002
}
1002
{
1000
MANEDIT
1070
     0
1002
}
1002
{
1000
NOSEL
1070
     0
1002
}
1002
{
1000
BEHIND
1070
     0
1002
}
1002
{
1000
OTHER
1070
     0
1002
}
1002
{
1000
REACTOR
1002
}
  0
LINE
  5
43C3
  8
240
  6
CONTINUOUS
 10
94.816166547514641
 20
29.965925826289109
 30
0.0
 11
96.296206358681204
 21
29.56935035412107
 31
0.0
  0
ARC
  5
43C4
  8
240
  6
CONTINUOUS
 10
94.557347502412227
 20
29.0
 30
0.0
 40
1.0
 50
74.99999999997857
 51
90.0
1001
GENIUS_GENODEF_13
1002
{
1000
HIER
1070
     0
1002
}
1002
{
1000
MANEDIT
1070
     0
1002
}
1002
{
1000
NOSEL
1070
     0
1002
}
1002
{
1000
BEHIND
1070
     0
1002
}
1002
{
1000
OTHER
1070
     0
1002
}
1002
{
1000
REACTOR
1002
}
1001
GENIUS_GENOBJ-N-FIL_13
1002
{
1000
OWNER
1000
GEN
1002
}
  0
LINE
  5
43C5
  8
240
  6
CONTINUOUS
 10
96.744494094765386
 20
29.310531309018639
 30
0.0
 11
98.642640687118885
 21
27.412384716665201
 31
0.0
  0
ARC
  5
43C6
  8
240
  6
CONTINUOUS
 10
96.037387313578748
 20
28.603424527831979
 30
0.0
 40
1.0
 50
45.000000000008782
 51
74.99999999997857
1001
GENIUS_GENODEF_13
1002
{
1000
HIER
1070
     0
1002
}
1002
{
1000
MANEDIT
1070
     0
1002
}
1002
{
1000
NOSEL
1070
     0
1002
}
1002
{
1000
BEHIND
1070
     0
1002
}
1002
{
1000
OTHER
1070
     0
1002
}
1002
{
1000
REACTOR
1002
}
1001
GENIUS_GENOBJ-N-FIL_13
1002
{
1000
OWNER
1000
GEN
1002
}
  0
LINE
  5
43C7
  8
243
  6
HIDDEN2
 10
52.600000000000051
 20
-9.5250000000006025
 30
0.0
 11
101.59999999999989
 21
-9.5250000000006025
 31
0.0
1001
GRPNAME
1000
PASTMD40
  0
LINE
  5
43C8
  8
240
  6
CONTINUOUS
 10
75.450704155515979
 20
-30.350000000000371
 30
0.0
 11
80.245999999999285
 21
-30.350000000000371
 31
0.0
1001
GRPNAME
1000
PASTMD3W
  0
LINE
  5
43C9
  8
240
  6
CONTINUOUS
 10
81.745999999999313
 20
-30.0
 30
0.0
 11
94.557347502412227
 21
-30.0
 31
0.0
1001
GRPNAME
1000
PASTMD3W
  0
LINE
  5
43CA
  8
240
  6
CONTINUOUS
 10
101.60000000000051
 20
19.779807614876241
 30
0.0
 11
101.5999999999994
 21
-19.77980761487623
 31
0.0
1001
GRPNAME
1000
PASTMD3Y
  0
LINE
  5
43CB
  8
240
  6
CONTINUOUS
 10
100.39999999999969
 20
-23.169744029546109
 30
0.0
 11
100.39999999999969
 21
-19.779807614876241
 31
0.0
  0
LINE
  5
43CC
  8
241
  6
CONTINUOUS
 10
100.39999999999969
 20
-19.779807614876241
 30
0.0
 11
100.39999999999969
 21
19.779807614876241
 31
0.0
  0
ARC
  5
43CD
  8
240
  6
CONTINUOUS
 10
94.399999999999807
 20
-23.169744029546109
 30
0.0
 40
6.0
 50
314.99999999999119
 51
0.0
1001
GENIUS_GENODEF_13
1002
{
1000
HIER
1070
     0
1002
}
1002
{
1000
MANEDIT
1070
     0
1002
}
1002
{
1000
NOSEL
1070
     0
1002
}
1002
{
1000
BEHIND
1070
     0
1002
}
1002
{
1000
OTHER
1070
     0
1002
}
1002
{
1000
REACTOR
1002
}
1001
GENIUS_GENOBJ-N-FIL_13
1002
{
1000
OWNER
1000
GEN
1002
}
  0
LINE
  5
43CE
  8
240
  6
CONTINUOUS
 10
72.477350269188832
 20
-33.5
 30
0.0
 11
73.718653347947367
 21
-31.349999999999898
 31
0.0
  0
ARC
  5
43CF
  8
240
  6
CONTINUOUS
 10
75.450704155515979
 20
-32.350000000000371
 30
0.0
 40
2.0
 50
90.0
 51
149.99999999998471
1001
GENIUS_GENODEF_13
1002
{
1000
HIER
1070
     0
1002
}
1002
{
1000
MANEDIT
1070
     0
1002
}
1002
{
1000
NOSEL
1070
     0
1002
}
1002
{
1000
BEHIND
1070
     0
1002
}
1002
{
1000
OTHER
1070
     0
1002
}
1002
{
1000
REACTOR
1002
}
1001
GENIUS_GENOBJ-N-FIL_13
1002
{
1000
OWNER
1000
GEN
1002
}
  0
ARC
  5
43D0
  8
240
  6
CONTINUOUS
 10
70.745299461619766
 20
-32.5
 30
0.0
 40
2.0
 50
270.0
 51
330.00000000000108
1001
GENIUS_GENOBJ-N-FIL_13
1002
{
1000
OWNER
1000
GEN
1002
}
1001
GENIUS_GENODEF_13
1002
{
1000
HIER
1070
     0
1002
}
1002
{
1000
MANEDIT
1070
     0
1002
}
1002
{
1000
NOSEL
1070
     0
1002
}
1002
{
1000
BEHIND
1070
     0
1002
}
1002
{
1000
OTHER
1070
     0
1002
}
1002
{
1000
REACTOR
1002
}
  0
LINE
  5
43D1
  8
240
  6
CONTINUOUS
 10
94.816166547514641
 20
-29.965925826289109
 30
0.0
 11
96.296206358681204
 21
-29.56935035412107
 31
0.0
  0
ARC
  5
43D2
  8
240
  6
CONTINUOUS
 10
94.557347502412227
 20
-29.0
 30
0.0
 40
1.0
 50
270.0
 51
285.00000000000881
1001
GENIUS_GENODEF_13
1002
{
1000
HIER
1070
     0
1002
}
1002
{
1000
MANEDIT
1070
     0
1002
}
1002
{
1000
NOSEL
1070
     0
1002
}
1002
{
1000
BEHIND
1070
     0
1002
}
1002
{
1000
OTHER
1070
     0
1002
}
1002
{
1000
REACTOR
1002
}
1001
GENIUS_GENOBJ-N-FIL_13
1002
{
1000
OWNER
1000
GEN
1002
}
  0
LINE
  5
43D3
  8
240
  6
CONTINUOUS
 10
96.744494094765386
 20
-29.310531309018639
 30
0.0
 11
98.642640687118885
 21
-27.412384716665201
 31
0.0
  0
ARC
  5
43D4
  8
240
  6
CONTINUOUS
 10
96.037387313578748
 20
-28.603424527831979
 30
0.0
 40
1.0
 50
285.00000000000881
 51
314.99999999999119
1001
GENIUS_GENODEF_13
1002
{
1000
HIER
1070
     0
1002
}
1002
{
1000
MANEDIT
1070
     0
1002
}
1002
{
1000
NOSEL
1070
     0
1002
}
1002
{
1000
BEHIND
1070
     0
1002
}
1002
{
1000
OTHER
1070
     0
1002
}
1002
{
1000
REACTOR
1002
}
1001
GENIUS_GENOBJ-N-FIL_13
1002
{
1000
OWNER
1000
GEN
1002
}
  0
LINE
  5
43D5
  8
241
  6
CONTINUOUS
 10
71.899999999998855
 20
-33.632993161855673
 30
0.0
 11
71.899999999998855
 21
33.632993161855673
 31
0.0
  0
LINE
  5
43D6
  8
241
  6
CONTINUOUS
 10
80.245999999999285
 20
-30.350000000000371
 30
0.0
 11
80.245999999999285
 21
30.350000000000371
 31
0.0
  0
LINE
  5
43D7
  8
241
  6
CONTINUOUS
 10
74.382606157515653
 20
-30.200000000000269
 30
0.0
 11
74.382606157515653
 21
30.200000000000269
 31
0.0
  0
LINE
  5
43D8
  8
241
  6
CONTINUOUS
 10
94.688999999999524
 20
-29.49129592951795
 30
0.0
 11
94.688999999999524
 21
29.49129592951795
 31
0.0
  0
LINE
  5
43D9
  8
240
  6
CONTINUOUS
 10
80.245999999999285
 20
-30.350000000000371
 30
0.0
 11
81.745999999999498
 21
-30.000000000000028
 31
0.0
  0
LINE
  5
43DA
  8
240
  6
CONTINUOUS
 10
81.745999999999825
 20
30.000000000000181
 30
0.0
 11
80.245999999999285
 21
30.350000000000371
 31
0.0
  0
TEXT
  5
43DB
  8
250
  6
CONTINUOUS
 10
104.349271175935
 20
13.13851784167772
 30
0.0
 40
2.799999999999998
  1
Coolant
  7
YOKO
 11
104.349271175935
 21
13.13851784167772
 31
0.0
 73
     1
  0
LINE
  5
43DC
  8
250
  6
CONTINUOUS
 10
117.8785622841547
 20
11.89666666666683
 30
0.0
 11
120.1085622841547
 21
11.525000000000171
 31
0.0
  0
LINE
  5
43DD
  8
250
  6
CONTINUOUS
 10
117.8785622841547
 20
11.153333333333491
 30
0.0
 11
120.1085622841547
 21
11.525000000000171
 31
0.0
  0
LINE
  5
43DE
  8
250
  6
CONTINUOUS
 10
120.1085622841547
 20
11.525000000000171
 30
0.0
 11
117.8785622841547
 21
11.525000000000171
 31
0.0
  0
LINE
  5
43DF
  8
250
  6
CONTINUOUS
 10
117.8785622841547
 20
11.525000000000171
 30
0.0
 11
104.599999999999
 21
11.525000000000171
 31
0.0
  0
LINE
  5
43E0
  8
250
  6
CONTINUOUS
 10
117.87856228415509
 20
-11.6283333333333
 30
0.0
 11
120.1085622841551
 21
-11.99999999999997
 31
0.0
  0
LINE
  5
43E1
  8
250
  6
CONTINUOUS
 10
117.87856228415509
 20
-12.37166666666664
 30
0.0
 11
120.1085622841551
 21
-11.99999999999997
 31
0.0
  0
LINE
  5
43E2
  8
250
  6
CONTINUOUS
 10
120.1085622841551
 20
-11.99999999999997
 30
0.0
 11
117.87856228415509
 21
-11.99999999999997
 31
0.0
  0
LINE
  5
43E3
  8
250
  6
CONTINUOUS
 10
117.87856228415509
 20
-11.99999999999997
 30
0.0
 11
104.5999999999993
 21
-11.99999999999997
 31
0.0
  0
TEXT
  5
43E4
  8
250
  6
CONTINUOUS
 10
104.186900841792
 20
-16.815545675999338
 30
0.0
 40
2.799999999999998
  1
Coolant
  7
YOKO
 11
104.186900841792
 21
-16.815545675999338
 31
0.0
 73
     1
  0
LINE
  5
43E5
  8
240
  6
CONTINUOUS
 10
100.39999999999969
 20
19.779807614876241
 30
0.0
 11
101.60000000000051
 21
19.779807614876241
 31
0.0
  0
TEXT
  5
43E6
  8
250
  6
CONTINUOUS
 10
105.8259718113686
 20
46.495546118400249
 30
0.0
 40
3.0
  1
Key Grip
  7
YOKO
  0
LINE
  5
43E7
  8
240
  6
CONTINUOUS
 10
100.39999999999969
 20
-19.77980761487623
 30
0.0
 11
101.5999999999994
 21
-19.77980761487623
 31
0.0
  0
LINE
  5
43E8
  8
243
  6
HIDDEN2
 10
72.621500000001703
 20
7.619999999997578
 30
0.0
 11
71.400000000001171
 21
8.8414999999981383
 31
0.0
  0
LINE
  5
43E9
  8
243
  6
HIDDEN2
 10
71.400000000001171
 20
8.8414999999981383
 30
0.0
 11
71.400000000001171
 21
9.2199999999979418
 31
0.0
  0
LINE
  5
43EA
  8
243
  6
HIDDEN2
 10
85.400000000001143
 20
8.8415000000017692
 30
0.0
 11
84.178500000001478
 21
7.6200000000012089
 31
0.0
  0
LINE
  5
43EB
  8
243
  6
HIDDEN2
 10
85.400000000001143
 20
9.2200000000015745
 30
0.0
 11
85.400000000001143
 21
8.8415000000017692
 31
0.0
  0
LINE
  5
43EC
  8
243
  6
HIDDEN2
 10
73.400000000000233
 20
11.694790506886379
 30
0.0
 11
73.400000000001143
 21
9.2199999999988496
 31
0.0
  0
LINE
  5
43ED
  8
243
  6
HIDDEN2
 10
83.400000000001157
 20
9.2200000000015745
 30
0.0
 11
83.400000000000219
 21
11.694790506889561
 31
0.0
  0
LINE
  5
43EE
  8
243
  6
HIDDEN2
 10
71.400000000001171
 20
9.2199999999979418
 30
0.0
 11
85.400000000001143
 21
9.2200000000015745
 31
0.0
  0
LINE
  5
43EF
  8
243
  6
HIDDEN2
 10
73.400000000000233
 20
11.694790506886379
 30
0.0
 11
83.400000000000219
 21
11.694790506889561
 31
0.0
  0
LINE
  5
43F0
  8
243
  6
HIDDEN2
 10
72.621500000001703
 20
7.6199999999975434
 30
0.0
 11
84.178500000001478
 21
7.6200000000012436
 31
0.0
  0
LINE
  5
43F1
  8
245
  6
CENTER2
 10
78.400000000000233
 20
12.694790506887999
 30
0.0
 11
78.400000000000233
 21
6.6199999999993828
 31
0.0
  0
TEXT
  5
43F2
  8
241
  6
CONTINUOUS
 10
-56.0
 20
77.0
 30
0.0
 40
4.0
  1
HSK-A100-MEGA.750DPG-4
  7
YOKO
  0
LINE
  5
43F3
  8
250
  6
CONTINUOUS
 10
95.057347502412242
 20
30.0
 30
0.0
 11
129.98836524525089
 21
30.0
 31
0.0
  0
LINE
  5
43F4
  8
250
  6
CONTINUOUS
 10
95.057347502412242
 20
-30.0
 30
0.0
 11
129.98836524525089
 21
-30.000000000000021
 31
0.0
  0
LINE
  5
43F5
  8
250
  6
CONTINUOUS
 10
128.98836524525089
 20
27.769999999999989
 30
0.0
 11
128.98836524525089
 21
-27.77000000000001
 31
0.0
  0
TEXT
  5
43F6
  8
250
  6
CONTINUOUS
 10
127.9883652452509
 20
-7.1747830534178982
 30
0.0
 40
2.799999999999998
  1
\U+22052.362
 50
90.0
  0
LINE
  5
43F7
  8
250
  6
CONTINUOUS
 10
129.36003191191759
 20
-27.77000000000001
 30
0.0
 11
128.98836524525089
 21
-30.000000000000021
 31
0.0
  0
LINE
  5
43F8
  8
250
  6
CONTINUOUS
 10
128.61669857858431
 20
-27.77000000000001
 30
0.0
 11
128.98836524525089
 21
-30.000000000000021
 31
0.0
  0
LINE
  5
43F9
  8
250
  6
CONTINUOUS
 10
128.98836524525089
 20
-30.000000000000021
 30
0.0
 11
128.98836524525089
 21
-27.77000000000001
 31
0.0
  0
LINE
  5
43FA
  8
250
  6
CONTINUOUS
 10
128.61669857858431
 20
27.769999999999989
 30
0.0
 11
128.98836524525089
 21
30.0
 31
0.0
  0
LINE
  5
43FB
  8
250
  6
CONTINUOUS
 10
129.36003191191759
 20
27.769999999999989
 30
0.0
 11
128.98836524525089
 21
30.0
 31
0.0
  0
LINE
  5
43FC
  8
250
  6
CONTINUOUS
 10
128.98836524525089
 20
30.0
 30
0.0
 11
128.98836524525089
 21
27.769999999999989
 31
0.0
  0
LINE
  5
4404
  8
240
  6
CONTINUOUS
 10
63.900000000000958
 20
34.499999999999972
 30
0.0
 11
70.745299461619766
 21
34.5
 31
0.0
1001
GRPNAME
1000
PASTMD3W
  0
LINE
  5
4405
  8
240
  6
CONTINUOUS
 10
63.900000000001143
 20
-34.499999999999993
 30
0.0
 11
70.745299461619766
 21
-34.5
 31
0.0
1001
GRPNAME
1000
PASTMD3W
  0
LINE
  5
4406
  8
240
  6
CONTINUOUS
 10
45.000000000000178
 20
42.499999999999382
 30
0.0
 11
28.999999999999169
 21
42.499999999998721
 31
0.0
  0
LINE
  5
4407
  8
240
  6
CONTINUOUS
 10
49.344335451957598
 20
36.425352453445058
 30
0.0
 11
63.900000000000958
 21
34.499999999999972
 31
0.0
  0
LINE
  5
4408
  8
240
  6
CONTINUOUS
 10
45.000000000000178
 20
41.382176436646411
 30
0.0
 11
45.000000000000178
 21
42.499999999999382
 31
0.0
  0
ARC
  5
4409
  8
240
  6
CONTINUOUS
 10
50.000000000000178
 20
41.382176436646411
 30
0.0
 40
5.0
 50
180.0
 51
262.4649362766711
1001
GENIUS_GENODEF_13
1002
{
1000
HIER
1070
     0
1002
}
1002
{
1000
MANEDIT
1070
     0
1002
}
1002
{
1000
NOSEL
1070
     0
1002
}
1002
{
1000
BEHIND
1070
     0
1002
}
1002
{
1000
OTHER
1070
     0
1002
}
1002
{
1000
REACTOR
1002
}
1001
GENIUS_GENOBJ-N-FIL_13
1002
{
1000
OWNER
1000
GEN
1002
}
  0
LINE
  5
452B
  8
250
  6
CONTINUOUS
 10
101.60000000000051
 20
20.279807614876241
 30
0.0
 11
101.60000000000051
 21
57.0
 31
0.0
  0
LINE
  5
452C
  8
250
  6
CONTINUOUS
 10
52.600000000000279
 20
10.025000000000571
 30
0.0
 11
52.600000000000279
 21
57.0
 31
0.0
  0
LINE
  5
452D
  8
250
  6
CONTINUOUS
 10
99.370000000000559
 20
56.0
 30
0.0
 11
52.600000000000279
 21
56.000000000000007
 31
0.0
  0
LINE
  5
4531
  8
250
  6
CONTINUOUS
 10
0.0
 20
50.500000000000021
 30
0.0
 11
0.0000000000000009
 21
64.0
 31
0.0
  0
LINE
  5
4532
  8
250
  6
CONTINUOUS
 10
101.60000000000051
 20
20.279807614876241
 30
0.0
 11
101.60000000000051
 21
64.0
 31
0.0
  0
LINE
  5
4533
  8
250
  6
CONTINUOUS
 10
2.23
 20
63.0
 30
0.0
 11
99.370000000000559
 21
63.0
 31
0.0
  0
TEXT
  5
4537
  8
250
  6
CONTINUOUS
 10
70.147940352753807
 20
57.277421405819382
 30
0.0
 40
2.7999999999999989
  1
1.929
  0
LINE
  5
4538
  8
250
  6
CONTINUOUS
 10
54.830000000000283
 20
55.62833333333333
 30
0.0
 11
52.600000000000279
 21
56.0
 31
0.0
  0
LINE
  5
4539
  8
250
  6
CONTINUOUS
 10
54.830000000000283
 20
56.37166666666667
 30
0.0
 11
52.600000000000279
 21
56.0
 31
0.0
  0
LINE
  5
453A
  8
250
  6
CONTINUOUS
 10
52.600000000000279
 20
56.0
 30
0.0
 11
54.830000000000283
 21
56.0
 31
0.0
  0
LINE
  5
453B
  8
250
  6
CONTINUOUS
 10
99.370000000000559
 20
56.37166666666667
 30
0.0
 11
101.60000000000051
 21
56.0
 31
0.0
  0
LINE
  5
453C
  8
250
  6
CONTINUOUS
 10
99.370000000000559
 20
55.62833333333333
 30
0.0
 11
101.60000000000051
 21
56.0
 31
0.0
  0
LINE
  5
453D
  8
250
  6
CONTINUOUS
 10
101.60000000000051
 20
56.0
 30
0.0
 11
99.370000000000559
 21
56.0
 31
0.0
  0
TEXT
  5
453E
  8
250
  6
CONTINUOUS
 10
49.400000000000283
 20
64.000000000000014
 30
0.0
 40
2.7999999999999989
  1
4.000
  0
LINE
  5
453F
  8
250
  6
CONTINUOUS
 10
99.370000000000559
 20
63.37166666666667
 30
0.0
 11
101.60000000000051
 21
63.0
 31
0.0
  0
LINE
  5
4540
  8
250
  6
CONTINUOUS
 10
99.370000000000559
 20
62.62833333333333
 30
0.0
 11
101.60000000000051
 21
63.0
 31
0.0
  0
LINE
  5
4541
  8
250
  6
CONTINUOUS
 10
101.60000000000051
 20
63.0
 30
0.0
 11
99.370000000000559
 21
63.0
 31
0.0
  0
LINE
  5
4542
  8
250
  6
CONTINUOUS
 10
2.23
 20
62.62833333333333
 30
0.0
 11
0.0000000000000008
 21
63.0
 31
0.0
  0
LINE
  5
4543
  8
250
  6
CONTINUOUS
 10
2.23
 20
63.37166666666667
 30
0.0
 11
0.0000000000000008
 21
63.0
 31
0.0
  0
LINE
  5
4544
  8
250
  6
CONTINUOUS
 10
0.0000000000000008
 20
63.0
 30
0.0
 11
2.23
 21
63.0
 31
0.0
  0
VIEWPORT
  5
22
 67
     1
  8
0
 10
261.51769911504419
 20
148.5
 30
0.0
 40
523.0353982300885
 41
297.0
 68
     1
 69
     1
1001
ACAD
1000
MVIEW
1002
{
1070
    16
1010
0.0
1020
0.0
1030
0.0
1010
0.0
1020
0.0
1030
1.0
1040
0.0
1040
297.0
1040
261.51769911504419
1040
148.5
1040
50.0
1040
0.0
1040
0.0
1070
     0
1070
   100
1070
     1
1070
     1
1070
     0
1070
     0
1070
     0
1070
     0
1040
0.0
1040
0.0
1040
0.0
1040
1.0
1040
1.0
1040
10.0
1040
10.0
1070
     0
1002
{
1002
}
1002
}
1001
GENIUS_GENODEF_13
1002
{
1000
HIER
1070
     0
1002
}
1002
{
1000
MANEDIT
1070
     0
1002
}
1002
{
1000
NOSEL
1070
     0
1002
}
1002
{
1000
BEHIND
1070
     0
1002
}
1002
{
1000
OTHER
1070
     0
1002
}
1002
{
1000
REACTOR
1002
}
1001
GENIUS_GENOBJ-N-SDF_13
1002
{
1000
OWNER
1000
GEN
1002
}
1001
GENIUS_GENSCREG_15
1000
PF
1040
1.0
1000
DF
1040
1.0
1000
MIN
1011
0.0
1021
0.0
1031
0.0
1021
0.0
1031
0.0
1000
MAX
1011
523.0353982300885
1021
0.0
1031
0.0
1021
297.0
1031
0.0
1000
FLAGS
1070
     4
  0
ENDSEC
  0
EOF
