  0
SECTION
  2
HEADER
  9
$ACADVER
  1
AC1009
  9
$INSBASE
 10
0.0
 20
0.0
 30
0.0
  9
$EXTMIN
 10
-62.047619047619051
 20
-50.0
 30
0.0
  9
$EXTMAX
 10
130.59999999999999
 20
82.000000000000014
 30
0.0
  9
$LIMMIN
 10
0.0
 20
0.0
  9
$LIMMAX
 10
297.0
 20
210.0
  9
$ORTHOMODE
 70
     1
  9
$REGENMODE
 70
     1
  9
$FILLMODE
 70
     1
  9
$QTEXTMODE
 70
     0
  9
$MIRRTEXT
 70
     1
  9
$DRAGMODE
 70
     2
  9
$LTSCALE
 40
10.0
  9
$OSMODE
 70
    37
  9
$ATTMODE
 70
     1
  9
$TEXTSIZE
 40
3.0
  9
$TRACEWID
 40
1.0
  9
$TEXTSTYLE
  7
YOKO
  9
$CLAYER
  8
240
  9
$CELTYPE
  6
BYLAYER
  9
$CECOLOR
 62
   256
  9
$DIMSCALE
 40
1.0
  9
$DIMASZ
 40
2.2299999999999991
  9
$DIMEXO
 40
0.5
  9
$DIMDLI
 40
7.0
  9
$DIMRND
 40
0.0
  9
$DIMDLE
 40
0.0
  9
$DIMEXE
 40
1.0
  9
$DIMTP
 40
0.0
  9
$DIMTM
 40
0.01
  9
$DIMTXT
 40
2.7999999999999989
  9
$DIMCEN
 40
0.0
  9
$DIMTSZ
 40
0.0
  9
$DIMTOL
 70
     0
  9
$DIMLIM
 70
     0
  9
$DIMTIH
 70
     0
  9
$DIMTOH
 70
     0
  9
$DIMSE1
 70
     0
  9
$DIMSE2
 70
     0
  9
$DIMTAD
 70
     3
  9
$DIMZIN
 70
     9
  9
$DIMBLK
  1
OPEN
  9
$DIMASO
 70
     1
  9
$DIMSHO
 70
     1
  9
$DIMPOST
  1

  9
$DIMAPOST
  1

  9
$DIMALT
 70
     0
  9
$DIMALTD
 70
     2
  9
$DIMALTF
 40
25.399999999999999
  9
$DIMLFAC
 40
1.0
  9
$DIMTOFL
 70
     1
  9
$DIMTVP
 40
0.0
  9
$DIMTIX
 70
     1
  9
$DIMSOXD
 70
     0
  9
$DIMSAH
 70
     0
  9
$DIMBLK1
  1

  9
$DIMBLK2
  1

  9
$DIMSTYLE
  2
BIGT
  9
$DIMCLRD
 70
   256
  9
$DIMCLRE
 70
   256
  9
$DIMCLRT
 70
    40
  9
$DIMTFAC
 40
1.0
  9
$DIMGAP
 40
1.0
  9
$LUNITS
 70
     2
  9
$LUPREC
 70
     6
  9
$SKETCHINC
 40
1.0
  9
$FILLETRAD
 40
0.0
  9
$AUNITS
 70
     0
  9
$AUPREC
 70
     6
  9
$MENU
  1
.
  9
$ELEVATION
 40
0.0
  9
$PELEVATION
 40
0.0
  9
$THICKNESS
 40
0.0
  9
$LIMCHECK
 70
     0
  9
$BLIPMODE
 70
     0
  9
$CHAMFERA
 40
0.2
  9
$CHAMFERB
 40
0.2
  9
$SKPOLY
 70
     0
  9
$TDCREATE
 40
2458141.4971453822
  9
$TDUPDATE
 40
2458142.5512017361
  9
$TDINDWG
 40
0.0470188194
  9
$TDUSRTIMER
 40
0.0470187963
  9
$USRTIMER
 70
     1
  9
$ANGBASE
 50
0.0
  9
$ANGDIR
 70
     0
  9
$PDMODE
 70
     1
  9
$PDSIZE
 40
0.0
  9
$PLINEWID
 40
0.0
  9
$COORDS
 70
     1
  9
$SPLFRAME
 70
     0
  9
$SPLINETYPE
 70
     6
  9
$SPLINESEGS
 70
     4
  9
$ATTDIA
 70
     1
  9
$ATTREQ
 70
     1
  9
$HANDLING
 70
     1
  9
$HANDSEED
  5
45A0
  9
$SURFTAB1
 70
     6
  9
$SURFTAB2
 70
     6
  9
$SURFTYPE
 70
     6
  9
$SURFU
 70
     6
  9
$SURFV
 70
     6
  9
$UCSNAME
  2

  9
$UCSORG
 10
0.0
 20
0.0
 30
0.0
  9
$UCSXDIR
 10
1.0
 20
0.0
 30
0.0
  9
$UCSYDIR
 10
0.0
 20
1.0
 30
0.0
  9
$PUCSNAME
  2

  9
$PUCSORG
 10
0.0
 20
0.0
 30
0.0
  9
$PUCSXDIR
 10
1.0
 20
0.0
 30
0.0
  9
$PUCSYDIR
 10
0.0
 20
1.0
 30
0.0
  9
$USERI1
 70
     1
  9
$USERI2
 70
     0
  9
$USERI3
 70
     0
  9
$USERI4
 70
     0
  9
$USERI5
 70
     0
  9
$USERR1
 40
0.0
  9
$USERR2
 40
0.0
  9
$USERR3
 40
0.0
  9
$USERR4
 40
0.0
  9
$USERR5
 40
0.0
  9
$WORLDVIEW
 70
     1
  9
$SHADEDGE
 70
     3
  9
$SHADEDIF
 70
    70
  9
$TILEMODE
 70
     1
  9
$MAXACTVP
 70
    16
  9
$PLIMCHECK
 70
     0
  9
$PEXTMIN
 10
1.0000000000000000E+020
 20
1.0000000000000000E+020
 30
1.0000000000000000E+020
  9
$PEXTMAX
 10
-1.0000000000000000E+020
 20
-1.0000000000000000E+020
 30
-1.0000000000000000E+020
  9
$PLIMMIN
 10
0.0
 20
0.0
  9
$PLIMMAX
 10
420.0
 20
297.0
  9
$UNITMODE
 70
     0
  9
$VISRETAIN
 70
     1
  9
$PLINEGEN
 70
     0
  9
$PSLTSCALE
 70
     1
  0
ENDSEC
  0
SECTION
  2
TABLES
  0
TABLE
  2
VPORT
 70
     1
  0
VPORT
  2
*ACTIVE
 70
     0
 10
0.0
 20
0.0
 11
1.0
 21
1.0
 12
30.241295524221702
 22
9.0327239159231283
 13
0.0
 23
0.0
 14
7.0
 24
7.0
 15
7.0
 25
7.0
 16
0.0
 26
0.0
 36
1.0
 17
0.0
 27
0.0
 37
0.0
 40
285.20519615071271
 41
1.4533622559652919
 42
50.0
 43
0.0
 44
0.0
 50
0.0
 51
0.0
 71
     0
 72
  2000
 73
     1
 74
     0
 75
     1
 76
     1
 77
     0
 78
     0
  0
ENDTAB
  0
TABLE
  2
LTYPE
 70
    21
  0
LTYPE
  2
CONTINUOUS
 70
     0
  3
Solid line
 72
    65
 73
     0
 40
0.0
  0
LTYPE
  2
CENTER2
 70
     0
  3
___ _ ___ _ ___ _ ___ _ ___ _ ___ _ ___ _ ___ _
 72
    65
 73
     4
 40
1.125
 49
0.75
 49
-0.125
 49
0.125
 49
-0.125
  0
LTYPE
  2
HIDDEN2
 70
     0
  3
_ _ _ _ _ _ _ _ _ _ _ _ _ _ _ _ _ _ _ _ _ _ _ _
 72
    65
 73
     2
 40
0.1875
 49
0.125
 49
-0.0625
  0
LTYPE
  2
AM_ISO02W050
 70
     0
  3
__ __ __ __ __ __ __ __ __ __ __ __ __ __ __
 72
    65
 73
     2
 40
7.5
 49
6.0
 49
-1.5
  0
LTYPE
  2
AMCONSTR
 70
     0
  3
_______________________
 72
    65
 73
     2
 40
9999.0
 49
9999.0
 49
0.0
  0
LTYPE
  2
ACISOWELD
 70
     0
  3
_ _ _ _ _
 72
    65
 73
     2
 40
2.0
 49
2.0
 49
-1.0
  0
LTYPE
  2
ACISOTGB
 70
     0
  3
__ . . __ . .
 72
    65
 73
     6
 40
9.0
 49
4.0
 49
-1.0
 49
1.0
 49
-1.0
 49
1.0
 49
-1.0
  0
LTYPE
  2
ACISOTGL
 70
     0
  3
_ _ _ _ _
 72
    65
 73
     2
 40
3.0
 49
2.0
 49
-1.0
  0
LTYPE
  2
AM_ISO08W050
 70
     0
  3
____ . ____ . ____ . ____ . ____ . ____ . ____
 72
    65
 73
     4
 40
18.0
 49
12.0
 49
-1.5
 49
3.0
 49
-1.5
  0
LTYPE
  2
AM_ISO09W050
 70
     0
  3
_____ . . _____ . . _____ . . ____ .. ____
 72
    65
 73
     6
 40
22.5
 49
12.0
 49
-1.5
 49
3.0
 49
-1.5
 49
3.0
 49
-1.5
  0
LTYPE
  2
AM_ISO08W050X2
 70
     0
  3
__ . __ . __ . __ . __ . __
 72
    65
 73
     4
 40
9.0
 49
6.0
 49
-0.75
 49
1.5
 49
-0.75
  0
LTYPE
  2
AM_ISO02W050X2
 70
     0
  3
 _ _ _ _ _ _ _ _ _ _ _ _
 72
    65
 73
     2
 40
3.75
 49
3.0
 49
-0.75
  0
LTYPE
  2
AMZIGZAG
 70
     0
  3
/\/-/\/-/\/-/\/-/\/-/\/
 72
    65
 73
     2
 40
11.0001
 49
0.0001
 49
-11.0
  0
ENDTAB
  0
TABLE
  2
LAYER
 70
     8
  0
LAYER
  2
0
 70
     0
 62
     7
  6
CONTINUOUS
  0
LAYER
  2
DEFPOINTS
 70
     0
 62
     7
  6
CONTINUOUS
  0
LAYER
  2
245
 70
     0
 62
     2
  6
CENTER2
  0
LAYER
  2
240
 70
     0
 62
     4
  6
CONTINUOUS
  0
LAYER
  2
241
 70
     0
 62
   211
  6
CONTINUOUS
  0
LAYER
  2
243
 70
     0
 62
   211
  6
HIDDEN2
  0
LAYER
  2
247
 70
     0
 62
    60
  6
CONTINUOUS
  0
LAYER
  2
250
 70
     0
 62
     3
  6
CONTINUOUS
  0
ENDTAB
  0
TABLE
  2
STYLE
 70
     8
  0
STYLE
  2
STANDARD
 70
     0
 40
0.0
 41
1.0
 50
0.0
 71
     0
 42
3.0
  3
romans.shx
  4
extfont.shx
  0
STYLE
  2
ACISOGDT
 70
     0
 40
0.0
 41
1.0
 50
0.0
 71
     0
 42
3.0
  3
amgdt.shx
  4
extfont.shx
  0
STYLE
  2
YOKO
 70
     0
 40
0.0
 41
1.0
 50
0.0
 71
     0
 42
3.0
  3
romans.shx
  4
extfont.shx
  0
STYLE
  2

 70
     1
 40
0.0
 41
1.0
 50
0.0
 71
     0
 42
3.0
  3
genltshp.shx
  4

  0
ENDTAB
  0
TABLE
  2
VIEW
 70
     0
  0
ENDTAB
  0
TABLE
  2
UCS
 70
     0
  0
ENDTAB
  0
TABLE
  2
APPID
 70
    39
  0
APPID
  2
ACAD
 70
     0
  0
APPID
  2
GLOBAL
 70
     0
  0
APPID
  2
DETAIL
 70
     0
  0
APPID
  2
GRPNAME
 70
     0
  0
APPID
  2
GPARA
 70
     0
  0
APPID
  2
MCAD_NO_VIS
 70
     0
  0
APPID
  2
ACAD_TEMP_GRAPHIC
 70
     0
  0
APPID
  2
ACATTRIBSERVICES
 70
     0
  0
APPID
  2
GENIUS_GENSCREG_15
 70
     0
  0
APPID
  2
GENIUS_GENODEF_13
 70
     0
  0
APPID
  2
GENIUS_GENOBJ-N-SDF_13
 70
     0
  0
APPID
  2
GENIUS_GENREC_14
 70
     0
  0
APPID
  2
GENIUS_GENOBJ-N-REC_13
 70
     0
  0
APPID
  2
GENIUS_GENDIMSH_14
 70
     0
  0
APPID
  2
GENIUS_GENOBJ-N-DIM_13
 70
     0
  0
APPID
  2
GENIUS_GENDIM_13
 70
     0
  0
APPID
  2
GENIUS_GENDTOL_13
 70
     0
  0
APPID
  2
GENIUS_GENOLIS_13
 70
     0
  0
APPID
  2
GENIUS_GENOENT_13
 70
     0
  0
APPID
  2
GENIUS_GENOBJ-F-FEM_13
 70
     0
  0
APPID
  2
GENIUS_GENOREF_13
 70
     0
  0
APPID
  2
GENIUS_GEFFEM_13
 70
     0
  0
APPID
  2
GENIUS_GEFFEMP_13
 70
     0
  0
APPID
  2
AD_DRAW
 70
     0
  0
APPID
  2
DESIGNERASSEMBLIES
 70
     0
  0
APPID
  2
ACADM_DIM_EDIT
 70
     0
  0
APPID
  2
AMDT_DM_ADJ
 70
     0
  0
APPID
  2
ITEMNAME
 70
     0
  0
APPID
  2
GENIUS_GENOBJ-N-FIL_13
 70
     0
  0
APPID
  2
GENIUS_GENFIL_13
 70
     0
  0
APPID
  2
GENIUS_GENOBJ-N-CHA_13
 70
     0
  0
APPID
  2
ACAECLAYERSTANDARD
 70
     0
  0
APPID
  2
ACAD_NAV_VCDISPLAY
 70
     0
  0
APPID
  2
ACAD_PSEXT
 70
     0
  0
APPID
  2
ACAD_DSTYLE_DIMJAG
 70
     0
  0
APPID
  2
ACAD_DSTYLE_DIMBREAK
 70
     0
  0
APPID
  2
ACAD_EXEMPT_FROM_CAD_STANDARDS
 70
     0
  0
APPID
  2
ACAD_DSTYLE_DIMINSPECT
 70
     0
  0
APPID
  2
ACAD_MLEADERVER
 70
     0
  0
ENDTAB
  0
TABLE
  2
DIMSTYLE
 70
    29
  0
DIMSTYLE
  2
BIGT
 70
     0
  3

  4

  5
OPEN
  6

  7

 40
1.0
 41
2.2299999999999991
 42
0.5
 43
7.0
 44
1.0
 45
0.0
 46
0.0
 47
0.0
 48
0.01
140
2.7999999999999989
141
0.0
142
0.0
143
25.399999999999999
144
1.0
145
0.0
146
1.0
147
1.0
 71
     0
 72
     0
 73
     0
 74
     0
 75
     0
 76
     0
 77
     3
 78
     9
170
     0
171
     2
172
     1
173
     0
174
     1
175
     0
176
   256
177
   256
178
    40
  0
DIMSTYLE
  2
AM_ISO
 70
     0
  3

  4
"
  5

  6

  7

 40
1.0
 41
2.5
 42
1.0
 43
10.0
 44
1.0
 45
0.0
 46
0.0
 47
0.1
 48
0.1
140
3.5
141
0.0
142
0.0
143
0.0393701
144
1.0
145
0.0
146
0.71
147
1.5
 71
     0
 72
     0
 73
     0
 74
     0
 75
     0
 76
     0
 77
     1
 78
     8
170
     0
171
     2
172
     1
173
     0
174
     0
175
     0
176
   256
177
   256
178
     2
  0
DIMSTYLE
  2
AM_ISO$3
 70
     0
  3

  4
"
  5

  6

  7

 40
1.0
 41
2.5
 42
1.0
 43
10.0
 44
1.0
 45
0.0
 46
0.0
 47
0.1
 48
0.1
140
3.5
141
0.0
142
0.0
143
0.0393701
144
1.0
145
0.0
146
0.71
147
1.5
 71
     0
 72
     0
 73
     0
 74
     1
 75
     0
 76
     0
 77
     1
 78
     8
170
     0
171
     2
172
     0
173
     0
174
     0
175
     0
176
   256
177
   256
178
     2
  0
DIMSTYLE
  2
AM_ISO$4
 70
     0
  3

  4
"
  5

  6

  7

 40
1.0
 41
2.5
 42
1.0
 43
10.0
 44
1.0
 45
0.0
 46
0.0
 47
0.1
 48
0.1
140
3.5
141
0.0
142
0.0
143
0.0393701
144
1.0
145
0.0
146
0.71
147
1.5
 71
     0
 72
     0
 73
     0
 74
     1
 75
     0
 76
     0
 77
     1
 78
     8
170
     0
171
     2
172
     0
173
     0
174
     0
175
     0
176
   256
177
   256
178
     2
  0
DIMSTYLE
  2
AM_ISO$6
 70
     0
  3

  4
"
  5

  6

  7

 40
1.0
 41
2.5
 42
1.0
 43
10.0
 44
1.0
 45
0.0
 46
0.0
 47
0.1
 48
0.1
140
3.5
141
0.0
142
0.0
143
0.0393701
144
1.0
145
0.0
146
0.71
147
1.5
 71
     0
 72
     0
 73
     0
 74
     0
 75
     0
 76
     0
 77
     0
 78
     8
170
     0
171
     2
172
     1
173
     0
174
     0
175
     0
176
   256
177
   256
178
     2
  0
DIMSTYLE
  2
AM_ISO$7
 70
     0
  3

  4
"
  5

  6

  7

 40
1.0
 41
2.5
 42
1.0
 43
10.0
 44
1.0
 45
0.0
 46
0.0
 47
0.1
 48
0.1
140
5.0
141
0.0
142
0.0
143
0.0393701
144
1.0
145
0.0
146
0.71
147
1.5
 71
     0
 72
     0
 73
     0
 74
     0
 75
     0
 76
     0
 77
     1
 78
     8
170
     0
171
     2
172
     1
173
     0
174
     0
175
     0
176
   256
177
   256
178
     2
  0
DIMSTYLE
  2
AM_ISO$SF
 70
     0
  3

  4
"
  5

  6

  7

 40
1.0
 41
2.5
 42
1.0
 43
10.0
 44
1.0
 45
0.0
 46
0.0
 47
0.1
 48
0.1
140
3.5
141
0.0
142
0.0
143
0.0393701
144
1.0
145
0.0
146
0.71
147
1.5
 71
     0
 72
     0
 73
     0
 74
     0
 75
     1
 76
     1
 77
     1
 78
     8
170
     0
171
     2
172
     1
173
     0
174
     0
175
     0
176
   256
177
   256
178
     2
  0
DIMSTYLE
  2
AM_ISO$SH
 70
     0
  3

  4
"
  5

  6
GENAXEH
  7

 40
1.0
 41
2.5
 42
1.0
 43
10.0
 44
1.0
 45
0.0
 46
0.0
 47
0.1
 48
0.1
140
3.5
141
0.0
142
0.0
143
0.0393701
144
2.0
145
0.0
146
0.71
147
1.5
 71
     0
 72
     0
 73
     0
 74
     0
 75
     1
 76
     1
 77
     1
 78
     8
170
     0
171
     2
172
     1
173
     1
174
     0
175
     0
176
   256
177
   256
178
     2
  0
ENDTAB
  0
ENDSEC
  0
SECTION
  2
BLOCKS
  0
BLOCK
  8
0
  2
$MODEL_SPACE
 70
     0
 10
0.0
 20
0.0
 30
0.0
  3
$MODEL_SPACE
  1

  0
ENDBLK
  5
1C
  8
0
  0
BLOCK
 67
     1
  8
0
  2
$PAPER_SPACE
 70
     0
 10
0.0
 20
0.0
 30
0.0
  3
$PAPER_SPACE
  1

  0
ENDBLK
  5
19
 67
     1
  8
0
  0
BLOCK
  8
0
  2
_OPEN
 70
     0
 10
0.0
 20
0.0
 30
0.0
  3
_OPEN
  1

  0
LINE
  5
3E1A
  8
0
  6
BYBLOCK
 62
     0
 10
-1.0
 20
0.1666666666666666
 30
0.0
 11
0.0
 21
0.0
 31
0.0
  0
LINE
  5
3E1B
  8
0
  6
BYBLOCK
 62
     0
 10
-1.0
 20
-0.1666666666666666
 30
0.0
 11
0.0
 21
0.0
 31
0.0
  0
LINE
  5
3E1C
  8
0
  6
BYBLOCK
 62
     0
 10
0.0
 20
0.0
 30
0.0
 11
-1.0
 21
0.0
 31
0.0
  0
ENDBLK
  5
3E1D
  8
0
  0
BLOCK
  8
0
  2
GENAXEH
 70
     0
 10
0.0
 20
0.0
 30
0.0
  3
GENAXEH
  1

  0
LINE
  5
3E45
  8
0
 10
-1.0
 20
0.0
 30
0.0
 11
1.0
 21
0.0
 31
0.0
  0
ENDBLK
  5
3E46
  8
0
  0
ENDSEC
  0
SECTION
  2
ENTITIES
  0
LINE
  5
42C0
  8
250
  6
CONTINUOUS
 10
-32.935905670000011
 20
-48.713341000780929
 30
0.0
 11
-59.869239000000043
 21
-48.713341000780929
 31
0.0
1001
ITEMNAME
1000
LNSP2
  0
LINE
  5
42C1
  8
240
  6
CONTINUOUS
 10
-50.0
 20
10.009999999999989
 30
0.0
 11
-50.0
 21
35.50000000156183
 31
0.0
  0
LINE
  5
42C2
  8
241
  6
CONTINUOUS
 10
21.875000000000011
 20
10.0
 30
0.0
 11
21.875000000000011
 21
46.0
 31
0.0
  0
LINE
  5
42C3
  8
241
  6
CONTINUOUS
 10
18.125000000000011
 20
10.0
 30
0.0
 11
18.125000000000011
 21
46.0
 31
0.0
  0
LINE
  5
42C4
  8
241
  6
CONTINUOUS
 10
16.752404739999982
 20
10.0
 30
0.0
 11
16.752404739999982
 21
50.0
 31
0.0
  0
LINE
  5
42C5
  8
241
  6
CONTINUOUS
 10
23.247595260000029
 20
10.0
 30
0.0
 11
23.247595260000029
 21
50.0
 31
0.0
  0
LINE
  5
42C6
  8
240
  6
CONTINUOUS
 10
0.0000000000000071
 20
-37.999999999934928
 30
0.0
 11
-50.0
 21
-35.50000000156183
 31
0.0
  0
LINE
  5
42C7
  8
243
  6
HIDDEN2
 10
-41.999999999999993
 20
-10.009999999999989
 30
0.0
 11
-36.999999999999993
 21
-10.009999999999989
 31
0.0
  0
LINE
  5
42C8
  8
243
  6
HIDDEN2
 10
-41.999999999999993
 20
10.009999999999989
 30
0.0
 11
-36.999999999999993
 21
10.009999999999989
 31
0.0
  0
LINE
  5
42C9
  8
240
  6
CONTINUOUS
 10
-50.0
 20
-35.50000000156183
 30
0.0
 11
-50.0
 21
-10.009999999999989
 31
0.0
  0
LINE
  5
42CA
  8
240
  6
CONTINUOUS
 10
-40.0
 20
-8.0099999999999891
 30
0.0
 11
-40.0
 21
8.0099999999999891
 31
0.0
  0
LINE
  5
42CB
  8
240
  6
CONTINUOUS
 10
-50.0
 20
-10.009999999999989
 30
0.0
 11
-41.999999999999993
 21
-10.009999999999989
 31
0.0
  0
ARC
  5
42CC
  8
240
  6
CONTINUOUS
 10
-41.999999999999993
 20
-8.0099999999999891
 30
0.0
 40
2.0
 50
270.0
 51
0.0
  0
ARC
  5
42CD
  8
240
  6
CONTINUOUS
 10
-41.999999999999993
 20
8.0099999999999891
 30
0.0
 40
2.0
 50
0.0
 51
90.0
  0
LINE
  5
42CE
  8
240
  6
CONTINUOUS
 10
-50.0
 20
10.009999999999989
 30
0.0
 11
-41.999999999999993
 21
10.009999999999989
 31
0.0
  0
LINE
  5
42CF
  8
240
  6
CONTINUOUS
 10
0.0000000000000071
 20
-50.0
 30
0.0
 11
0.0000000000000071
 21
-37.999999999934928
 31
0.0
  0
LINE
  5
42D0
  8
241
  6
CONTINUOUS
 10
29.0
 20
-42.5
 30
0.0
 11
29.000000000000071
 21
42.5
 31
0.0
  0
LINE
  5
42D1
  8
241
  6
CONTINUOUS
 10
21.875000000000011
 20
-33.522380580000011
 30
0.0
 11
21.875000000000011
 21
-46.0
 31
0.0
  0
LINE
  5
42D2
  8
241
  6
CONTINUOUS
 10
18.125000000000011
 20
-33.522380580000011
 30
0.0
 11
18.125000000000011
 21
-46.0
 31
0.0
  0
LINE
  5
42D3
  8
241
  6
CONTINUOUS
 10
16.752404739999982
 20
-50.0
 30
0.0
 11
16.752404739999982
 21
-38.829756629999991
 31
0.0
  0
LINE
  5
42D4
  8
241
  6
CONTINUOUS
 10
23.247595260000029
 20
-50.0
 30
0.0
 11
23.247595260000029
 21
-38.829756629999991
 31
0.0
  0
LINE
  5
42D5
  8
240
  6
CONTINUOUS
 10
0.0000000000000071
 20
-50.0
 30
0.0
 11
16.752404739999982
 21
-50.0
 31
0.0
  0
LINE
  5
42D6
  8
240
  6
CONTINUOUS
 10
23.247595260000029
 20
-50.0
 30
0.0
 11
29.000000000000011
 21
-50.0
 31
0.0
  0
LINE
  5
42D7
  8
240
  6
CONTINUOUS
 10
21.875000000000011
 20
-46.0
 30
0.0
 11
21.875000000000011
 21
-47.622595259999997
 31
0.0
  0
LINE
  5
42D8
  8
240
  6
CONTINUOUS
 10
18.125000000000011
 20
-46.0
 30
0.0
 11
18.125000000000011
 21
-47.622595259999997
 31
0.0
  0
LINE
  5
42D9
  8
240
  6
CONTINUOUS
 10
18.125000000000011
 20
-47.622595259999997
 30
0.0
 11
16.752404739999982
 21
-50.0
 31
0.0
  0
LINE
  5
42DA
  8
240
  6
CONTINUOUS
 10
21.875000000000011
 20
-47.622595259999997
 30
0.0
 11
23.247595260000029
 21
-50.0
 31
0.0
  0
LINE
  5
42DB
  8
240
  6
CONTINUOUS
 10
18.125000000000011
 20
-46.0
 30
0.0
 11
21.875000000000011
 21
-46.0
 31
0.0
  0
LINE
  5
42DC
  8
240
  6
CONTINUOUS
 10
29.000000000000011
 20
-50.0
 30
0.0
 11
29.000000000000011
 21
-42.5
 31
0.0
  0
LINE
  5
42DD
  8
243
  6
HIDDEN2
 10
-35.0
 20
-8.0099999999999891
 30
0.0
 11
-34.99999999999995
 21
8.0099999999999891
 31
0.0
  0
ARC
  5
42DE
  8
243
  6
HIDDEN2
 10
-36.999999999999993
 20
-8.0099999999999891
 30
0.0
 40
2.0
 50
270.0
 51
0.0
  0
ARC
  5
42DF
  8
243
  6
HIDDEN2
 10
-36.999999999999993
 20
8.0099999999999891
 30
0.0
 40
2.0
 50
0.0
 51
90.0
  0
LINE
  5
42E0
  8
241
  6
CONTINUOUS
 10
0.0000000000000071
 20
-37.999999999934928
 30
0.0
 11
0.0
 21
37.9999999999349
 31
0.0
  0
LINE
  5
42E1
  8
241
  6
CONTINUOUS
 10
18.125000000000011
 20
-10.0
 30
0.0
 11
18.125000000000011
 21
-31.5
 31
0.0
  0
LINE
  5
42E2
  8
241
  6
CONTINUOUS
 10
16.752404739999982
 20
-31.5
 30
0.0
 11
16.752404739999982
 21
-10.0
 31
0.0
  0
LINE
  5
42E3
  8
241
  6
CONTINUOUS
 10
21.875000000000011
 20
-10.0
 30
0.0
 11
21.875000000000011
 21
-31.5
 31
0.0
  0
LINE
  5
42E4
  8
241
  6
CONTINUOUS
 10
23.247595260000029
 20
-31.5
 30
0.0
 11
23.247595260000029
 21
-10.0
 31
0.0
  0
LINE
  5
42E5
  8
241
  6
CONTINUOUS
 10
14.63689785999998
 20
-31.5
 30
0.0
 11
29.000000000000011
 21
-31.5
 31
0.0
  0
LINE
  5
42E6
  8
241
  6
CONTINUOUS
 10
5.0000000000000071
 20
-38.829756629999991
 30
0.0
 11
16.752404739999982
 21
-38.829756629999991
 31
0.0
  0
ARC
  5
42E7
  8
241
  6
CONTINUOUS
 10
14.63689785999998
 20
-41.5
 30
0.0
 40
10.0
 50
90.0
 51
164.5127259999978
  0
LINE
  5
42E8
  8
241
  6
CONTINUOUS
 10
23.247595260000029
 20
-38.829756629999991
 30
0.0
 11
29.000000000000011
 21
-38.829756629999991
 31
0.0
  0
LINE
  5
42E9
  8
241
  6
CONTINUOUS
 10
18.125000000000011
 20
-33.522380580000011
 30
0.0
 11
21.875000000000011
 21
-33.522380580000011
 31
0.0
  0
LINE
  5
42EA
  8
241
  6
CONTINUOUS
 10
16.752404739999982
 20
-38.829756629999991
 30
0.0
 11
18.125000000000011
 21
-35.716404910000001
 31
0.0
  0
LINE
  5
42EB
  8
241
  6
CONTINUOUS
 10
23.247595260000029
 20
-38.829756629999991
 30
0.0
 11
21.875000000000011
 21
-35.716404910000001
 31
0.0
  0
LINE
  5
42EC
  8
241
  6
CONTINUOUS
 10
15.000000000000011
 20
-10.0
 30
0.0
 11
29.000000000000011
 21
-10.0
 31
0.0
  0
LINE
  5
42ED
  8
241
  6
CONTINUOUS
 10
15.000000000000011
 20
10.0
 30
0.0
 11
29.000000000000011
 21
10.0
 31
0.0
  0
LINE
  5
42EE
  8
240
  6
CONTINUOUS
 10
0.0000000000000071
 20
37.9999999999349
 30
0.0
 11
-50.0
 21
35.50000000156183
 31
0.0
  0
LINE
  5
42EF
  8
240
  6
CONTINUOUS
 10
0.0000000000000071
 20
50.0
 30
0.0
 11
0.0000000000000071
 21
37.9999999999349
 31
0.0
  0
LINE
  5
42F0
  8
240
  6
CONTINUOUS
 10
0.0000000000000071
 20
50.0
 30
0.0
 11
16.752404739999982
 21
50.0
 31
0.0
  0
LINE
  5
42F1
  8
240
  6
CONTINUOUS
 10
23.247595260000029
 20
50.0
 30
0.0
 11
29.000000000000011
 21
50.0
 31
0.0
  0
LINE
  5
42F2
  8
240
  6
CONTINUOUS
 10
21.875000000000011
 20
47.622595260000018
 30
0.0
 11
23.247595260000029
 21
50.0
 31
0.0
  0
LINE
  5
42F3
  8
240
  6
CONTINUOUS
 10
18.125000000000011
 20
47.622595260000018
 30
0.0
 11
16.752404739999982
 21
50.0
 31
0.0
  0
LINE
  5
42F4
  8
240
  6
CONTINUOUS
 10
18.125000000000011
 20
46.0
 30
0.0
 11
21.875000000000011
 21
46.0
 31
0.0
  0
LINE
  5
42F5
  8
240
  6
CONTINUOUS
 10
18.125000000000011
 20
46.0
 30
0.0
 11
18.125000000000011
 21
47.622595260000018
 31
0.0
  0
LINE
  5
42F6
  8
240
  6
CONTINUOUS
 10
21.875000000000011
 20
46.0
 30
0.0
 11
21.875000000000011
 21
47.622595260000018
 31
0.0
  0
LINE
  5
42F7
  8
240
  6
CONTINUOUS
 10
29.000000000000011
 20
50.0
 30
0.0
 11
29.000000000000011
 21
42.5
 31
0.0
  0
TEXT
  5
42FA
  8
250
  6
CONTINUOUS
 10
-57.602572333333342
 20
-47.713341000780922
 30
0.0
 40
2.799999999999998
  1
HSK-A100
  7
YOKO
1001
ITEMNAME
1000
LNSP3
1001
ACAD
1000
MTEXTBEGIN
1070
    73
1070
     1
1070
    44
1040
1.0
1070
    74
1070
     0
1000
MTEXTEND
  0
LINE
  5
42FB
  8
250
  6
CONTINUOUS
 10
-27.000000001057909
 20
-38.432050807739017
 30
0.0
 11
-32.935905670000011
 21
-48.713341000780929
 31
0.0
1001
ACAD
1000
DSTYLE
1002
{
1070
     6
1000
OPEN
1070
    41
1040
2.0
1070
    42
1040
2.0
1070
    44
1040
2.0
1070
   140
1040
4.0
1070
   343
1005
0
1002
}
  0
LINE
  5
42FC
  8
250
  6
CONTINUOUS
 10
-27.288675135550928
 20
-38.26538414089606
 30
0.0
 11
-26.0
 21
-36.700000000780904
 31
0.0
  0
LINE
  5
42FD
  8
250
  6
CONTINUOUS
 10
-26.71132486656489
 20
-38.598717474582003
 30
0.0
 11
-26.0
 21
-36.700000000780904
 31
0.0
  0
LINE
  5
42FE
  8
250
  6
CONTINUOUS
 10
-26.0
 20
-36.700000000780904
 30
0.0
 11
-27.000000001057909
 21
-38.432050807739017
 31
0.0
  0
LINE
  5
42FF
  8
245
  6
CENTER2
 10
-48.499999999999993
 20
0.0
 30
0.0
 11
106.3304098544336
 21
0.0
 31
0.0
  0
CIRCLE
  5
4300
  8
241
  6
CONTINUOUS
 10
-14.999999999999989
 20
0.0
 30
0.0
 40
6.0
  0
LINE
  5
4301
  8
247
  6
CONTINUOUS
 10
10.0
 20
-26.250000000070042
 30
0.0
 11
10.0
 21
-19.557692308030031
 31
0.0
  0
ARC
  5
4302
  8
247
  6
CONTINUOUS
 10
8.2500000000699814
 20
-26.250000000070042
 30
0.0
 40
1.7499999999299991
 50
180.0
 51
0.0
  0
ARC
  5
4303
  8
247
  6
CONTINUOUS
 10
8.2500000000700382
 20
-19.557692308030031
 30
0.0
 40
1.7499999999299991
 50
0.0
 51
180.0
  0
LINE
  5
4304
  8
247
  6
CONTINUOUS
 10
6.5000000001400684
 20
-25.384615384720011
 30
0.0
 11
9.5000000000200142
 21
-26.244851541962021
 31
0.0
  0
LINE
  5
4305
  8
247
  6
CONTINUOUS
 10
7.9230769231600169
 20
-24.48498381833582
 30
0.0
 11
7.9230769231600169
 21
-25.792676125975849
 31
0.0
  0
ARC
  5
4306
  8
247
  6
CONTINUOUS
 10
7.049598667702984
 20
-24.145143816089789
 30
0.0
 40
0.5538165441895349
 50
72.997889675292413
 51
172.92416621851351
  0
ARC
  5
4307
  8
247
  6
CONTINUOUS
 10
6.9360330444658338
 20
-24.566878323028789
 30
0.0
 40
0.9904354236226808
 50
4.7429368522022122
 51
73.849226273266424
1001
GENIUS_GENOBJ-N-FIL_13
1002
{
1000
OWNER
1000
GEN
1002
}
1001
GENIUS_GENODEF_13
1002
{
1000
HIER
1070
     0
1002
}
1002
{
1000
MANEDIT
1070
     0
1002
}
1002
{
1000
NOSEL
1070
     0
1002
}
1002
{
1000
BEHIND
1070
     0
1002
}
1002
{
1000
OTHER
1070
     0
1002
}
1002
{
1000
REACTOR
1002
}
  0
LINE
  5
4308
  8
247
  6
CONTINUOUS
 10
9.5000000000200142
 20
-24.937159234321999
 30
0.0
 11
9.5000000000200142
 21
-26.244851541962021
 31
0.0
  0
LINE
  5
4309
  8
247
  6
CONTINUOUS
 10
6.5000000001400684
 20
-25.384615384720011
 30
0.0
 11
6.5000000001400684
 21
-24.076923077079989
 31
0.0
  0
ARC
  5
430A
  8
247
  6
CONTINUOUS
 10
8.4820242326656015
 20
-24.560919636546942
 30
0.0
 40
0.5640818586791229
 50
65.990941652528889
 51
172.26344345906909
  0
ARC
  5
430B
  8
247
  6
CONTINUOUS
 10
8.4874290391866296
 20
-25.038262685347089
 30
0.0
 40
1.0176059446230981
 50
5.701985164256504
 51
77.277338436822191
1001
GENIUS_GENOBJ-N-FIL_13
1002
{
1000
OWNER
1000
GEN
1002
}
1001
GENIUS_GENODEF_13
1002
{
1000
HIER
1070
     0
1002
}
1002
{
1000
MANEDIT
1070
     0
1002
}
1002
{
1000
NOSEL
1070
     0
1002
}
1002
{
1000
BEHIND
1070
     0
1002
}
1002
{
1000
OTHER
1070
     0
1002
}
1002
{
1000
REACTOR
1002
}
  0
LINE
  5
430C
  8
247
  6
CONTINUOUS
 10
9.5000000000200142
 20
-23.28331308054203
 30
0.0
 11
6.5000000001400684
 21
-22.42307692330002
 31
0.0
  0
LINE
  5
430D
  8
247
  6
CONTINUOUS
 10
6.5000000001400684
 20
-20.000000000319972
 30
0.0
 11
6.5000000001400684
 21
-20.565736619456569
 31
0.0
  0
LINE
  5
430E
  8
247
  6
CONTINUOUS
 10
9.5000000000200142
 20
-21.461538461799989
 30
0.0
 11
9.5000000000200142
 21
-20.846153846440021
 31
0.0
  0
ARC
  5
430F
  8
247
  6
CONTINUOUS
 10
8.5832851359733766
 20
-19.708791209122861
 30
0.0
 40
2.2526500823422122
 50
202.3594881415263
 51
254.99324854284609
  0
ARC
  5
4310
  8
247
  6
CONTINUOUS
 10
7.3083126551945341
 20
-20.37406947921323
 30
0.0
 40
0.8906723995727782
 50
94.994589319075374
 51
155.1663289573041
1001
GENIUS_GENOBJ-N-FIL_13
1002
{
1000
OWNER
1000
GEN
1002
}
1001
GENIUS_GENODEF_13
1002
{
1000
HIER
1070
     0
1002
}
1002
{
1000
MANEDIT
1070
     0
1002
}
1002
{
1000
NOSEL
1070
     0
1002
}
1002
{
1000
BEHIND
1070
     0
1002
}
1002
{
1000
OTHER
1070
     0
1002
}
1002
{
1000
REACTOR
1002
}
  0
ARC
  5
4311
  8
247
  6
CONTINUOUS
 10
8.1601458886677918
 20
-21.22645888621258
 30
0.0
 40
1.392781735586712
 50
15.846096555780679
 51
82.325137004169122
  0
ARC
  5
4312
  8
247
  6
CONTINUOUS
 10
8.4592434315272911
 20
-20.642212725840348
 30
0.0
 40
1.324563662670287
 50
249.7136016704969
 51
321.78874565640581
1001
GENIUS_GENOBJ-N-FIL_13
1002
{
1000
OWNER
1000
GEN
1002
}
1001
GENIUS_GENODEF_13
1002
{
1000
HIER
1070
     0
1002
}
1002
{
1000
MANEDIT
1070
     0
1002
}
1002
{
1000
NOSEL
1070
     0
1002
}
1002
{
1000
BEHIND
1070
     0
1002
}
1002
{
1000
OTHER
1070
     0
1002
}
1002
{
1000
REACTOR
1002
}
  0
LINE
  5
4313
  8
247
  6
CONTINUOUS
 10
8.3461538462199822
 20
-20.538461538759979
 30
0.0
 11
8.3461538462199822
 21
-19.846153846479961
 31
0.0
  0
ARC
  5
4314
  8
241
  6
CONTINUOUS
 10
15.000000000000011
 20
0.0
 30
0.0
 40
10.0
 50
90.0
 51
270.0
  0
LINE
  5
4315
  8
247
  6
CONTINUOUS
 10
6.500000000139952
 20
-26.250000000070042
 30
0.0
 11
6.500000000139952
 21
-25.576923077020041
 31
0.0
  0
LINE
  5
433E
  8
241
  6
CONTINUOUS
 10
50.300000000000018
 20
-40.623893805309677
 30
0.0
 11
50.300000000000018
 21
40.623893805309692
 31
0.0
  0
LINE
  5
433F
  8
241
  6
CONTINUOUS
 10
52.299999999999898
 20
-39.915929203539797
 30
0.0
 11
52.300000000000189
 21
39.915929203539719
 31
0.0
  0
LINE
  5
4340
  8
240
  6
CONTINUOUS
 10
29.000000000000011
 20
-42.5
 30
0.0
 11
45.0
 21
-42.5
 31
0.0
  0
LINE
  5
4342
  8
240
  6
CONTINUOUS
 10
45.0
 20
-42.5
 30
0.0
 11
56.29999999999967
 21
-38.500000000000071
 31
0.0
  0
LINE
  5
4343
  8
241
  6
CONTINUOUS
 10
45.0
 20
-42.5
 30
0.0
 11
45.000000000000007
 21
42.5
 31
0.0
  0
LINE
  5
43AD
  8
241
  6
CONTINUOUS
 10
56.300000000000239
 20
38.500000000000071
 30
0.0
 11
56.30000000000009
 21
-38.500000000000249
 31
0.0
  0
LINE
  5
43AE
  8
240
  6
CONTINUOUS
 10
102.1999999999998
 20
-22.38480758092177
 30
0.0
 11
104.0
 21
-22.384807580921638
 31
0.0
  0
LINE
  5
43AF
  8
240
  6
CONTINUOUS
 10
104.0
 20
22.384807580921571
 30
0.0
 11
104.0
 21
-22.384807580921638
 31
0.0
  0
LINE
  5
43B0
  8
240
  6
CONTINUOUS
 10
102.1999999999998
 20
22.38480758092189
 30
0.0
 11
104.0
 21
22.384807580921571
 31
0.0
  0
LINE
  5
43B1
  8
241
  6
CONTINUOUS
 10
102.1999999999998
 20
22.38480758092189
 30
0.0
 11
102.1999999999998
 21
-22.38480758092188
 31
0.0
  0
ARC
  5
43B2
  8
240
  6
CONTINUOUS
 10
66.454700538379257
 20
-36.500000000000291
 30
0.0
 40
2.0
 50
269.99999999999841
 51
329.99999999999773
  0
LINE
  5
43B3
  8
241
  6
CONTINUOUS
 10
67.609401076758473
 20
-38.132993161855801
 30
0.0
 11
67.609401076758473
 21
38.13299316185585
 31
0.0
  0
LINE
  5
43B4
  8
241
  6
CONTINUOUS
 10
75.299999999999898
 20
-35.349999999999973
 30
0.0
 11
75.299999999999983
 21
35.350000000000108
 31
0.0
  0
LINE
  5
43B5
  8
241
  6
CONTINUOUS
 10
95.299999999999983
 20
-34.99999999999968
 30
0.0
 11
95.29999999999994
 21
34.999999999999879
 31
0.0
  0
LINE
  5
43B6
  8
240
  6
CONTINUOUS
 10
97.165999999994128
 20
-34.500006806925143
 30
0.0
 11
95.299999999999983
 21
-34.99999999999968
 31
0.0
  0
LINE
  5
43B7
  8
240
  6
CONTINUOUS
 10
75.649999999999196
 20
-35.000000000000092
 30
0.0
 11
95.299999999999415
 21
-35.000000000000028
 31
0.0
  0
LINE
  5
43B8
  8
240
  6
CONTINUOUS
 10
75.299999999999898
 20
-35.349999999999973
 30
0.0
 11
70.582754963085264
 21
-35.349999999999973
 31
0.0
  0
LINE
  5
43B9
  8
240
  6
CONTINUOUS
 10
68.850704155516468
 20
-36.349999999999902
 30
0.0
 11
68.186751345948068
 21
-37.500000000000327
 31
0.0
  0
ARC
  5
43BA
  8
240
  6
CONTINUOUS
 10
70.582754963085264
 20
-37.349999999999973
 30
0.0
 40
2.0
 50
90.0
 51
149.9999999999979
  0
LINE
  5
43BB
  8
240
  6
CONTINUOUS
 10
75.649999999999196
 20
-35.000000000000092
 30
0.0
 11
75.299999999999898
 21
-35.349999999999973
 31
0.0
  0
LINE
  5
43BC
  8
240
  6
CONTINUOUS
 10
97.699999999982126
 20
-34.191701763186408
 30
0.0
 11
97.165999999994128
 21
-34.500006806925143
 31
0.0
  0
LINE
  5
43BD
  8
241
  6
CONTINUOUS
 10
69.42805442470609
 20
-35.717006838144592
 30
0.0
 11
69.42805442470609
 21
35.717006838127013
 31
0.0
  0
LINE
  5
43BE
  8
240
  6
CONTINUOUS
 10
102.1999999999998
 20
26.39747312911615
 30
0.0
 11
102.1999999999998
 21
22.38480758092189
 31
0.0
1001
GRPNAME
1000
PASTMD58
  0
ARC
  5
43BF
  8
240
  6
CONTINUOUS
 10
93.199999999999903
 20
-26.397473129116239
 30
0.0
 40
9.0
 50
299.9999999998692
 51
0.0
1001
GRPNAME
1000
PASTMD58
  0
LINE
  5
43C0
  8
240
  6
CONTINUOUS
 10
56.300000000000139
 20
38.500000000000071
 30
0.0
 11
66.454700538379313
 21
38.500000000000263
 31
0.0
  0
ARC
  5
43C1
  8
240
  6
CONTINUOUS
 10
66.45470053837937
 20
36.500000000000263
 30
0.0
 40
2.0
 50
30.000000000002139
 51
90.00000000000081
  0
LINE
  5
43C2
  8
240
  6
CONTINUOUS
 10
97.165999999994241
 20
34.50000680692505
 30
0.0
 11
95.300000000000125
 21
34.999999999999588
 31
0.0
  0
LINE
  5
43C3
  8
240
  6
CONTINUOUS
 10
75.649999999999224
 20
35.00000000000005
 30
0.0
 11
95.299999999999486
 21
34.99999999999995
 31
0.0
  0
LINE
  5
43C4
  8
240
  6
CONTINUOUS
 10
75.299999999999983
 20
35.34999999999993
 30
0.0
 11
70.582754963085392
 21
35.349999999999937
 31
0.0
  0
LINE
  5
43C5
  8
240
  6
CONTINUOUS
 10
68.850704155516567
 20
36.349999999999874
 30
0.0
 11
68.186751345948181
 21
37.500000000000298
 31
0.0
  0
ARC
  5
43C6
  8
240
  6
CONTINUOUS
 10
70.582754963085392
 20
37.349999999999937
 30
0.0
 40
2.0
 50
210.00000000000199
 51
270.0
  0
LINE
  5
43C7
  8
240
  6
CONTINUOUS
 10
75.649999999999224
 20
35.00000000000005
 30
0.0
 11
75.299999999999983
 21
35.34999999999993
 31
0.0
  0
LINE
  5
43C8
  8
240
  6
CONTINUOUS
 10
97.699999999982211
 20
34.191701763186323
 30
0.0
 11
97.165999999994241
 21
34.50000680692505
 31
0.0
  0
ARC
  5
43C9
  8
240
  6
CONTINUOUS
 10
93.19999999999996
 20
26.39747312911615
 30
0.0
 40
9.0
 50
0.0
 51
60.00000000013069
1001
GRPNAME
1000
PASTMD58
  0
LINE
  5
43CA
  8
243
  6
HIDDEN2
 10
44.0
 20
-12.700000000000021
 30
0.0
 11
104.0
 21
-12.70000000000001
 31
0.0
1001
GRPNAME
1000
PASTMD1G
  0
LINE
  5
43CB
  8
250
  6
CONTINUOUS
 10
104.5
 20
-12.700000000000021
 30
0.0
 11
123.60000000000009
 21
-12.700000000000021
 31
0.0
  0
LINE
  5
43CC
  8
250
  6
CONTINUOUS
 10
104.5
 20
12.700000000000021
 30
0.0
 11
123.60000000000009
 21
12.70000000000001
 31
0.0
  0
LINE
  5
43CD
  8
250
  6
CONTINUOUS
 10
122.60000000000009
 20
-12.700000000000021
 30
0.0
 11
122.60000000000009
 21
12.70000000000001
 31
0.0
  0
LINE
  5
43CE
  8
250
  6
CONTINUOUS
 10
122.93333333333339
 20
-10.700000000000021
 30
0.0
 11
122.60000000000009
 21
-12.700000000000021
 31
0.0
  0
LINE
  5
43CF
  8
250
  6
CONTINUOUS
 10
122.26666666666669
 20
-10.700000000000021
 30
0.0
 11
122.60000000000009
 21
-12.700000000000021
 31
0.0
  0
LINE
  5
43D0
  8
250
  6
CONTINUOUS
 10
122.60000000000009
 20
-12.700000000000021
 30
0.0
 11
122.60000000000009
 21
-10.700000000000021
 31
0.0
  0
LINE
  5
43D1
  8
250
  6
CONTINUOUS
 10
122.26666666666669
 20
10.70000000000001
 30
0.0
 11
122.60000000000009
 21
12.70000000000001
 31
0.0
  0
LINE
  5
43D2
  8
250
  6
CONTINUOUS
 10
122.93333333333339
 20
10.70000000000001
 30
0.0
 11
122.60000000000009
 21
12.70000000000001
 31
0.0
  0
LINE
  5
43D3
  8
250
  6
CONTINUOUS
 10
122.60000000000009
 20
12.70000000000001
 30
0.0
 11
122.60000000000009
 21
10.70000000000001
 31
0.0
  0
TEXT
  5
43D4
  8
250
  6
CONTINUOUS
 10
121.5846751197612
 20
-7.1451547777388971
 30
0.0
 40
2.799999999999998
  1
\U+22051.000
 50
90.0
  0
LINE
  5
43D5
  8
250
  6
CONTINUOUS
 10
95.799999999998519
 20
-35.000000000000028
 30
0.0
 11
130.59999999999999
 21
-35.000000000000028
 31
0.0
  0
LINE
  5
43D6
  8
250
  6
CONTINUOUS
 10
95.799999999998661
 20
34.99999999999995
 30
0.0
 11
130.59999999999999
 21
34.99999999999995
 31
0.0
  0
LINE
  5
43D7
  8
250
  6
CONTINUOUS
 10
129.60000000000011
 20
-33.00000000000005
 30
0.0
 11
129.60000000000011
 21
32.99999999999995
 31
0.0
  0
LINE
  5
43D8
  8
250
  6
CONTINUOUS
 10
129.93333333333339
 20
-33.00000000000005
 30
0.0
 11
129.60000000000011
 21
-35.000000000000028
 31
0.0
  0
LINE
  5
43D9
  8
250
  6
CONTINUOUS
 10
129.26666666666659
 20
-33.00000000000005
 30
0.0
 11
129.60000000000011
 21
-35.000000000000028
 31
0.0
  0
LINE
  5
43DA
  8
250
  6
CONTINUOUS
 10
129.60000000000011
 20
-35.000000000000028
 30
0.0
 11
129.60000000000011
 21
-33.00000000000005
 31
0.0
  0
LINE
  5
43DB
  8
250
  6
CONTINUOUS
 10
129.26666666666659
 20
32.99999999999995
 30
0.0
 11
129.60000000000011
 21
34.99999999999995
 31
0.0
  0
LINE
  5
43DC
  8
250
  6
CONTINUOUS
 10
129.93333333333339
 20
32.99999999999995
 30
0.0
 11
129.60000000000011
 21
34.99999999999995
 31
0.0
  0
LINE
  5
43DD
  8
250
  6
CONTINUOUS
 10
129.60000000000011
 20
34.99999999999995
 30
0.0
 11
129.60000000000011
 21
32.99999999999995
 31
0.0
  0
TEXT
  5
43DE
  8
250
  6
CONTINUOUS
 10
128.58467511976119
 20
-7.145154777738945
 30
0.0
 40
2.799999999999998
  1
\U+22052.756
 50
90.0
  0
LINE
  5
43DF
  8
243
  6
HIDDEN2
 10
44.0
 20
12.700000000000021
 30
0.0
 11
104.0
 21
12.70000000000001
 31
0.0
1001
GRPNAME
1000
PASTMD1G
  0
LINE
  5
43E0
  8
240
  6
CONTINUOUS
 10
102.1999999999998
 20
-22.38480758092188
 30
0.0
 11
102.1999999999998
 21
-26.397473129116239
 31
0.0
  0
TEXT
  5
43E1
  8
250
  6
CONTINUOUS
 10
106.74927117593511
 20
16.113517841677609
 30
0.0
 40
2.799999999999998
  1
Coolant
  7
YOKO
 11
106.74927117593511
 21
16.113517841677609
 31
0.0
 73
     1
  0
LINE
  5
43E2
  8
250
  6
CONTINUOUS
 10
120.2785622841548
 20
14.87166666666675
 30
0.0
 11
122.50856228415481
 21
14.50000000000008
 31
0.0
  0
LINE
  5
43E3
  8
250
  6
CONTINUOUS
 10
120.2785622841548
 20
14.12833333333341
 30
0.0
 11
122.50856228415481
 21
14.50000000000008
 31
0.0
  0
LINE
  5
43E4
  8
250
  6
CONTINUOUS
 10
122.50856228415481
 20
14.50000000000008
 30
0.0
 11
120.2785622841548
 21
14.50000000000008
 31
0.0
  0
LINE
  5
43E5
  8
250
  6
CONTINUOUS
 10
120.2785622841548
 20
14.50000000000008
 30
0.0
 11
106.9999999999991
 21
14.50000000000008
 31
0.0
  0
LINE
  5
43E6
  8
250
  6
CONTINUOUS
 10
120.2785622841552
 20
-14.12833333333332
 30
0.0
 11
122.5085622841552
 21
-14.5
 31
0.0
  0
LINE
  5
43E7
  8
250
  6
CONTINUOUS
 10
120.2785622841552
 20
-14.871666666666661
 30
0.0
 11
122.5085622841552
 21
-14.5
 31
0.0
  0
LINE
  5
43E8
  8
250
  6
CONTINUOUS
 10
122.5085622841552
 20
-14.5
 30
0.0
 11
120.2785622841552
 21
-14.5
 31
0.0
  0
LINE
  5
43E9
  8
250
  6
CONTINUOUS
 10
120.2785622841552
 20
-14.5
 30
0.0
 11
106.9999999999995
 21
-14.5
 31
0.0
  0
TEXT
  5
43EA
  8
250
  6
CONTINUOUS
 10
106.5869008417921
 20
-19.31554567599937
 30
0.0
 40
2.799999999999998
  1
Coolant
  7
YOKO
 11
106.5869008417921
 21
-19.31554567599937
 31
0.0
 73
     1
  0
LINE
  5
43EB
  8
240
  6
CONTINUOUS
 10
56.29999999999967
 20
-38.500000000000071
 30
0.0
 11
66.454700538379313
 21
-38.500000000000263
 31
0.0
  0
TEXT
  5
43EC
  8
241
  6
CONTINUOUS
 10
-63.0
 20
77.0
 30
0.0
 40
5.0
  1
HSK-A100-MEGA1.000DS-4
  7
YOKO
 11
-63.0
 21
77.0
 31
0.0
 73
     1
  0
LINE
  5
43EE
  8
240
  6
CONTINUOUS
 10
29.000000000000011
 20
42.5
 30
0.0
 11
45.0
 21
42.5
 31
0.0
  0
LINE
  5
43EF
  8
240
  6
CONTINUOUS
 10
45.0
 20
42.5
 30
0.0
 11
56.29999999999967
 21
38.500000000000071
 31
0.0
  0
LINE
  5
444E
  8
250
  6
CONTINUOUS
 10
31.09999999999998
 20
11.9
 30
0.0
 11
31.09999999999998
 21
56.99999999999995
 31
0.0
  0
LINE
  5
444F
  8
250
  6
CONTINUOUS
 10
104.0
 20
22.88480758092156
 30
0.0
 11
104.0
 21
56.999999999999943
 31
0.0
  0
LINE
  5
4450
  8
250
  6
CONTINUOUS
 10
33.329999999999977
 20
55.99999999999995
 30
0.0
 11
101.77
 21
55.99999999999995
 31
0.0
  0
LINE
  5
4454
  8
250
  6
CONTINUOUS
 10
0.0000000000000071
 20
50.5
 30
0.0
 11
0.000000000000008
 21
64.0
 31
0.0
  0
LINE
  5
4455
  8
250
  6
CONTINUOUS
 10
104.0
 20
22.88480758092156
 30
0.0
 11
104.0
 21
64.0
 31
0.0
  0
LINE
  5
4456
  8
250
  6
CONTINUOUS
 10
2.2300000000000071
 20
63.0
 30
0.0
 11
101.77
 21
63.0
 31
0.0
  0
TEXT
  5
445A
  8
250
  6
CONTINUOUS
 10
55.883333333333319
 20
56.99999999999995
 30
0.0
 40
2.7999999999999989
  1
(max.2.87)
  0
LINE
  5
445B
  8
250
  6
CONTINUOUS
 10
101.77
 20
56.371666666666613
 30
0.0
 11
104.0
 21
55.99999999999995
 31
0.0
  0
LINE
  5
445C
  8
250
  6
CONTINUOUS
 10
101.77
 20
55.628333333333281
 30
0.0
 11
104.0
 21
55.99999999999995
 31
0.0
  0
LINE
  5
445D
  8
250
  6
CONTINUOUS
 10
104.0
 20
55.99999999999995
 30
0.0
 11
101.77
 21
55.99999999999995
 31
0.0
  0
LINE
  5
445E
  8
250
  6
CONTINUOUS
 10
33.329999999999977
 20
55.628333333333281
 30
0.0
 11
31.09999999999998
 21
55.99999999999995
 31
0.0
  0
LINE
  5
445F
  8
250
  6
CONTINUOUS
 10
33.329999999999977
 20
56.371666666666613
 30
0.0
 11
31.09999999999998
 21
55.99999999999995
 31
0.0
  0
LINE
  5
4460
  8
250
  6
CONTINUOUS
 10
31.09999999999998
 20
55.99999999999995
 30
0.0
 11
33.329999999999977
 21
55.99999999999995
 31
0.0
  0
TEXT
  5
4461
  8
250
  6
CONTINUOUS
 10
45.93333333333333
 20
64.000000000000014
 30
0.0
 40
2.7999999999999989
  1
4.094
  0
LINE
  5
4462
  8
250
  6
CONTINUOUS
 10
101.77
 20
63.37166666666667
 30
0.0
 11
104.0
 21
63.0
 31
0.0
  0
LINE
  5
4463
  8
250
  6
CONTINUOUS
 10
101.77
 20
62.62833333333333
 30
0.0
 11
104.0
 21
63.0
 31
0.0
  0
LINE
  5
4464
  8
250
  6
CONTINUOUS
 10
104.0
 20
63.0
 30
0.0
 11
101.77
 21
63.0
 31
0.0
  0
LINE
  5
4465
  8
250
  6
CONTINUOUS
 10
2.2300000000000071
 20
62.62833333333333
 30
0.0
 11
0.0000000000000079
 21
63.0
 31
0.0
  0
LINE
  5
4466
  8
250
  6
CONTINUOUS
 10
2.2300000000000071
 20
63.37166666666667
 30
0.0
 11
0.0000000000000079
 21
63.0
 31
0.0
  0
LINE
  5
4467
  8
250
  6
CONTINUOUS
 10
0.0000000000000079
 20
63.0
 30
0.0
 11
2.2300000000000071
 21
63.0
 31
0.0
  0
VIEWPORT
  5
22
 67
     1
  8
0
 10
261.51769911504419
 20
148.5
 30
0.0
 40
523.0353982300885
 41
297.0
 68
     1
 69
     1
1001
ACAD
1000
MVIEW
1002
{
1070
    16
1010
0.0
1020
0.0
1030
0.0
1010
0.0
1020
0.0
1030
1.0
1040
0.0
1040
297.0
1040
261.51769911504419
1040
148.5
1040
50.0
1040
0.0
1040
0.0
1070
     0
1070
   100
1070
     1
1070
     1
1070
     0
1070
     0
1070
     0
1070
     0
1040
0.0
1040
0.0
1040
0.0
1040
1.0
1040
1.0
1040
10.0
1040
10.0
1070
     0
1002
{
1002
}
1002
}
1001
GENIUS_GENODEF_13
1002
{
1000
HIER
1070
     0
1002
}
1002
{
1000
MANEDIT
1070
     0
1002
}
1002
{
1000
NOSEL
1070
     0
1002
}
1002
{
1000
BEHIND
1070
     0
1002
}
1002
{
1000
OTHER
1070
     0
1002
}
1002
{
1000
REACTOR
1002
}
1001
GENIUS_GENOBJ-N-SDF_13
1002
{
1000
OWNER
1000
GEN
1002
}
1001
GENIUS_GENSCREG_15
1000
PF
1040
1.0
1000
DF
1040
1.0
1000
MIN
1011
0.0
1021
0.0
1031
0.0
1021
0.0
1031
0.0
1000
MAX
1011
523.0353982300885
1021
0.0
1031
0.0
1021
297.0
1031
0.0
1000
FLAGS
1070
     4
  0
ENDSEC
  0
EOF
