ISO-10303-21;
HEADER;
FILE_DESCRIPTION((''),'1');
FILE_NAME('W:/Translate/00_BIG-HP\X2\FF71FF6FFF8CFF9F\X0\2013/HSK-A100-CK7-273.stp','2013-11-15T07:07:49',(''),(''),'Spatial Interop R18','Kubotek KeyCreator V8.5.1 (14335)',' ');
FILE_SCHEMA(('CONFIG_CONTROL_DESIGN'));
ENDSEC;
DATA;
#1=DESIGN_CONTEXT('',#27,'design');
#2=APPLICATION_PROTOCOL_DEFINITION('INTERNATIONAL STANDARD','config_control_design',1994,#27);
#3=PRODUCT_CATEGORY_RELATIONSHIP('NONE','NONE',#28,#29);
#4=DATE_AND_TIME(#30,#31);
#5=DATE_TIME_ROLE('creation_date');
#6=DATE_TIME_ROLE('classification_date');
#7=PERSON_AND_ORGANIZATION_ROLE('creator');
#8=PERSON_AND_ORGANIZATION_ROLE('design_supplier');
#9=PERSON_AND_ORGANIZATION_ROLE('classification_officer');
#10=PERSON_AND_ORGANIZATION_ROLE('design_owner');
#11=APPROVAL_PERSON_ORGANIZATION(#32,#33,#34);
#12=APPROVAL_DATE_TIME(#4,#33);
#13=CC_DESIGN_APPROVAL(#33,(#35,#36,#37));
#14=CC_DESIGN_DATE_AND_TIME_ASSIGNMENT(#4,#5,(#37));
#15=CC_DESIGN_DATE_AND_TIME_ASSIGNMENT(#4,#6,(#35));
#16=CC_DESIGN_PERSON_AND_ORGANIZATION_ASSIGNMENT(#32,#10,(#38));
#17=CC_DESIGN_PERSON_AND_ORGANIZATION_ASSIGNMENT(#32,#7,(#37));
#18=CC_DESIGN_PERSON_AND_ORGANIZATION_ASSIGNMENT(#32,#7,(#36));
#19=CC_DESIGN_PERSON_AND_ORGANIZATION_ASSIGNMENT(#32,#8,(#36));
#20=CC_DESIGN_SECURITY_CLASSIFICATION(#35,(#36));
#21=CC_DESIGN_PERSON_AND_ORGANIZATION_ASSIGNMENT(#32,#9,(#35));
#22=SHAPE_DEFINITION_REPRESENTATION(#39,#40);
#23= (GEOMETRIC_REPRESENTATION_CONTEXT(3)GLOBAL_UNCERTAINTY_ASSIGNED_CONTEXT((#43))GLOBAL_UNIT_ASSIGNED_CONTEXT((#45,#46,#47))REPRESENTATION_CONTEXT('NONE','WORKSPACE'));
#27=APPLICATION_CONTEXT('CONFIGURATION CONTROLLED 3D DESIGNS OF MECHANICAL PARTS AND ASSEMBLIES');
#28=PRODUCT_CATEGORY('part','NONE');
#29=PRODUCT_RELATED_PRODUCT_CATEGORY('detail',' ',(#38));
#30=CALENDAR_DATE(2013,15,10);
#31=LOCAL_TIME(16,7,49.0,#49);
#32=PERSON_AND_ORGANIZATION(#50,#51);
#33=APPROVAL(#52,'SOLID MODEL');
#34=APPROVAL_ROLE('APPROVED');
#35=SECURITY_CLASSIFICATION('','',#53);
#36=PRODUCT_DEFINITION_FORMATION_WITH_SPECIFIED_SOURCE(' ','NONE',#38,.NOT_KNOWN.);
#37=PRODUCT_DEFINITION('NONE','NONE',#36,#1);
#38=PRODUCT('1','1','PART-1-DESC',(#54));
#39=PRODUCT_DEFINITION_SHAPE('NONE','NONE',#37);
#40=ADVANCED_BREP_SHAPE_REPRESENTATION('1',(#55,#56),#23);
#43=UNCERTAINTY_MEASURE_WITH_UNIT(LENGTH_MEASURE(1.0E-006),#45,'','');
#45= (CONVERSION_BASED_UNIT('MILLIMETRE',#59)LENGTH_UNIT()NAMED_UNIT(#62));
#46= (NAMED_UNIT(#64)PLANE_ANGLE_UNIT()SI_UNIT($,.RADIAN.));
#47= (NAMED_UNIT(#64)SOLID_ANGLE_UNIT()SI_UNIT($,.STERADIAN.));
#49=COORDINATED_UNIVERSAL_TIME_OFFSET(9,0,.AHEAD.);
#50=PERSON('','UNSPECIFIED',$,$,$,$);
#51=ORGANIZATION('UNSPECIFIED','UNSPECIFIED','UNSPECIFIED');
#52=APPROVAL_STATUS('approved');
#53=SECURITY_CLASSIFICATION_LEVEL('unclassified');
#54=MECHANICAL_CONTEXT('',#27,'mechanical');
#55=MANIFOLD_SOLID_BREP('1',#70);
#56=AXIS2_PLACEMENT_3D('',#71,#72,#73);
#59=LENGTH_MEASURE_WITH_UNIT(LENGTH_MEASURE(1.0),#74);
#62=DIMENSIONAL_EXPONENTS(1.0,0.0,0.0,0.0,0.0,0.0,0.0);
#64=DIMENSIONAL_EXPONENTS(0.0,0.0,0.0,0.0,0.0,0.0,0.0);
#70=CLOSED_SHELL('',(#75,#76,#77,#78,#79,#80,#81,#82,#83,#84,#85,#86,#87,#88,#89,#90));
#71=CARTESIAN_POINT('',(0.0,0.0,0.0));
#72=DIRECTION('',(0.0,0.0,1.0));
#73=DIRECTION('',(1.0,0.0,0.0));
#74= (NAMED_UNIT(#62)LENGTH_UNIT()SI_UNIT(.MILLI.,.METRE.));
#75=ADVANCED_FACE('',(#92),#93,.T.);
#76=ADVANCED_FACE('',(#94,#95),#96,.T.);
#77=ADVANCED_FACE('',(#97,#98),#99,.T.);
#78=ADVANCED_FACE('',(#100,#101),#102,.T.);
#79=ADVANCED_FACE('',(#103,#104),#105,.T.);
#80=ADVANCED_FACE('',(#106,#107),#108,.T.);
#81=ADVANCED_FACE('',(#109,#110),#111,.T.);
#82=ADVANCED_FACE('',(#112,#113),#114,.T.);
#83=ADVANCED_FACE('',(#115,#116),#117,.T.);
#84=ADVANCED_FACE('',(#118,#119),#120,.T.);
#85=ADVANCED_FACE('',(#121,#122),#123,.T.);
#86=ADVANCED_FACE('',(#124,#125),#126,.T.);
#87=ADVANCED_FACE('',(#127,#128),#129,.T.);
#88=ADVANCED_FACE('',(#130,#131),#132,.T.);
#89=ADVANCED_FACE('',(#133,#134),#135,.T.);
#90=ADVANCED_FACE('',(#136),#137,.T.);
#92=FACE_OUTER_BOUND('',#138,.T.);
#93=PLANE('',#139);
#94=FACE_BOUND('',#140,.T.);
#95=FACE_BOUND('',#141,.T.);
#96=CONICAL_SURFACE('',#142,36.7000000007809,0.0499583956894865);
#97=FACE_BOUND('',#143,.T.);
#98=FACE_BOUND('',#144,.T.);
#99=CYLINDRICAL_SURFACE('',#145,37.9);
#100=FACE_OUTER_BOUND('',#146,.T.);
#101=FACE_BOUND('',#147,.T.);
#102=PLANE('',#148);
#103=FACE_BOUND('',#149,.T.);
#104=FACE_BOUND('',#150,.T.);
#105=CYLINDRICAL_SURFACE('',#151,50.0);
#106=FACE_BOUND('',#152,.T.);
#107=FACE_BOUND('',#153,.T.);
#108=CONICAL_SURFACE('',#154,48.81129763,1.04719755328239);
#109=FACE_BOUND('',#155,.T.);
#110=FACE_OUTER_BOUND('',#156,.T.);
#111=PLANE('',#157);
#112=FACE_BOUND('',#158,.T.);
#113=FACE_BOUND('',#159,.T.);
#114=CYLINDRICAL_SURFACE('',#160,46.0);
#115=FACE_OUTER_BOUND('',#161,.T.);
#116=FACE_BOUND('',#162,.T.);
#117=PLANE('',#163);
#118=FACE_BOUND('',#164,.T.);
#119=FACE_BOUND('',#165,.T.);
#120=CONICAL_SURFACE('',#166,48.81129763,1.04719755328239);
#121=FACE_BOUND('',#167,.T.);
#122=FACE_BOUND('',#168,.T.);
#123=CYLINDRICAL_SURFACE('',#169,50.0);
#124=FACE_BOUND('',#170,.T.);
#125=FACE_OUTER_BOUND('',#171,.T.);
#126=PLANE('',#172);
#127=FACE_BOUND('',#173,.T.);
#128=FACE_BOUND('',#174,.T.);
#129=CYLINDRICAL_SURFACE('',#175,42.5);
#130=FACE_BOUND('',#176,.T.);
#131=FACE_BOUND('',#177,.T.);
#132=CONICAL_SURFACE('',#178,43.75,0.785398163397434);
#133=FACE_BOUND('',#179,.T.);
#134=FACE_BOUND('',#180,.T.);
#135=CYLINDRICAL_SURFACE('',#181,45.0);
#136=FACE_OUTER_BOUND('',#182,.T.);
#137=PLANE('',#183);
#138=EDGE_LOOP('',(#184));
#139=AXIS2_PLACEMENT_3D('',#185,#186,#187);
#140=EDGE_LOOP('',(#188));
#141=EDGE_LOOP('',(#189));
#142=AXIS2_PLACEMENT_3D('',#190,#191,#192);
#143=EDGE_LOOP('',(#193));
#144=EDGE_LOOP('',(#194));
#145=AXIS2_PLACEMENT_3D('',#195,#196,#197);
#146=EDGE_LOOP('',(#198));
#147=EDGE_LOOP('',(#199));
#148=AXIS2_PLACEMENT_3D('',#200,#201,#202);
#149=EDGE_LOOP('',(#203));
#150=EDGE_LOOP('',(#204));
#151=AXIS2_PLACEMENT_3D('',#205,#206,#207);
#152=EDGE_LOOP('',(#208));
#153=EDGE_LOOP('',(#209));
#154=AXIS2_PLACEMENT_3D('',#210,#211,#212);
#155=EDGE_LOOP('',(#213));
#156=EDGE_LOOP('',(#214));
#157=AXIS2_PLACEMENT_3D('',#215,#216,#217);
#158=EDGE_LOOP('',(#218));
#159=EDGE_LOOP('',(#219));
#160=AXIS2_PLACEMENT_3D('',#220,#221,#222);
#161=EDGE_LOOP('',(#223));
#162=EDGE_LOOP('',(#224));
#163=AXIS2_PLACEMENT_3D('',#225,#226,#227);
#164=EDGE_LOOP('',(#228));
#165=EDGE_LOOP('',(#229));
#166=AXIS2_PLACEMENT_3D('',#230,#231,#232);
#167=EDGE_LOOP('',(#233));
#168=EDGE_LOOP('',(#234));
#169=AXIS2_PLACEMENT_3D('',#235,#236,#237);
#170=EDGE_LOOP('',(#238));
#171=EDGE_LOOP('',(#239));
#172=AXIS2_PLACEMENT_3D('',#240,#241,#242);
#173=EDGE_LOOP('',(#243));
#174=EDGE_LOOP('',(#244));
#175=AXIS2_PLACEMENT_3D('',#245,#246,#247);
#176=EDGE_LOOP('',(#248));
#177=EDGE_LOOP('',(#249));
#178=AXIS2_PLACEMENT_3D('',#250,#251,#252);
#179=EDGE_LOOP('',(#253));
#180=EDGE_LOOP('',(#254));
#181=AXIS2_PLACEMENT_3D('',#255,#256,#257);
#182=EDGE_LOOP('',(#258));
#183=AXIS2_PLACEMENT_3D('',#259,#260,#261);
#184=ORIENTED_EDGE('',*,*,#262,.F.);
#185=CARTESIAN_POINT('',(-3.06161699786838E-015,-17.7500000007809,50.0));
#186=DIRECTION('',(-6.12323399573677E-017,-1.22464679914735E-016,1.0));
#187=DIRECTION('',(-1.23259516440783E-032,1.0,1.22464679914735E-016));
#188=ORIENTED_EDGE('',*,*,#263,.F.);
#189=ORIENTED_EDGE('',*,*,#262,.T.);
#190=CARTESIAN_POINT('',(-1.59204083889156E-015,-3.18408167778312E-015,26.0));
#191=DIRECTION('',(6.12323399573677E-017,1.22464679914735E-016,-1.0));
#192=DIRECTION('',(1.23259516440783E-032,-1.0,-1.22464679914735E-016));
#193=ORIENTED_EDGE('',*,*,#264,.F.);
#194=ORIENTED_EDGE('',*,*,#263,.T.);
#195=CARTESIAN_POINT('',(-6.12323399573677E-017,-1.22464679914735E-016,1.0));
#196=DIRECTION('',(-6.12323399573677E-017,-1.22464679914735E-016,1.0));
#197=DIRECTION('',(1.23259516440783E-032,-1.0,-1.22464679914735E-016));
#198=ORIENTED_EDGE('',*,*,#265,.F.);
#199=ORIENTED_EDGE('',*,*,#264,.T.);
#200=CARTESIAN_POINT('',(5.41725574757242E-031,-43.95,-5.38232268225262E-015));
#201=DIRECTION('',(-6.12323399573677E-017,-1.22464679914735E-016,1.0));
#202=DIRECTION('',(-1.23259516440783E-032,1.0,1.22464679914735E-016));
#203=ORIENTED_EDGE('',*,*,#266,.F.);
#204=ORIENTED_EDGE('',*,*,#265,.T.);
#205=CARTESIAN_POINT('',(5.12894471071548E-016,1.0257889421431E-015,-8.37620236999999));
#206=DIRECTION('',(-6.12323399573677E-017,-1.22464679914735E-016,1.0));
#207=DIRECTION('',(1.23259516440783E-032,-1.0,-1.22464679914735E-016));
#208=ORIENTED_EDGE('',*,*,#267,.F.);
#209=ORIENTED_EDGE('',*,*,#266,.T.);
#210=CARTESIAN_POINT('',(1.06781255193519E-015,2.13562510387038E-015,-17.43870237));
#211=DIRECTION('',(-6.12323399573677E-017,-1.22464679914735E-016,1.0));
#212=DIRECTION('',(1.23259516440783E-032,-1.0,-1.22464679914735E-016));
#213=ORIENTED_EDGE('',*,*,#268,.F.);
#214=ORIENTED_EDGE('',*,*,#267,.T.);
#215=CARTESIAN_POINT('',(1.10983616172729E-015,-46.81129763,-18.125));
#216=DIRECTION('',(6.12323399573677E-017,1.22464679914735E-016,-1.0));
#217=DIRECTION('',(1.23259516440783E-032,-1.0,-1.22464679914735E-016));
#218=ORIENTED_EDGE('',*,*,#269,.F.);
#219=ORIENTED_EDGE('',*,*,#268,.T.);
#220=CARTESIAN_POINT('',(1.22464679914735E-015,2.44929359829471E-015,-20.0));
#221=DIRECTION('',(-6.12323399573677E-017,-1.22464679914735E-016,1.0));
#222=DIRECTION('',(1.23259516440783E-032,-1.0,-1.22464679914735E-016));
#223=ORIENTED_EDGE('',*,*,#270,.F.);
#224=ORIENTED_EDGE('',*,*,#269,.T.);
#225=CARTESIAN_POINT('',(1.33945743656742E-015,-46.81129763,-21.875));
#226=DIRECTION('',(-6.12323399573677E-017,-1.22464679914735E-016,1.0));
#227=DIRECTION('',(-1.23259516440783E-032,1.0,1.22464679914735E-016));
#228=ORIENTED_EDGE('',*,*,#271,.F.);
#229=ORIENTED_EDGE('',*,*,#270,.T.);
#230=CARTESIAN_POINT('',(1.38148104635951E-015,2.76296209271903E-015,-22.56129763));
#231=DIRECTION('',(6.12323399573677E-017,1.22464679914735E-016,-1.0));
#232=DIRECTION('',(1.23259516440783E-032,-1.0,-1.22464679914735E-016));
#233=ORIENTED_EDGE('',*,*,#272,.F.);
#234=ORIENTED_EDGE('',*,*,#271,.T.);
#235=CARTESIAN_POINT('',(1.59962125745764E-015,3.19924251491527E-015,-26.12379763));
#236=DIRECTION('',(-6.12323399573677E-017,-1.22464679914735E-016,1.0));
#237=DIRECTION('',(1.23259516440783E-032,-1.0,-1.22464679914735E-016));
#238=ORIENTED_EDGE('',*,*,#273,.F.);
#239=ORIENTED_EDGE('',*,*,#272,.T.);
#240=CARTESIAN_POINT('',(1.77573785876366E-015,-46.25,-29.0));
#241=DIRECTION('',(6.12323399573677E-017,2.96463562295513E-015,-1.0));
#242=DIRECTION('',(1.8635872904528E-031,-1.0,-2.96463562295513E-015));
#243=ORIENTED_EDGE('',*,*,#274,.F.);
#244=ORIENTED_EDGE('',*,*,#273,.T.);
#245=CARTESIAN_POINT('',(2.2655965784226E-015,4.53119315684521E-015,-37.0));
#246=DIRECTION('',(-6.12323399573677E-017,-1.22464679914735E-016,1.0));
#247=DIRECTION('',(1.23259516440783E-032,-1.0,-1.22464679914735E-016));
#248=ORIENTED_EDGE('',*,*,#275,.F.);
#249=ORIENTED_EDGE('',*,*,#274,.T.);
#250=CARTESIAN_POINT('',(2.83199572302826E-015,5.66399144605651E-015,-46.25));
#251=DIRECTION('',(6.12323399573677E-017,1.22464679914735E-016,-1.0));
#252=DIRECTION('',(1.23259516440783E-032,-1.0,-1.22464679914735E-016));
#253=ORIENTED_EDGE('',*,*,#276,.F.);
#254=ORIENTED_EDGE('',*,*,#275,.T.);
#255=CARTESIAN_POINT('',(9.81248247816817E-015,1.96249649563363E-014,-160.25));
#256=DIRECTION('',(-6.12323399573677E-017,-1.22464679914735E-016,1.0));
#257=DIRECTION('',(1.23259516440783E-032,-1.0,-1.22464679914735E-016));
#258=ORIENTED_EDGE('',*,*,#276,.T.);
#259=CARTESIAN_POINT('',(1.67164288083614E-014,-22.5,-273.0));
#260=DIRECTION('',(6.12323399573677E-017,1.22464679914735E-016,-1.0));
#261=DIRECTION('',(1.23259516440783E-032,-1.0,-1.22464679914735E-016));
#262=EDGE_CURVE('',#277,#277,#278,.T.);
#263=EDGE_CURVE('',#279,#279,#280,.T.);
#264=EDGE_CURVE('',#281,#281,#282,.T.);
#265=EDGE_CURVE('',#283,#283,#284,.T.);
#266=EDGE_CURVE('',#285,#285,#286,.T.);
#267=EDGE_CURVE('',#287,#287,#288,.T.);
#268=EDGE_CURVE('',#289,#289,#290,.T.);
#269=EDGE_CURVE('',#291,#291,#292,.T.);
#270=EDGE_CURVE('',#293,#293,#294,.T.);
#271=EDGE_CURVE('',#295,#295,#296,.T.);
#272=EDGE_CURVE('',#297,#297,#298,.T.);
#273=EDGE_CURVE('',#299,#299,#300,.T.);
#274=EDGE_CURVE('',#301,#301,#302,.T.);
#275=EDGE_CURVE('',#303,#303,#304,.T.);
#276=EDGE_CURVE('',#305,#305,#306,.T.);
#277=VERTEX_POINT('',#307);
#278=CIRCLE('',#308,35.5000000015618);
#279=VERTEX_POINT('',#309);
#280=CIRCLE('',#310,37.9);
#281=VERTEX_POINT('',#311);
#282=CIRCLE('',#312,37.9);
#283=VERTEX_POINT('',#313);
#284=CIRCLE('',#314,50.0);
#285=VERTEX_POINT('',#315);
#286=CIRCLE('',#316,50.0);
#287=VERTEX_POINT('',#317);
#288=CIRCLE('',#318,47.62259526);
#289=VERTEX_POINT('',#319);
#290=CIRCLE('',#320,46.0);
#291=VERTEX_POINT('',#321);
#292=CIRCLE('',#322,46.0);
#293=VERTEX_POINT('',#323);
#294=CIRCLE('',#324,47.62259526);
#295=VERTEX_POINT('',#325);
#296=CIRCLE('',#326,50.0);
#297=VERTEX_POINT('',#327);
#298=CIRCLE('',#328,50.0);
#299=VERTEX_POINT('',#329);
#300=CIRCLE('',#330,42.5);
#301=VERTEX_POINT('',#331);
#302=CIRCLE('',#332,42.5);
#303=VERTEX_POINT('',#333);
#304=CIRCLE('',#334,45.0);
#305=VERTEX_POINT('',#335);
#306=CIRCLE('',#336,45.0);
#307=CARTESIAN_POINT('',(-3.06161699786838E-015,-35.5000000015618,50.0));
#308=AXIS2_PLACEMENT_3D('',#337,#338,#339);
#309=CARTESIAN_POINT('',(-1.22464679914735E-016,-37.9,2.0));
#310=AXIS2_PLACEMENT_3D('',#340,#341,#342);
#311=CARTESIAN_POINT('',(4.67153567310568E-031,-37.9,-4.64141136876847E-015));
#312=AXIS2_PLACEMENT_3D('',#343,#344,#345);
#313=CARTESIAN_POINT('',(6.16297582203915E-031,-50.0,-6.12323399573676E-015));
#314=AXIS2_PLACEMENT_3D('',#346,#347,#348);
#315=CARTESIAN_POINT('',(1.0257889421431E-015,-50.0,-16.75240474));
#316=AXIS2_PLACEMENT_3D('',#349,#350,#351);
#317=CARTESIAN_POINT('',(1.10983616172729E-015,-47.62259526,-18.125));
#318=AXIS2_PLACEMENT_3D('',#352,#353,#354);
#319=CARTESIAN_POINT('',(1.10983616172729E-015,-46.0,-18.125));
#320=AXIS2_PLACEMENT_3D('',#355,#356,#357);
#321=CARTESIAN_POINT('',(1.33945743656742E-015,-46.0,-21.875));
#322=AXIS2_PLACEMENT_3D('',#358,#359,#360);
#323=CARTESIAN_POINT('',(1.33945743656742E-015,-47.62259526,-21.875));
#324=AXIS2_PLACEMENT_3D('',#361,#362,#363);
#325=CARTESIAN_POINT('',(1.42350465615161E-015,-50.0,-23.24759526));
#326=AXIS2_PLACEMENT_3D('',#364,#365,#366);
#327=CARTESIAN_POINT('',(1.77573785876366E-015,-50.0,-29.0));
#328=AXIS2_PLACEMENT_3D('',#367,#368,#369);
#329=CARTESIAN_POINT('',(1.77573785876366E-015,-42.5,-29.0));
#330=AXIS2_PLACEMENT_3D('',#370,#371,#372);
#331=CARTESIAN_POINT('',(2.75545529808154E-015,-42.5,-45.0));
#332=AXIS2_PLACEMENT_3D('',#373,#374,#375);
#333=CARTESIAN_POINT('',(2.90853614797497E-015,-45.0,-47.5000000000001));
#334=AXIS2_PLACEMENT_3D('',#376,#377,#378);
#335=CARTESIAN_POINT('',(1.67164288083614E-014,-45.0,-273.0));
#336=AXIS2_PLACEMENT_3D('',#379,#380,#381);
#337=CARTESIAN_POINT('',(-3.06161699786838E-015,-6.12323399573676E-015,50.0));
#338=DIRECTION('',(6.12323399573677E-017,1.22464679914735E-016,-1.0));
#339=DIRECTION('',(1.23259516440783E-032,-1.0,-1.22464679914735E-016));
#340=CARTESIAN_POINT('',(-1.22464679914735E-016,-2.44929359829471E-016,2.0));
#341=DIRECTION('',(6.12323399573677E-017,1.22464679914735E-016,-1.0));
#342=DIRECTION('',(1.23259516440783E-032,-1.0,-1.22464679914735E-016));
#343=CARTESIAN_POINT('',(0.0,0.0,0.0));
#344=DIRECTION('',(6.12323399573677E-017,1.22464679914735E-016,-1.0));
#345=DIRECTION('',(1.23259516440783E-032,-1.0,-1.22464679914735E-016));
#346=CARTESIAN_POINT('',(0.0,0.0,0.0));
#347=DIRECTION('',(6.12323399573677E-017,1.22464679914735E-016,-1.0));
#348=DIRECTION('',(1.23259516440783E-032,-1.0,-1.22464679914735E-016));
#349=CARTESIAN_POINT('',(1.0257889421431E-015,2.05157788428619E-015,-16.75240474));
#350=DIRECTION('',(6.12323399573677E-017,1.22464679914735E-016,-1.0));
#351=DIRECTION('',(1.23259516440783E-032,-1.0,-1.22464679914735E-016));
#352=CARTESIAN_POINT('',(1.10983616172729E-015,2.21967232345458E-015,-18.125));
#353=DIRECTION('',(6.12323399573677E-017,1.22464679914735E-016,-1.0));
#354=DIRECTION('',(1.23259516440783E-032,-1.0,-1.22464679914735E-016));
#355=CARTESIAN_POINT('',(1.10983616172729E-015,2.21967232345458E-015,-18.125));
#356=DIRECTION('',(6.12323399573677E-017,1.22464679914735E-016,-1.0));
#357=DIRECTION('',(1.23259516440783E-032,-1.0,-1.22464679914735E-016));
#358=CARTESIAN_POINT('',(1.33945743656742E-015,2.67891487313483E-015,-21.875));
#359=DIRECTION('',(6.12323399573677E-017,1.22464679914735E-016,-1.0));
#360=DIRECTION('',(1.23259516440783E-032,-1.0,-1.22464679914735E-016));
#361=CARTESIAN_POINT('',(1.33945743656742E-015,2.67891487313483E-015,-21.875));
#362=DIRECTION('',(6.12323399573677E-017,1.22464679914735E-016,-1.0));
#363=DIRECTION('',(1.23259516440783E-032,-1.0,-1.22464679914735E-016));
#364=CARTESIAN_POINT('',(1.42350465615161E-015,2.84700931230322E-015,-23.24759526));
#365=DIRECTION('',(6.12323399573677E-017,1.22464679914735E-016,-1.0));
#366=DIRECTION('',(1.23259516440783E-032,-1.0,-1.22464679914735E-016));
#367=CARTESIAN_POINT('',(1.77573785876366E-015,3.55147571752732E-015,-29.0));
#368=DIRECTION('',(6.12323399573677E-017,1.22464679914735E-016,-1.0));
#369=DIRECTION('',(1.23259516440783E-032,-1.0,-1.22464679914735E-016));
#370=CARTESIAN_POINT('',(1.77573785876366E-015,3.55147571752732E-015,-29.0));
#371=DIRECTION('',(6.12323399573677E-017,1.22464679914735E-016,-1.0));
#372=DIRECTION('',(1.23259516440783E-032,-1.0,-1.22464679914735E-016));
#373=CARTESIAN_POINT('',(2.75545529808154E-015,5.51091059616309E-015,-45.0));
#374=DIRECTION('',(6.12323399573676E-017,1.22464679914735E-016,-1.0));
#375=DIRECTION('',(1.23259516440783E-032,-1.0,-1.22464679914735E-016));
#376=CARTESIAN_POINT('',(2.90853614797497E-015,5.81707229594993E-015,-47.5000000000001));
#377=DIRECTION('',(6.12323399573677E-017,1.22464679914735E-016,-1.0));
#378=DIRECTION('',(1.23259516440783E-032,-1.0,-1.22464679914735E-016));
#379=CARTESIAN_POINT('',(1.67164288083614E-014,3.34328576167227E-014,-273.0));
#380=DIRECTION('',(6.12323399573677E-017,1.22464679914735E-016,-1.0));
#381=DIRECTION('',(1.23259516440783E-032,-1.0,-1.22464679914735E-016));
ENDSEC;
END-ISO-10303-21;
