  0
SECTION
  2
HEADER
  9
$ACADVER
  1
AC1024
  9
$ACADMAINTVER
 70
     6
  9
$DWGCODEPAGE
  3
ANSI_1252
  9
$INSBASE
 10
0.0
 20
0.0
 30
0.0
  9
$EXTMIN
 10
-59.86923900000005
 20
-49.99999999999996
 30
0.0
  9
$EXTMAX
 10
231.0
 20
82.00000000000004
 30
0.0
  9
$LIMMIN
 10
0.0
 20
0.0
  9
$LIMMAX
 10
297.0
 20
210.0
  9
$ORTHOMODE
 70
     1
  9
$REGENMODE
 70
     1
  9
$FILLMODE
 70
     1
  9
$QTEXTMODE
 70
     0
  9
$MIRRTEXT
 70
     1
  9
$LTSCALE
 40
10.0
  9
$ATTMODE
 70
     1
  9
$TEXTSIZE
 40
3.0
  9
$TRACEWID
 40
1.0
  9
$TEXTSTYLE
  7
YOKO
  9
$CLAYER
  8
240
  9
$CELTYPE
  6
ByLayer
  9
$CECOLOR
 62
   256
  9
$CELTSCALE
 40
1.0
  9
$DISPSILH
 70
     0
  9
$DIMSCALE
 40
1.0
  9
$DIMASZ
 40
2.229999999999999
  9
$DIMEXO
 40
0.5
  9
$DIMDLI
 40
7.0
  9
$DIMRND
 40
0.0
  9
$DIMDLE
 40
0.0
  9
$DIMEXE
 40
1.0
  9
$DIMTP
 40
0.0
  9
$DIMTM
 40
0.01
  9
$DIMTXT
 40
2.799999999999999
  9
$DIMCEN
 40
0.0
  9
$DIMTSZ
 40
0.0
  9
$DIMTOL
 70
     0
  9
$DIMLIM
 70
     0
  9
$DIMTIH
 70
     0
  9
$DIMTOH
 70
     0
  9
$DIMSE1
 70
     0
  9
$DIMSE2
 70
     0
  9
$DIMTAD
 70
     3
  9
$DIMZIN
 70
     9
  9
$DIMBLK
  1
OPEN
  9
$DIMASO
 70
     1
  9
$DIMSHO
 70
     1
  9
$DIMPOST
  1

  9
$DIMAPOST
  1

  9
$DIMALT
 70
     0
  9
$DIMALTD
 70
     2
  9
$DIMALTF
 40
25.4
  9
$DIMLFAC
 40
1.0
  9
$DIMTOFL
 70
     1
  9
$DIMTVP
 40
0.0
  9
$DIMTIX
 70
     1
  9
$DIMSOXD
 70
     0
  9
$DIMSAH
 70
     0
  9
$DIMBLK1
  1

  9
$DIMBLK2
  1

  9
$DIMSTYLE
  2
BIGT
  9
$DIMCLRD
 70
   256
  9
$DIMCLRE
 70
   256
  9
$DIMCLRT
 70
    40
  9
$DIMTFAC
 40
1.0
  9
$DIMGAP
 40
1.0
  9
$DIMJUST
 70
     0
  9
$DIMSD1
 70
     0
  9
$DIMSD2
 70
     0
  9
$DIMTOLJ
 70
     1
  9
$DIMTZIN
 70
     0
  9
$DIMALTZ
 70
     0
  9
$DIMALTTZ
 70
     0
  9
$DIMUPT
 70
     0
  9
$DIMDEC
 70
     6
  9
$DIMTDEC
 70
     6
  9
$DIMALTU
 70
     2
  9
$DIMALTTD
 70
     2
  9
$DIMTXSTY
  7
STANDARD
  9
$DIMAUNIT
 70
     0
  9
$DIMADEC
 70
     0
  9
$DIMALTRND
 40
0.0
  9
$DIMAZIN
 70
     0
  9
$DIMDSEP
 70
    46
  9
$DIMATFIT
 70
     3
  9
$DIMFRAC
 70
     0
  9
$DIMLDRBLK
  1

  9
$DIMLUNIT
 70
     2
  9
$DIMLWD
 70
    -2
  9
$DIMLWE
 70
    -2
  9
$DIMTMOVE
 70
     2
  9
$DIMFXL
 40
1.0
  9
$DIMFXLON
 70
     0
  9
$DIMJOGANG
 40
0.7853981633974483
  9
$DIMTFILL
 70
     0
  9
$DIMTFILLCLR
 70
     0
  9
$DIMARCSYM
 70
     0
  9
$DIMLTYPE
  6

  9
$DIMLTEX1
  6

  9
$DIMLTEX2
  6

  9
$DIMTXTDIRECTION
 70
     0
  9
$LUNITS
 70
     2
  9
$LUPREC
 70
     6
  9
$SKETCHINC
 40
1.0
  9
$FILLETRAD
 40
0.0
  9
$AUNITS
 70
     0
  9
$AUPREC
 70
     6
  9
$MENU
  1
.
  9
$ELEVATION
 40
0.0
  9
$PELEVATION
 40
0.0
  9
$THICKNESS
 40
0.0
  9
$LIMCHECK
 70
     0
  9
$CHAMFERA
 40
0.2
  9
$CHAMFERB
 40
0.2
  9
$CHAMFERC
 40
1.0
  9
$CHAMFERD
 40
0.0
  9
$SKPOLY
 70
     0
  9
$TDCREATE
 40
2457736.429138958
  9
$TDUCREATE
 40
2457736.637472291
  9
$TDUPDATE
 40
2457736.485723669
  9
$TDUUPDATE
 40
2457736.694057002
  9
$TDINDWG
 40
0.0272393403
  9
$TDUSRTIMER
 40
2458323.786244109
  9
$USRTIMER
 70
     1
  9
$ANGBASE
 50
0.0
  9
$ANGDIR
 70
     0
  9
$PDMODE
 70
     1
  9
$PDSIZE
 40
0.0
  9
$PLINEWID
 40
0.0
  9
$SPLFRAME
 70
     0
  9
$SPLINETYPE
 70
     6
  9
$SPLINESEGS
 70
     4
  9
$HANDSEED
  5
E06E
  9
$SURFTAB1
 70
     6
  9
$SURFTAB2
 70
     6
  9
$SURFTYPE
 70
     6
  9
$SURFU
 70
     6
  9
$SURFV
 70
     6
  9
$UCSBASE
  2

  9
$UCSNAME
  2

  9
$UCSORG
 10
0.0
 20
0.0
 30
0.0
  9
$UCSXDIR
 10
1.0
 20
0.0
 30
0.0
  9
$UCSYDIR
 10
0.0
 20
1.0
 30
0.0
  9
$UCSORTHOREF
  2

  9
$UCSORTHOVIEW
 70
     0
  9
$UCSORGTOP
 10
0.0
 20
0.0
 30
0.0
  9
$UCSORGBOTTOM
 10
0.0
 20
0.0
 30
0.0
  9
$UCSORGLEFT
 10
0.0
 20
0.0
 30
0.0
  9
$UCSORGRIGHT
 10
0.0
 20
0.0
 30
0.0
  9
$UCSORGFRONT
 10
0.0
 20
0.0
 30
0.0
  9
$UCSORGBACK
 10
0.0
 20
0.0
 30
0.0
  9
$PUCSBASE
  2

  9
$PUCSNAME
  2

  9
$PUCSORG
 10
0.0
 20
0.0
 30
0.0
  9
$PUCSXDIR
 10
1.0
 20
0.0
 30
0.0
  9
$PUCSYDIR
 10
0.0
 20
1.0
 30
0.0
  9
$PUCSORTHOREF
  2

  9
$PUCSORTHOVIEW
 70
     0
  9
$PUCSORGTOP
 10
0.0
 20
0.0
 30
0.0
  9
$PUCSORGBOTTOM
 10
0.0
 20
0.0
 30
0.0
  9
$PUCSORGLEFT
 10
0.0
 20
0.0
 30
0.0
  9
$PUCSORGRIGHT
 10
0.0
 20
0.0
 30
0.0
  9
$PUCSORGFRONT
 10
0.0
 20
0.0
 30
0.0
  9
$PUCSORGBACK
 10
0.0
 20
0.0
 30
0.0
  9
$USERI1
 70
     1
  9
$USERI2
 70
     0
  9
$USERI3
 70
     0
  9
$USERI4
 70
     0
  9
$USERI5
 70
     0
  9
$USERR1
 40
0.0
  9
$USERR2
 40
0.0
  9
$USERR3
 40
0.0
  9
$USERR4
 40
0.0
  9
$USERR5
 40
0.0
  9
$WORLDVIEW
 70
     1
  9
$SHADEDGE
 70
     3
  9
$SHADEDIF
 70
    70
  9
$TILEMODE
 70
     1
  9
$MAXACTVP
 70
    16
  9
$PINSBASE
 10
0.0
 20
0.0
 30
0.0
  9
$PLIMCHECK
 70
     0
  9
$PEXTMIN
 10
1.000000000000000E+20
 20
1.000000000000000E+20
 30
1.000000000000000E+20
  9
$PEXTMAX
 10
-1.000000000000000E+20
 20
-1.000000000000000E+20
 30
-1.000000000000000E+20
  9
$PLIMMIN
 10
0.0
 20
0.0
  9
$PLIMMAX
 10
420.0
 20
297.0
  9
$UNITMODE
 70
     0
  9
$VISRETAIN
 70
     1
  9
$PLINEGEN
 70
     0
  9
$PSLTSCALE
 70
     1
  9
$TREEDEPTH
 70
  3020
  9
$CMLSTYLE
  2
Standard
  9
$CMLJUST
 70
     0
  9
$CMLSCALE
 40
1.0
  9
$PROXYGRAPHICS
 70
     1
  9
$MEASUREMENT
 70
     0
  9
$CELWEIGHT
370
    -1
  9
$ENDCAPS
280
     0
  9
$JOINSTYLE
280
     0
  9
$LWDISPLAY
290
     0
  9
$INSUNITS
 70
     0
  9
$HYPERLINKBASE
  1

  9
$STYLESHEET
  1

  9
$XEDIT
290
     1
  9
$CEPSNTYPE
380
     0
  9
$PSTYLEMODE
290
     1
  9
$FINGERPRINTGUID
  2
{D039A00C-3DF8-4A4D-9CB4-890BEDB437B5}
  9
$VERSIONGUID
  2
{FAEB1C32-E019-11D5-929B-00C0DF256EC4}
  9
$EXTNAMES
290
     1
  9
$PSVPSCALE
 40
0.0
  9
$OLESTARTUP
290
     0
  9
$SORTENTS
280
   127
  9
$INDEXCTL
280
     0
  9
$HIDETEXT
280
     1
  9
$XCLIPFRAME
280
     2
  9
$HALOGAP
280
     0
  9
$OBSCOLOR
 70
   257
  9
$OBSLTYPE
280
     0
  9
$INTERSECTIONDISPLAY
280
     0
  9
$INTERSECTIONCOLOR
 70
   257
  9
$DIMASSOC
280
     2
  9
$PROJECTNAME
  1

  9
$CAMERADISPLAY
290
     0
  9
$LENSLENGTH
 40
50.0
  9
$CAMERAHEIGHT
 40
0.0
  9
$STEPSPERSEC
 40
2.0
  9
$STEPSIZE
 40
6.0
  9
$3DDWFPREC
 40
2.0
  9
$PSOLWIDTH
 40
0.25
  9
$PSOLHEIGHT
 40
4.0
  9
$LOFTANG1
 40
1.570796326794897
  9
$LOFTANG2
 40
1.570796326794897
  9
$LOFTMAG1
 40
0.0
  9
$LOFTMAG2
 40
0.0
  9
$LOFTPARAM
 70
     7
  9
$LOFTNORMALS
280
     1
  9
$LATITUDE
 40
37.795
  9
$LONGITUDE
 40
-122.394
  9
$NORTHDIRECTION
 40
0.0
  9
$TIMEZONE
 70
 -8000
  9
$LIGHTGLYPHDISPLAY
280
     1
  9
$TILEMODELIGHTSYNCH
280
     1
  9
$SOLIDHIST
280
     1
  9
$SHOWHIST
280
     1
  9
$DWFFRAME
280
     2
  9
$DGNFRAME
280
     2
  9
$REALWORLDSCALE
290
     1
  9
$INTERFERECOLOR
 62
   256
  9
$CSHADOW
280
     0
  9
$SHADOWPLANELOCATION
 40
0.0
  0
ENDSEC
  0
SECTION
  2
CLASSES
  0
CLASS
  1
ACDBDICTIONARYWDFLT
  2
AcDbDictionaryWithDefault
  3
ObjectDBX Classes
 90
        0
 91
       10
280
     0
281
     0
  0
CLASS
  1
SCALE
  2
AcDbScale
  3
ObjectDBX Classes
 90
     1153
 91
       10
280
     0
281
     0
  0
CLASS
  1
TABLESTYLE
  2
AcDbTableStyle
  3
ObjectDBX Classes
 90
     4095
 91
       10
280
     0
281
     0
  0
CLASS
  1
RASTERVARIABLES
  2
AcDbRasterVariables
  3
ISM
 90
        0
 91
       10
280
     0
281
     0
  0
CLASS
  1
DICTIONARYVAR
  2
AcDbDictionaryVar
  3
ObjectDBX Classes
 90
        0
 91
        4
280
     0
281
     0
  0
CLASS
  1
CELLSTYLEMAP
  2
AcDbCellStyleMap
  3
ObjectDBX Classes
 90
     1152
 91
        4
280
     0
281
     0
  0
ENDSEC
  0
SECTION
  2
TABLES
  0
TABLE
  2
VPORT
  5
45BF
330
0
100
AcDbSymbolTable
 70
     1
  0
VPORT
  5
45D6
330
45BF
100
AcDbSymbolTableRecord
100
AcDbViewportTableRecord
  2
*ACTIVE
 70
     0
 10
0.0
 20
0.0
 11
1.0
 21
1.0
 12
95.1934136466304
 22
21.05318677267963
 13
0.0
 23
0.0
 14
7.0
 24
7.0
 15
7.0
 25
7.0
 16
0.0
 26
0.0
 36
1.0
 17
0.0
 27
0.0
 37
0.0
 40
236.3499798480541
 41
1.438386041439476
 42
50.0
 43
0.0
 44
0.0
 50
0.0
 51
0.0
 71
     0
 72
  2000
 73
     1
 74
     0
 75
     0
 76
     1
 77
     0
 78
     0
281
     0
 65
     0
110
0.0
120
0.0
130
0.0
111
1.0
121
0.0
131
0.0
112
0.0
122
1.0
132
0.0
 79
     0
146
0.0
 60
     3
 61
     5
292
     1
282
     1
141
0.0
142
0.0
 63
   256
  0
ENDTAB
  0
TABLE
  2
LTYPE
  5
45BC
330
0
100
AcDbSymbolTable
 70
    11
  0
LTYPE
  5
45CA
330
45BC
100
AcDbSymbolTableRecord
100
AcDbLinetypeTableRecord
  2
ByBlock
 70
     0
  3

 72
    65
 73
     0
 40
0.0
  0
LTYPE
  5
45CB
330
45BC
100
AcDbSymbolTableRecord
100
AcDbLinetypeTableRecord
  2
ByLayer
 70
     0
  3

 72
    65
 73
     0
 40
0.0
  0
LTYPE
  5
45CC
330
45BC
100
AcDbSymbolTableRecord
100
AcDbLinetypeTableRecord
  2
CONTINUOUS
 70
     0
  3
Solid line
 72
    65
 73
     0
 40
0.0
  0
LTYPE
  5
45D8
330
45BC
100
AcDbSymbolTableRecord
100
AcDbLinetypeTableRecord
  2
CENTER2
 70
     0
  3
___ _ ___ _ ___ _ ___ _ ___ _ ___ _ ___ _ ___ _
 72
    65
 73
     4
 40
1.125
 49
0.75
 74
     0
 49
-0.125
 74
     0
 49
0.125
 74
     0
 49
-0.125
 74
     0
  0
LTYPE
  5
45D9
330
45BC
100
AcDbSymbolTableRecord
100
AcDbLinetypeTableRecord
  2
HIDDEN2
 70
     0
  3
_ _ _ _ _ _ _ _ _ _ _ _ _ _ _ _ _ _ _ _ _ _ _ _
 72
    65
 73
     2
 40
0.1875
 49
0.125
 74
     0
 49
-0.0625
 74
     0
  0
LTYPE
  5
45DA
330
45BC
100
AcDbSymbolTableRecord
100
AcDbLinetypeTableRecord
  2
PHANTOM2
 70
     0
  3
___ _ _ ___ _ _ ___ _ _ ___ _ _ ___ _ _ ___ _ _
 72
    65
 73
     6
 40
1.25
 49
0.625
 74
     0
 49
-0.125
 74
     0
 49
0.125
 74
     0
 49
-0.125
 74
     0
 49
0.125
 74
     0
 49
-0.125
 74
     0
  0
LTYPE
  5
45DB
330
45BC
100
AcDbSymbolTableRecord
100
AcDbLinetypeTableRecord
  2
AM_ISO02W050
 70
     0
  3
__ __ __ __ __ __ __ __ __ __ __ __ __ __ __
 72
    65
 73
     2
 40
7.5
 49
6.0
 74
     0
 49
-1.5
 74
     0
  0
LTYPE
  5
45DC
330
45BC
100
AcDbSymbolTableRecord
100
AcDbLinetypeTableRecord
  2
AMCONSTR
 70
     0
  3
_______________________
 72
    65
 73
     2
 40
9999.0
 49
9999.0
 74
     0
 49
0.0
 74
     0
  0
LTYPE
  5
45DD
330
45BC
100
AcDbSymbolTableRecord
100
AcDbLinetypeTableRecord
  2
ACISOWELD
 70
     0
  3
_ _ _ _ _
 72
    65
 73
     2
 40
3.0
 49
2.0
 74
     0
 49
-1.0
 74
     0
  0
LTYPE
  5
45DE
330
45BC
100
AcDbSymbolTableRecord
100
AcDbLinetypeTableRecord
  2
ACISOTGB
 70
     0
  3
__ . . __ . .
 72
    65
 73
     6
 40
9.0
 49
4.0
 74
     0
 49
-1.0
 74
     0
 49
1.0
 74
     0
 49
-1.0
 74
     0
 49
1.0
 74
     0
 49
-1.0
 74
     0
  0
LTYPE
  5
45DF
330
45BC
100
AcDbSymbolTableRecord
100
AcDbLinetypeTableRecord
  2
ACISOTGL
 70
     0
  3
_ _ _ _ _
 72
    65
 73
     2
 40
3.0
 49
2.0
 74
     0
 49
-1.0
 74
     0
  0
LTYPE
  5
45E0
330
45BC
100
AcDbSymbolTableRecord
100
AcDbLinetypeTableRecord
  2
ACJISTGB
 70
     0
  3
__ . . __ . .
 72
    65
 73
     6
 40
9.0
 49
4.0
 74
     0
 49
-1.0
 74
     0
 49
1.0
 74
     0
 49
-1.0
 74
     0
 49
1.0
 74
     0
 49
-1.0
 74
     0
  0
LTYPE
  5
45E1
330
45BC
100
AcDbSymbolTableRecord
100
AcDbLinetypeTableRecord
  2
ACJISTGL
 70
     0
  3
_ _ _ _ _
 72
    65
 73
     2
 40
3.0
 49
2.0
 74
     0
 49
-1.0
 74
     0
  0
ENDTAB
  0
TABLE
  2
LAYER
  5
45B9
330
0
100
AcDbSymbolTable
 70
     9
  0
LAYER
  5
45C7
330
45B9
100
AcDbSymbolTableRecord
100
AcDbLayerTableRecord
  2
0
 70
     0
 62
     7
  6
CONTINUOUS
370
    -3
390
45C6
347
0
  0
LAYER
  5
45E3
330
45B9
100
AcDbSymbolTableRecord
100
AcDbLayerTableRecord
  2
DEFPOINTS
 70
     0
 62
     7
  6
CONTINUOUS
290
     0
370
    -3
390
45C6
347
0
  0
LAYER
  5
45E4
330
45B9
100
AcDbSymbolTableRecord
100
AcDbLayerTableRecord
  2
245
 70
     0
 62
     2
  6
CENTER2
370
    -3
390
45C6
347
0
  0
LAYER
  5
45E5
330
45B9
100
AcDbSymbolTableRecord
100
AcDbLayerTableRecord
  2
240
 70
     0
 62
     4
  6
CONTINUOUS
370
    -3
390
45C6
347
0
  0
LAYER
  5
45E6
330
45B9
100
AcDbSymbolTableRecord
100
AcDbLayerTableRecord
  2
241
 70
     0
 62
   211
  6
CONTINUOUS
370
    -3
390
45C6
347
0
  0
LAYER
  5
45E7
330
45B9
100
AcDbSymbolTableRecord
100
AcDbLayerTableRecord
  2
242
 70
     0
 62
     3
  6
CONTINUOUS
370
    -3
390
45C6
347
0
  0
LAYER
  5
45E8
330
45B9
100
AcDbSymbolTableRecord
100
AcDbLayerTableRecord
  2
243
 70
     0
 62
   211
  6
HIDDEN2
370
    -3
390
45C6
347
0
  0
LAYER
  5
45E9
330
45B9
100
AcDbSymbolTableRecord
100
AcDbLayerTableRecord
  2
247
 70
     0
 62
    60
  6
CONTINUOUS
370
    -3
390
45C6
347
0
  0
LAYER
  5
45EA
330
45B9
100
AcDbSymbolTableRecord
100
AcDbLayerTableRecord
  2
250
 70
     0
 62
     3
  6
CONTINUOUS
370
    -3
390
45C6
347
0
  0
ENDTAB
  0
TABLE
  2
STYLE
  5
45BA
330
0
100
AcDbSymbolTable
 70
     6
  0
STYLE
  5
45C8
330
45BA
100
AcDbSymbolTableRecord
100
AcDbTextStyleTableRecord
  2
STANDARD
 70
     0
 40
0.0
 41
1.0
 50
0.0
 71
     0
 42
3.0
  3
romans.shx
  4
extfont.shx
  0
STYLE
  5
45EC
330
45BA
100
AcDbSymbolTableRecord
100
AcDbTextStyleTableRecord
  2
ACISOTS
 70
     0
 40
1.0
 41
1.0
 50
0.0
 71
     0
 42
3.0
  3
amgdt.shx
  4
extfont.shx
  0
STYLE
  5
45ED
330
45BA
100
AcDbSymbolTableRecord
100
AcDbTextStyleTableRecord
  2
ACISOGDT
 70
     0
 40
0.0
 41
1.0
 50
0.0
 71
     0
 42
3.0
  3
amgdt.shx
  4
extfont.shx
  0
STYLE
  5
45EE
330
45BA
100
AcDbSymbolTableRecord
100
AcDbTextStyleTableRecord
  2
ACJISTS
 70
     0
 40
1.0
 41
1.0
 50
0.0
 71
     0
 42
3.0
  3
amgdt.shx
  4
extfont.shx
  0
STYLE
  5
45EF
330
45BA
100
AcDbSymbolTableRecord
100
AcDbTextStyleTableRecord
  2
ACJISGDT
 70
     0
 40
0.0
 41
1.0
 50
0.0
 71
     0
 42
3.0
  3
amgdt.shx
  4
extfont.shx
  0
STYLE
  5
45F0
330
45BA
100
AcDbSymbolTableRecord
100
AcDbTextStyleTableRecord
  2
YOKO
 70
     0
 40
0.0
 41
1.0
 50
0.0
 71
     0
 42
3.0
  3
romans.shx
  4
extfont.shx
  0
ENDTAB
  0
TABLE
  2
VIEW
  5
45BD
330
0
100
AcDbSymbolTable
 70
     0
  0
ENDTAB
  0
TABLE
  2
UCS
  5
45BE
330
0
100
AcDbSymbolTable
 70
     0
  0
ENDTAB
  0
TABLE
  2
APPID
  5
45C0
330
0
100
AcDbSymbolTable
 70
    35
  0
APPID
  5
45C9
330
45C0
100
AcDbSymbolTableRecord
100
AcDbRegAppTableRecord
  2
ACAD
 70
     0
  0
APPID
  5
45F2
330
45C0
100
AcDbSymbolTableRecord
100
AcDbRegAppTableRecord
  2
GLOBAL
 70
     0
  0
APPID
  5
45F3
330
45C0
100
AcDbSymbolTableRecord
100
AcDbRegAppTableRecord
  2
DETAIL
 70
     0
  0
APPID
  5
45F4
330
45C0
100
AcDbSymbolTableRecord
100
AcDbRegAppTableRecord
  2
GRPNAME
 70
     0
  0
APPID
  5
45F5
330
45C0
100
AcDbSymbolTableRecord
100
AcDbRegAppTableRecord
  2
GPARA
 70
     0
  0
APPID
  5
45F6
330
45C0
100
AcDbSymbolTableRecord
100
AcDbRegAppTableRecord
  2
MCAD_NO_VIS
 70
     0
  0
APPID
  5
45F7
330
45C0
100
AcDbSymbolTableRecord
100
AcDbRegAppTableRecord
  2
ACAD_TEMP_GRAPHIC
 70
     0
  0
APPID
  5
45F8
330
45C0
100
AcDbSymbolTableRecord
100
AcDbRegAppTableRecord
  2
ACATTRIBSERVICES
 70
     0
  0
APPID
  5
45F9
330
45C0
100
AcDbSymbolTableRecord
100
AcDbRegAppTableRecord
  2
GENIUS_GENSCREG_15
 70
     0
  0
APPID
  5
45FA
330
45C0
100
AcDbSymbolTableRecord
100
AcDbRegAppTableRecord
  2
GENIUS_GENODEF_13
 70
     0
  0
APPID
  5
45FB
330
45C0
100
AcDbSymbolTableRecord
100
AcDbRegAppTableRecord
  2
GENIUS_GENOBJ-N-SDF_13
 70
     0
  0
APPID
  5
45FC
330
45C0
100
AcDbSymbolTableRecord
100
AcDbRegAppTableRecord
  2
GENIUS_GENREC_14
 70
     0
  0
APPID
  5
45FD
330
45C0
100
AcDbSymbolTableRecord
100
AcDbRegAppTableRecord
  2
GENIUS_GENOBJ-N-REC_13
 70
     0
  0
APPID
  5
45FE
330
45C0
100
AcDbSymbolTableRecord
100
AcDbRegAppTableRecord
  2
GENIUS_GENDIMSH_14
 70
     0
  0
APPID
  5
45FF
330
45C0
100
AcDbSymbolTableRecord
100
AcDbRegAppTableRecord
  2
GENIUS_GENOBJ-N-DIM_13
 70
     0
  0
APPID
  5
4600
330
45C0
100
AcDbSymbolTableRecord
100
AcDbRegAppTableRecord
  2
GENIUS_GENDIM_13
 70
     0
  0
APPID
  5
4601
330
45C0
100
AcDbSymbolTableRecord
100
AcDbRegAppTableRecord
  2
GENIUS_GENDTOL_13
 70
     0
  0
APPID
  5
4602
330
45C0
100
AcDbSymbolTableRecord
100
AcDbRegAppTableRecord
  2
GENIUS_GENOLIS_13
 70
     0
  0
APPID
  5
4603
330
45C0
100
AcDbSymbolTableRecord
100
AcDbRegAppTableRecord
  2
GENIUS_GENOENT_13
 70
     0
  0
APPID
  5
4604
330
45C0
100
AcDbSymbolTableRecord
100
AcDbRegAppTableRecord
  2
GENIUS_GENOBJ-F-FEM_13
 70
     0
  0
APPID
  5
4605
330
45C0
100
AcDbSymbolTableRecord
100
AcDbRegAppTableRecord
  2
GENIUS_GENOREF_13
 70
     0
  0
APPID
  5
4606
330
45C0
100
AcDbSymbolTableRecord
100
AcDbRegAppTableRecord
  2
GENIUS_GEFFEM_13
 70
     0
  0
APPID
  5
4607
330
45C0
100
AcDbSymbolTableRecord
100
AcDbRegAppTableRecord
  2
GENIUS_GEFFEMP_13
 70
     0
  0
APPID
  5
4608
330
45C0
100
AcDbSymbolTableRecord
100
AcDbRegAppTableRecord
  2
AD_DRAW
 70
     0
  0
APPID
  5
4609
330
45C0
100
AcDbSymbolTableRecord
100
AcDbRegAppTableRecord
  2
DESIGNERASSEMBLIES
 70
     0
  0
APPID
  5
460A
330
45C0
100
AcDbSymbolTableRecord
100
AcDbRegAppTableRecord
  2
ACADM_DIM_EDIT
 70
     0
  0
APPID
  5
460B
330
45C0
100
AcDbSymbolTableRecord
100
AcDbRegAppTableRecord
  2
AMDT_DM_ADJ
 70
     0
  0
APPID
  5
460C
330
45C0
100
AcDbSymbolTableRecord
100
AcDbRegAppTableRecord
  2
ITEMNAME
 70
     0
  0
APPID
  5
460D
330
45C0
100
AcDbSymbolTableRecord
100
AcDbRegAppTableRecord
  2
GENIUS_GENOBJ-N-FIL_13
 70
     0
  0
APPID
  5
460E
330
45C0
100
AcDbSymbolTableRecord
100
AcDbRegAppTableRecord
  2
GENIUS_GENFIL_13
 70
     0
  0
APPID
  5
460F
330
45C0
100
AcDbSymbolTableRecord
100
AcDbRegAppTableRecord
  2
GENIUS_GENOBJ-N-CHA_13
 70
     0
  0
APPID
  5
4610
330
45C0
100
AcDbSymbolTableRecord
100
AcDbRegAppTableRecord
  2
ACAD_NAV_VCDISPLAY
 70
     0
  0
APPID
  5
4611
330
45C0
100
AcDbSymbolTableRecord
100
AcDbRegAppTableRecord
  2
ACAD_PSEXT
 70
     0
  0
APPID
  5
4612
330
45C0
100
AcDbSymbolTableRecord
100
AcDbRegAppTableRecord
  2
ACAECLAYERSTANDARD
 70
     0
  0
APPID
  5
4613
330
45C0
100
AcDbSymbolTableRecord
100
AcDbRegAppTableRecord
  2
ACAD_MLEADERVER
 70
     0
  0
ENDTAB
  0
TABLE
  2
DIMSTYLE
  5
45C1
330
0
100
AcDbSymbolTable
 70
    23
100
AcDbDimStyleTable
  0
DIMSTYLE
105
E0
330
45C1
100
AcDbSymbolTableRecord
100
AcDbDimStyleTableRecord
  2
BIGT
 70
     0
 41
2.229999999999999
 42
0.5
 43
7.0
 44
1.0
 48
0.01
 73
     0
 74
     0
 77
     3
 78
     9
140
2.799999999999999
141
0.0
147
1.0
172
     1
174
     1
176
   256
177
   256
178
    40
340
45F0
341
E03A
342
E03A
  0
DIMSTYLE
105
4614
330
45C1
100
AcDbSymbolTableRecord
100
AcDbDimStyleTableRecord
  2
AM_ISO
 70
     0
  4
"
 41
2.5
 42
1.0
 43
10.0
 44
1.0
 47
0.1
 48
0.1
 73
     0
 74
     0
 77
     1
 78
     8
140
3.5
141
0.0
143
0.0393701
146
0.71
147
1.5
172
     1
176
   256
177
   256
178
     2
340
45F0
  0
DIMSTYLE
105
4615
330
45C1
100
AcDbSymbolTableRecord
100
AcDbDimStyleTableRecord
  2
AM_ISO$3
 70
     0
  4
"
 41
2.5
 42
1.0
 43
10.0
 44
1.0
 47
0.1
 48
0.1
 73
     0
 77
     1
 78
     8
140
3.5
141
0.0
143
0.0393701
146
0.71
147
1.5
176
   256
177
   256
178
     2
340
45F0
  0
DIMSTYLE
105
4616
330
45C1
100
AcDbSymbolTableRecord
100
AcDbDimStyleTableRecord
  2
AM_ISO$4
 70
     0
  4
"
 41
2.5
 42
1.0
 43
10.0
 44
1.0
 47
0.1
 48
0.1
 73
     0
 77
     1
 78
     8
140
3.5
141
0.0
143
0.0393701
146
0.71
147
1.5
176
   256
177
   256
178
     2
340
45F0
  0
DIMSTYLE
105
4617
330
45C1
100
AcDbSymbolTableRecord
100
AcDbDimStyleTableRecord
  2
AM_ISO$6
 70
     0
  4
"
 41
2.5
 42
1.0
 43
10.0
 44
1.0
 47
0.1
 48
0.1
 73
     0
 74
     0
 78
     8
140
3.5
141
0.0
143
0.0393701
146
0.71
147
1.5
172
     1
176
   256
177
   256
178
     2
340
45F0
  0
DIMSTYLE
105
4618
330
45C1
100
AcDbSymbolTableRecord
100
AcDbDimStyleTableRecord
  2
AM_ISO$7
 70
     0
  4
"
 41
2.5
 42
1.0
 43
10.0
 44
1.0
 47
0.1
 48
0.1
 73
     0
 74
     0
 77
     1
 78
     8
140
5.0
141
0.0
143
0.0393701
146
0.71
147
1.5
172
     1
176
   256
177
   256
178
     2
340
45F0
  0
DIMSTYLE
105
4619
330
45C1
100
AcDbSymbolTableRecord
100
AcDbDimStyleTableRecord
  2
AM_ISO$SF
 70
     0
  4
"
 41
2.5
 42
1.0
 43
10.0
 44
1.0
 47
0.1
 48
0.1
 73
     0
 74
     0
 75
     1
 76
     1
 77
     1
 78
     8
140
3.5
141
0.0
143
0.0393701
146
0.71
147
1.5
172
     1
176
   256
177
   256
178
     2
340
45F0
  0
DIMSTYLE
105
461A
330
45C1
100
AcDbSymbolTableRecord
100
AcDbDimStyleTableRecord
  2
AM_ISO$SH
 70
     0
  4
"
 41
2.5
 42
1.0
 43
10.0
 44
1.0
 47
0.1
 48
0.1
 73
     0
 74
     0
 75
     1
 76
     1
 77
     1
 78
     8
140
3.5
141
0.0
143
0.0393701
144
2.0
146
0.71
147
1.5
172
     1
173
     1
176
   256
177
   256
178
     2
340
45F0
341
E03C
343
E03C
  0
DIMSTYLE
105
461B
330
45C1
100
AcDbSymbolTableRecord
100
AcDbDimStyleTableRecord
  2
BIGT$2
 70
     0
 41
2.229999999999999
 42
0.5
 43
7.0
 44
1.0
 48
0.01
 73
     0
 74
     0
 77
     3
 78
     9
140
2.799999999999999
141
0.0
147
1.0
172
     1
176
   256
177
   256
178
    40
340
45F0
341
E03A
342
E03A
  0
DIMSTYLE
105
461C
330
45C1
100
AcDbSymbolTableRecord
100
AcDbDimStyleTableRecord
  2
BIGT$3
 70
     0
 41
2.229999999999999
 42
0.5
 43
2.5
 44
1.0
 48
0.01
 73
     0
 74
     0
 77
     3
 78
     9
140
2.799999999999999
141
0.0
147
1.0
172
     1
176
   256
177
   256
178
    40
340
45F0
341
E03A
342
E03A
  0
DIMSTYLE
105
461D
330
45C1
100
AcDbSymbolTableRecord
100
AcDbDimStyleTableRecord
  2
BIGT$7
 70
     0
 40
0.0
 41
2.229999999999999
 42
0.5
 43
7.0
 44
1.0
 48
0.01
 73
     0
 74
     0
 77
     3
 78
     9
140
2.799999999999999
141
0.0
147
1.0
176
   256
177
   256
178
    40
340
45F0
341
E03A
342
E03A
  0
DIMSTYLE
105
461E
330
45C1
100
AcDbSymbolTableRecord
100
AcDbDimStyleTableRecord
  2
BIGT$6
 70
     0
 41
2.229999999999999
 42
0.5
 43
2.5
 44
1.0
 48
0.01
 73
     0
 74
     0
 77
     3
 78
     9
140
2.799999999999999
141
0.0
147
1.0
172
     1
176
   256
177
   256
178
    40
340
45F0
341
E03A
342
E03A
  0
DIMSTYLE
105
461F
330
45C1
100
AcDbSymbolTableRecord
100
AcDbDimStyleTableRecord
  2
BIGT$0
 70
     0
 41
2.229999999999999
 42
0.5
 43
7.0
 44
1.0
 48
0.01
 73
     0
 74
     0
 77
     3
 78
     9
140
2.799999999999999
141
0.0
147
1.0
172
     1
174
     1
176
   256
177
   256
178
    40
340
45F0
341
E03A
342
E03A
  0
DIMSTYLE
105
4620
330
45C1
100
AcDbSymbolTableRecord
100
AcDbDimStyleTableRecord
  2
BIGT$4
 70
     0
 41
2.229999999999999
 42
0.5
 43
2.5
 44
1.0
 48
0.01
 73
     0
 74
     0
 77
     3
 78
     9
140
2.799999999999999
141
0.0
147
1.0
172
     1
176
   256
177
   256
178
    40
340
45F0
341
E03A
342
E03A
  0
DIMSTYLE
105
4621
330
45C1
100
AcDbSymbolTableRecord
100
AcDbDimStyleTableRecord
  2
BIGT$SH
 70
     0
 41
2.229999999999999
 42
0.5
 43
7.0
 44
1.0
 73
     0
 74
     0
 77
     3
 78
     9
140
2.799999999999999
141
0.0
147
1.0
172
     1
176
   256
177
   256
178
    40
340
45F0
341
E03A
342
E03A
  0
DIMSTYLE
105
4622
330
45C1
100
AcDbSymbolTableRecord
100
AcDbDimStyleTableRecord
  2
BIGT$SF
 70
     0
 41
2.229999999999999
 42
0.5
 43
7.0
 44
1.0
 73
     0
 74
     0
 77
     3
 78
     9
140
2.799999999999999
141
0.0
147
1.0
172
     1
176
   256
177
   256
178
    40
340
45F0
341
E03A
342
E03A
  0
DIMSTYLE
105
E030
330
45C1
100
AcDbSymbolTableRecord
100
AcDbDimStyleTableRecord
  2
TECHNICAL_OSAKA
 70
     0
  4
"
 41
2.5
 42
1.0
 43
10.0
 44
1.0
 47
0.1
 48
0.1
 73
     0
 74
     0
 77
     3
 78
     8
140
2.799999999999999
141
0.0
143
0.0393701
146
0.71
147
1.5
172
     1
176
   256
177
   256
178
    40
340
45F0
341
E03E
342
E03E
  0
DIMSTYLE
105
E031
330
45C1
100
AcDbSymbolTableRecord
100
AcDbDimStyleTableRecord
  2
TECHNICAL_OSAKA$3
 70
     0
  4
"
 41
2.5
 42
1.0
 43
10.0
 44
1.0
 47
0.1
 48
0.1
 73
     0
 77
     3
 78
     8
140
2.799999999999999
141
0.0
143
0.0393701
146
0.71
147
1.5
176
   256
177
   256
178
    40
340
45F0
341
E03E
342
E03E
  0
DIMSTYLE
105
E032
330
45C1
100
AcDbSymbolTableRecord
100
AcDbDimStyleTableRecord
  2
TECHNICAL_OSAKA$4
 70
     0
  4
"
 41
2.5
 42
1.0
 43
10.0
 44
1.0
 47
0.1
 48
0.1
 73
     0
 77
     3
 78
     8
140
2.799999999999999
141
0.0
143
0.0393701
146
0.71
147
1.5
176
   256
177
   256
178
    40
340
45F0
341
E03E
342
E03E
  0
DIMSTYLE
105
E033
330
45C1
100
AcDbSymbolTableRecord
100
AcDbDimStyleTableRecord
  2
TECHNICAL_OSAKA$6
 70
     0
  4
"
 41
2.5
 42
1.0
 43
10.0
 44
1.0
 47
0.1
 48
0.1
 73
     0
 74
     0
 78
     8
140
2.799999999999999
141
0.0
143
0.0393701
146
0.71
147
1.5
172
     1
176
   256
177
   256
178
    40
340
45F0
341
E03E
342
E03E
  0
DIMSTYLE
105
E034
330
45C1
100
AcDbSymbolTableRecord
100
AcDbDimStyleTableRecord
  2
TECHNICAL_OSAKA$7
 70
     0
  4
"
 41
2.5
 42
1.0
 43
10.0
 44
1.0
 47
0.1
 48
0.1
 73
     0
 74
     0
 77
     3
 78
     8
140
2.799999999999999
141
0.0
143
0.0393701
146
0.71
147
1.5
172
     1
176
   256
177
   256
178
    40
340
45F0
341
E03E
342
E03E
  0
DIMSTYLE
105
E035
330
45C1
100
AcDbSymbolTableRecord
100
AcDbDimStyleTableRecord
  2
TECHNICAL_OSAKA$SF
 70
     0
  4
"
 41
2.5
 42
1.0
 43
10.0
 44
1.0
 47
0.1
 48
0.1
 73
     0
 74
     0
 75
     1
 76
     1
 77
     3
 78
     8
140
3.5
141
0.0
143
0.0393701
146
0.71
147
1.5
172
     1
176
   256
177
   256
178
    40
340
45F0
341
E03E
342
E03E
343
E03E
344
E03E
  0
DIMSTYLE
105
E036
330
45C1
100
AcDbSymbolTableRecord
100
AcDbDimStyleTableRecord
  2
TECHNICAL_OSAKA$SH
 70
     0
  4
"
 41
2.5
 42
1.0
 43
10.0
 44
1.0
 47
0.1
 48
0.1
 73
     0
 74
     0
 75
     1
 76
     1
 77
     3
 78
     8
140
3.5
141
0.0
143
0.0393701
144
2.0
146
0.71
147
1.5
172
     1
173
     1
176
   256
177
   256
178
    40
340
45F0
341
E03E
342
E03E
343
E03C
344
E03E
  0
ENDTAB
  0
TABLE
  2
BLOCK_RECORD
  5
45B8
330
0
100
AcDbSymbolTable
 70
     4
  0
BLOCK_RECORD
  5
45D3
330
45B8
100
AcDbSymbolTableRecord
100
AcDbBlockTableRecord
  2
*Model_Space
340
45D4
 70
     0
280
     1
281
     0
  0
BLOCK_RECORD
  5
45D1
330
45B8
100
AcDbSymbolTableRecord
100
AcDbBlockTableRecord
  2
*Paper_Space
340
45D2
 70
     0
280
     1
281
     0
  0
BLOCK_RECORD
  5
E03A
330
45B8
100
AcDbSymbolTableRecord
100
AcDbBlockTableRecord
  2
_OPEN
340
0
 70
     0
280
     1
281
     0
  0
BLOCK_RECORD
  5
E03C
330
45B8
100
AcDbSymbolTableRecord
100
AcDbBlockTableRecord
  2
GENAXEH
340
0
 70
     0
280
     1
281
     0
  0
BLOCK_RECORD
  5
E03E
330
45B8
100
AcDbSymbolTableRecord
100
AcDbBlockTableRecord
  2
_OPEN30
340
0
 70
     0
280
     1
281
     0
  0
BLOCK_RECORD
  5
E040
330
45B8
100
AcDbSymbolTableRecord
100
AcDbBlockTableRecord
  2
*U3
340
0
102
{BLKREFS
331
43B8
102
}
 70
     0
280
     1
281
     0
  0
ENDTAB
  0
ENDSEC
  0
SECTION
  2
BLOCKS
  0
BLOCK
  5
E037
330
45D3
100
AcDbEntity
  8
0
100
AcDbBlockBegin
  2
*Model_Space
 70
     0
 10
0.0
 20
0.0
 30
0.0
  3
*Model_Space
  1

  0
ENDBLK
  5
1C
330
45D3
100
AcDbEntity
  8
0
100
AcDbBlockEnd
  0
BLOCK
  5
E038
330
45D1
100
AcDbEntity
 67
     1
  8
0
100
AcDbBlockBegin
  2
*Paper_Space
 70
     0
 10
0.0
 20
0.0
 30
0.0
  3
*Paper_Space
  1

  0
ENDBLK
  5
19
330
45D1
100
AcDbEntity
 67
     1
  8
0
100
AcDbBlockEnd
  0
BLOCK
  5
E039
330
E03A
100
AcDbEntity
  8
0
100
AcDbBlockBegin
  2
_OPEN
 70
     0
 10
0.0
 20
0.0
 30
0.0
  3
_OPEN
  1

  0
LINE
  5
44B4
330
E03A
100
AcDbEntity
  8
0
  6
ByBlock
 62
     0
100
AcDbLine
 10
-1.0
 20
0.1666666666666666
 30
0.0
 11
0.0
 21
0.0
 31
0.0
  0
LINE
  5
44B5
330
E03A
100
AcDbEntity
  8
0
  6
ByBlock
 62
     0
100
AcDbLine
 10
-1.0
 20
-0.1666666666666666
 30
0.0
 11
0.0
 21
0.0
 31
0.0
  0
LINE
  5
44B6
330
E03A
100
AcDbEntity
  8
0
  6
ByBlock
 62
     0
100
AcDbLine
 10
0.0
 20
0.0
 30
0.0
 11
-1.0
 21
0.0
 31
0.0
  0
ENDBLK
  5
44B7
330
E03A
100
AcDbEntity
  8
0
100
AcDbBlockEnd
  0
BLOCK
  5
E03B
330
E03C
100
AcDbEntity
  8
0
100
AcDbBlockBegin
  2
GENAXEH
 70
     0
 10
0.0
 20
0.0
 30
0.0
  3
GENAXEH
  1

  0
LINE
  5
44EF
330
E03C
100
AcDbEntity
  8
0
100
AcDbLine
 10
-1.0
 20
0.0
 30
0.0
 11
1.0
 21
0.0
 31
0.0
  0
ENDBLK
  5
44F0
330
E03C
100
AcDbEntity
  8
0
100
AcDbBlockEnd
  0
BLOCK
  5
E03D
330
E03E
100
AcDbEntity
  8
0
100
AcDbBlockBegin
  2
_OPEN30
 70
     0
 10
0.0
 20
0.0
 30
0.0
  3
_OPEN30
  1

  0
LINE
  5
452B
330
E03E
100
AcDbEntity
  8
0
  6
ByBlock
 62
     0
100
AcDbLine
 10
-1.0
 20
0.26794919
 30
0.0
 11
0.0
 21
0.0
 31
0.0
  0
LINE
  5
452C
330
E03E
100
AcDbEntity
  8
0
  6
ByBlock
 62
     0
100
AcDbLine
 10
0.0
 20
0.0
 30
0.0
 11
-1.0
 21
-0.26794919
 31
0.0
  0
LINE
  5
452D
330
E03E
100
AcDbEntity
  8
0
  6
ByBlock
 62
     0
100
AcDbLine
 10
0.0
 20
0.0
 30
0.0
 11
-1.0
 21
0.0
 31
0.0
  0
ENDBLK
  5
452E
330
E03E
100
AcDbEntity
  8
0
100
AcDbBlockEnd
  0
BLOCK
  5
E03F
330
E040
100
AcDbEntity
  8
0
100
AcDbBlockBegin
  2
*U3
 70
     1
 10
0.0
 20
0.0
 30
0.0
  3
*U3
  1

  0
TEXT
  5
45B5
330
E040
100
AcDbEntity
  8
250
100
AcDbText
 10
218.0742713533019
 20
64.9592400499843
 30
0.0
 40
2.799999999999998
  1
CK7
  7
YOKO
100
AcDbText
  0
ENDBLK
  5
45B7
330
E040
100
AcDbEntity
  8
0
100
AcDbBlockEnd
  0
ENDSEC
  0
SECTION
  2
ENTITIES
  0
LINE
  5
424C
330
45D3
100
AcDbEntity
  8
245
  6
CENTER2
100
AcDbLine
 10
-51.78893325440162
 20
-0.0000000000000711
 30
0.0
 11
217.0
 21
0.0000000000000426
 31
0.0
1001
GRPNAME
1000
PASTMD3W
  0
ARC
  5
424D
330
45D3
100
AcDbEntity
  8
243
  6
HIDDEN2
100
AcDbCircle
 10
-9.496692542896199
 20
-19.49999999999995
 30
0.0
 40
11.99999999805476
100
AcDbArc
 50
270.0000000578424
 51
321.9268767276413
1001
GRPNAME
1000
PASTMD0M
  0
LINE
  5
424E
330
45D3
100
AcDbEntity
  8
243
  6
HIDDEN2
100
AcDbLine
 10
-9.496692542896199
 20
-31.49999999999996
 30
0.0
 11
-27.11662432702553
 21
-31.49999999999996
 31
0.0
1001
GRPNAME
1000
PASTMD0M
  0
LINE
  5
424F
330
45D3
100
AcDbEntity
  8
243
  6
HIDDEN2
100
AcDbLine
 10
-30.00337567297447
 20
-26.49999999999996
 30
0.0
 11
-50.0
 21
-26.49999999999996
 31
0.0
1001
GRPNAME
1000
PASTMD0M
  0
LINE
  5
4250
330
45D3
100
AcDbEntity
  8
243
  6
HIDDEN2
100
AcDbLine
 10
-30.00337567297447
 20
-26.49999999999996
 30
0.0
 11
-27.11662432702553
 21
-31.49999999999996
 31
0.0
1001
GRPNAME
1000
PASTMD0M
  0
LINE
  5
4251
330
45D3
100
AcDbEntity
  8
243
  6
HIDDEN2
100
AcDbLine
 10
-35.0
 20
-36.24999999999996
 30
0.0
 11
-35.0
 21
-26.49999999999996
 31
0.0
1001
GRPNAME
1000
PASTMD0M
  0
LINE
  5
4252
330
45D3
100
AcDbEntity
  8
243
  6
HIDDEN2
100
AcDbLine
 10
4.999999999999088
 20
-49.99999999999996
 30
0.0
 11
4.999999999999088
 21
-43.99999999999995
 31
0.0
1001
GRPNAME
1000
PASTMD0M
  0
LINE
  5
4253
330
45D3
100
AcDbEntity
  8
243
  6
HIDDEN2
100
AcDbLine
 10
28.99999999999909
 20
-43.99999999999995
 30
0.0
 11
4.999999999999088
 21
-43.99999999999995
 31
0.0
1001
GRPNAME
1000
PASTMD0M
  0
ARC
  5
4254
330
45D3
100
AcDbEntity
  8
243
  6
HIDDEN2
100
AcDbCircle
 10
-9.496692542896199
 20
19.50000000000004
 30
0.0
 40
11.99999999805478
100
AcDbArc
 50
38.07312333021438
 51
90.0
1001
GRPNAME
1000
PASTMD0M
  0
LINE
  5
4255
330
45D3
100
AcDbEntity
  8
243
  6
HIDDEN2
100
AcDbLine
 10
-9.496692542896199
 20
31.49999999805555
 30
0.0
 11
-27.11662432698751
 21
31.50000000006592
 31
0.0
1001
GRPNAME
1000
PASTMD0M
  0
LINE
  5
4256
330
45D3
100
AcDbEntity
  8
243
  6
HIDDEN2
100
AcDbLine
 10
-40.0
 20
26.50000000000004
 30
0.0
 11
-40.0
 21
36.00000000000005
 31
0.0
1001
GRPNAME
1000
PASTMD0M
  0
LINE
  5
4257
330
45D3
100
AcDbEntity
  8
243
  6
HIDDEN2
100
AcDbLine
 10
-30.00337567297447
 20
26.50000000000004
 30
0.0
 11
-27.11662432698751
 21
31.50000000006592
 31
0.0
1001
GRPNAME
1000
PASTMD0M
  0
LINE
  5
4258
330
45D3
100
AcDbEntity
  8
243
  6
HIDDEN2
100
AcDbLine
 10
-30.00337567297447
 20
26.50000000000004
 30
0.0
 11
-50.0
 21
26.50000000000004
 31
0.0
1001
GRPNAME
1000
PASTMD0M
  0
LINE
  5
4259
330
45D3
100
AcDbEntity
  8
241
  6
Continuous
100
AcDbLine
 10
23.24759526419075
 20
-49.99999999999996
 30
0.0
 11
23.24759526419075
 21
31.50000000000004
 31
0.0
1001
GRPNAME
1000
PASTMD0M
  0
LINE
  5
425A
330
45D3
100
AcDbEntity
  8
241
  6
Continuous
100
AcDbLine
 10
16.75240473580834
 20
-49.99999999999996
 30
0.0
 11
16.75240473580766
 21
31.50000000000004
 31
0.0
1001
GRPNAME
1000
PASTMD0M
  0
LINE
  5
425B
330
45D3
100
AcDbEntity
  8
243
  6
HIDDEN2
100
AcDbLine
 10
4.999999999999088
 20
44.00000000000002
 30
0.0
 11
4.999999999999088
 21
50.00000000000002
 31
0.0
1001
GRPNAME
1000
PASTMD0M
  0
LINE
  5
425C
330
45D3
100
AcDbEntity
  8
243
  6
HIDDEN2
100
AcDbLine
 10
28.99999999999909
 20
44.00000000000002
 30
0.0
 11
4.999999999999088
 21
44.00000000000002
 31
0.0
1001
GRPNAME
1000
PASTMD0M
  0
LINE
  5
425D
330
45D3
100
AcDbEntity
  8
240
  6
Continuous
100
AcDbLine
 10
16.75240473580834
 20
-49.99999999999996
 30
0.0
 11
0.0
 21
-49.99999999999996
 31
0.0
1001
GRPNAME
1000
PASTMD0M
  0
LINE
  5
425E
330
45D3
100
AcDbEntity
  8
240
  6
Continuous
100
AcDbLine
 10
28.99999999999909
 20
-49.99999999999996
 30
0.0
 11
23.24759526419075
 21
-49.99999999999996
 31
0.0
1001
GRPNAME
1000
PASTMD0M
  0
LINE
  5
425F
330
45D3
100
AcDbEntity
  8
240
  6
Continuous
100
AcDbLine
 10
18.125
 20
-47.6225952641916
 30
0.0
 11
16.75240473580834
 21
-49.99999999999996
 31
0.0
1001
GRPNAME
1000
PASTMD0M
  0
LINE
  5
4260
330
45D3
100
AcDbEntity
  8
240
  6
Continuous
100
AcDbLine
 10
21.87499999999908
 20
-47.6225952641916
 30
0.0
 11
23.24759526419075
 21
-49.99999999999996
 31
0.0
1001
GRPNAME
1000
PASTMD0M
  0
LINE
  5
4261
330
45D3
100
AcDbEntity
  8
241
  6
Continuous
100
AcDbLine
 10
21.87499999999915
 20
31.50000000000004
 30
0.0
 11
21.87499999999898
 21
-45.99999999999996
 31
0.0
1001
GRPNAME
1000
PASTMD0M
  0
LINE
  5
4262
330
45D3
100
AcDbEntity
  8
240
  6
Continuous
100
AcDbLine
 10
21.8749999999988
 20
-45.99999999999996
 30
0.0
 11
21.87499999999908
 21
-47.6225952641916
 31
0.0
1001
GRPNAME
1000
PASTMD0M
  0
LINE
  5
4263
330
45D3
100
AcDbEntity
  8
240
  6
Continuous
100
AcDbLine
 10
21.8749999999988
 20
-45.99999999999996
 30
0.0
 11
18.1249999999997
 21
-45.99999999999996
 31
0.0
1001
GRPNAME
1000
PASTMD0M
  0
LINE
  5
4264
330
45D3
100
AcDbEntity
  8
241
  6
Continuous
100
AcDbLine
 10
18.12500000000006
 20
31.50000000000004
 30
0.0
 11
18.12499999999988
 21
-45.99999999999996
 31
0.0
1001
GRPNAME
1000
PASTMD0M
  0
LINE
  5
4265
330
45D3
100
AcDbEntity
  8
240
  6
Continuous
100
AcDbLine
 10
18.1249999999997
 20
-45.99999999999996
 30
0.0
 11
18.125
 21
-47.6225952641916
 31
0.0
1001
GRPNAME
1000
PASTMD0M
  0
LINE
  5
4266
330
45D3
100
AcDbEntity
  8
240
  6
Continuous
100
AcDbLine
 10
0.0
 20
-49.99999999999996
 30
0.0
 11
0.0
 21
-37.9999999999996
 31
0.0
1001
GRPNAME
1000
PASTMD0M
  0
LINE
  5
4267
330
45D3
100
AcDbEntity
  8
241
  6
Continuous
100
AcDbLine
 10
0.0
 20
-37.9999999999996
 30
0.0
 11
0.0000000000000284
 21
37.99999999999967
 31
0.0
1001
GRPNAME
1000
PASTMD0M
  0
LINE
  5
4268
330
45D3
100
AcDbEntity
  8
245
  6
CENTER2
100
AcDbLine
 10
-15.0
 20
-37.8999999999996
 30
0.0
 11
-15.0
 21
-29.57719335816257
 31
0.0
1001
GRPNAME
1000
PASTMD0M
  0
LINE
  5
4269
330
45D3
100
AcDbEntity
  8
245
  6
CENTER2
100
AcDbLine
 10
-15.0
 20
29.57719335816249
 30
0.0
 11
-15.0
 21
37.89999999999968
 31
0.0
1001
GRPNAME
1000
PASTMD0M
  0
LINE
  5
426A
330
45D3
100
AcDbEntity
  8
243
  6
HIDDEN2
100
AcDbLine
 10
-9.000000000000057
 20
-37.54999999999962
 30
0.0
 11
-9.0
 21
-31.48971627984352
 31
0.0
1001
GRPNAME
1000
PASTMD0M
  0
LINE
  5
426B
330
45D3
100
AcDbEntity
  8
243
  6
HIDDEN2
100
AcDbLine
 10
-9.0
 20
31.48971627984365
 30
0.0
 11
-9.0
 21
37.54999999999967
 31
0.0
1001
GRPNAME
1000
PASTMD0M
  0
LINE
  5
426C
330
45D3
100
AcDbEntity
  8
243
  6
HIDDEN2
100
AcDbLine
 10
-21.0
 20
-36.94999999999967
 30
0.0
 11
-21.0
 21
-31.49999999999996
 31
0.0
1001
GRPNAME
1000
PASTMD0M
  0
LINE
  5
426D
330
45D3
100
AcDbEntity
  8
243
  6
HIDDEN2
100
AcDbLine
 10
-21.0
 20
31.49999999936806
 30
0.0
 11
-21.0
 21
36.94999999999975
 31
0.0
1001
GRPNAME
1000
PASTMD0M
  0
LINE
  5
426E
330
45D3
100
AcDbEntity
  8
240
  6
Continuous
100
AcDbLine
 10
0.0
 20
-37.9999999999996
 30
0.0
 11
-50.0
 21
-35.49999999999973
 31
0.0
1001
GRPNAME
1000
PASTMD0M
  0
LINE
  5
426F
330
45D3
100
AcDbEntity
  8
240
  6
Continuous
100
AcDbLine
 10
28.99999999999909
 20
-49.99999999999996
 30
0.0
 11
28.99999999999909
 21
-42.49999999999879
 31
0.0
1001
GRPNAME
1000
PASTMD0M
  0
LINE
  5
4270
330
45D3
100
AcDbEntity
  8
241
  6
Continuous
100
AcDbLine
 10
28.99999999999909
 20
-42.49999999999879
 30
0.0
 11
28.99999999999909
 21
42.50000000000002
 31
0.0
1001
GRPNAME
1000
PASTMD0M
  0
ARC
  5
4271
330
45D3
100
AcDbEntity
  8
241
  6
Continuous
100
AcDbCircle
 10
14.63689785791894
 20
28.8297566260715
 30
0.0
 40
10.0
100
AcDbArc
 50
90.0
 51
164.5127259736298
  0
LINE
  5
4272
330
45D3
100
AcDbEntity
  8
241
  6
Continuous
100
AcDbLine
 10
4.999999999999088
 20
31.50000000000004
 30
0.0
 11
28.99999999999909
 21
31.50000000000004
 31
0.0
  0
LINE
  5
4273
330
45D3
100
AcDbEntity
  8
241
  6
Continuous
100
AcDbLine
 10
18.12499999999932
 20
33.50000000000005
 30
0.0
 11
18.1249999999997
 21
46.00000000000004
 31
0.0
1001
GRPNAME
1000
PASTMD0M
  0
LINE
  5
4274
330
45D3
100
AcDbEntity
  8
241
  6
Continuous
100
AcDbLine
 10
18.12499999999932
 20
33.50000000000005
 30
0.0
 11
21.87499999999932
 21
33.50000000000005
 31
0.0
  0
LINE
  5
4275
330
45D3
100
AcDbEntity
  8
241
  6
Continuous
100
AcDbLine
 10
21.87499999999932
 20
33.50000000000005
 30
0.0
 11
21.87499999999932
 21
46.00000000000004
 31
0.0
1001
GRPNAME
1000
PASTMD0M
  0
LINE
  5
4276
330
45D3
100
AcDbEntity
  8
241
  6
Continuous
100
AcDbLine
 10
16.75240473580766
 20
38.8297566260715
 30
0.0
 11
16.75240473580766
 21
50.00000000000002
 31
0.0
1001
GRPNAME
1000
PASTMD0M
  0
LINE
  5
4277
330
45D3
100
AcDbEntity
  8
241
  6
Continuous
100
AcDbLine
 10
23.24759526419075
 20
38.8297566260715
 30
0.0
 11
23.24759526419075
 21
50.00000000000002
 31
0.0
1001
GRPNAME
1000
PASTMD0M
  0
LINE
  5
4278
330
45D3
100
AcDbEntity
  8
241
  6
Continuous
100
AcDbLine
 10
18.12499999999932
 20
36.45235189026338
 30
0.0
 11
16.75240473580788
 21
38.8297566260715
 31
0.0
  0
LINE
  5
4279
330
45D3
100
AcDbEntity
  8
241
  6
Continuous
100
AcDbLine
 10
21.87499999999932
 20
36.45235189026362
 30
0.0
 11
23.24759526419075
 21
38.8297566260715
 31
0.0
  0
LINE
  5
427A
330
45D3
100
AcDbEntity
  8
241
  6
Continuous
100
AcDbLine
 10
14.63689785791894
 20
38.8297566260715
 30
0.0
 11
16.75240473580766
 21
38.8297566260715
 31
0.0
  0
LINE
  5
427B
330
45D3
100
AcDbEntity
  8
241
  6
Continuous
100
AcDbLine
 10
23.24759526419075
 20
38.8297566260715
 30
0.0
 11
28.99999999999909
 21
38.8297566260715
 31
0.0
  0
LINE
  5
427C
330
45D3
100
AcDbEntity
  8
240
  6
Continuous
100
AcDbLine
 10
16.75240473580834
 20
50.00000000000002
 30
0.0
 11
0.0
 21
50.00000000000002
 31
0.0
1001
GRPNAME
1000
PASTMD0M
  0
LINE
  5
427D
330
45D3
100
AcDbEntity
  8
240
  6
Continuous
100
AcDbLine
 10
28.99999999999909
 20
50.00000000000002
 30
0.0
 11
23.24759526419075
 21
50.00000000000002
 31
0.0
1001
GRPNAME
1000
PASTMD0M
  0
LINE
  5
427E
330
45D3
100
AcDbEntity
  8
240
  6
Continuous
100
AcDbLine
 10
18.125
 20
47.6225952641917
 30
0.0
 11
16.75240473580834
 21
50.00000000000002
 31
0.0
1001
GRPNAME
1000
PASTMD0M
  0
LINE
  5
427F
330
45D3
100
AcDbEntity
  8
240
  6
Continuous
100
AcDbLine
 10
21.87499999999908
 20
47.6225952641917
 30
0.0
 11
23.24759526419075
 21
50.00000000000002
 31
0.0
1001
GRPNAME
1000
PASTMD0M
  0
LINE
  5
4280
330
45D3
100
AcDbEntity
  8
240
  6
Continuous
100
AcDbLine
 10
21.8749999999988
 20
46.00000000000004
 30
0.0
 11
21.87499999999908
 21
47.6225952641917
 31
0.0
1001
GRPNAME
1000
PASTMD0M
  0
LINE
  5
4281
330
45D3
100
AcDbEntity
  8
240
  6
Continuous
100
AcDbLine
 10
21.8749999999988
 20
46.00000000000004
 30
0.0
 11
18.1249999999997
 21
46.00000000000004
 31
0.0
1001
GRPNAME
1000
PASTMD0M
  0
LINE
  5
4282
330
45D3
100
AcDbEntity
  8
240
  6
Continuous
100
AcDbLine
 10
18.1249999999997
 20
46.00000000000004
 30
0.0
 11
18.125
 21
47.6225952641917
 31
0.0
1001
GRPNAME
1000
PASTMD0M
  0
LINE
  5
4283
330
45D3
100
AcDbEntity
  8
240
  6
Continuous
100
AcDbLine
 10
-50.0
 20
35.49999999999983
 30
0.0
 11
-50.0
 21
-35.49999999999973
 31
0.0
1001
GRPNAME
1000
PASTMD0M
  0
LINE
  5
4284
330
45D3
100
AcDbEntity
  8
240
  6
Continuous
100
AcDbLine
 10
0.0
 20
50.00000000000002
 30
0.0
 11
0.0
 21
37.99999999999967
 31
0.0
1001
GRPNAME
1000
PASTMD0M
  0
LINE
  5
4285
330
45D3
100
AcDbEntity
  8
240
  6
Continuous
100
AcDbLine
 10
0.0
 20
37.99999999999967
 30
0.0
 11
-50.0
 21
35.49999999999983
 31
0.0
1001
GRPNAME
1000
PASTMD0M
  0
LINE
  5
4286
330
45D3
100
AcDbEntity
  8
240
  6
Continuous
100
AcDbLine
 10
28.99999999999909
 20
50.00000000000002
 30
0.0
 11
28.99999999999909
 21
42.49999999999888
 31
0.0
1001
GRPNAME
1000
PASTMD0M
  0
LINE
  5
4287
330
45D3
100
AcDbEntity
  8
240
  6
Continuous
100
AcDbLine
 10
35.0
 20
42.49999999999919
 30
0.0
 11
28.99999999999898
 21
42.49999999999888
 31
0.0
  0
LINE
  5
4288
330
45D3
100
AcDbEntity
  8
240
  6
Continuous
100
AcDbLine
 10
35.0
 20
-42.49999999999903
 30
0.0
 11
28.9999999999992
 21
-42.49999999999879
 31
0.0
  0
LINE
  5
4289
330
45D3
100
AcDbEntity
  8
247
  6
Continuous
100
AcDbLine
 10
9.999999999999943
 20
-26.25000000007005
 30
0.0
 11
9.999999999999943
 21
-19.55769230803004
 31
0.0
  0
ARC
  5
428A
330
45D3
100
AcDbEntity
  8
247
  6
Continuous
100
AcDbCircle
 10
8.250000000069917
 20
-26.25000000007005
 30
0.0
 40
1.749999999929999
100
AcDbArc
 50
180.0
 51
0.0
  0
ARC
  5
428B
330
45D3
100
AcDbEntity
  8
247
  6
Continuous
100
AcDbCircle
 10
8.250000000069917
 20
-19.55769230803004
 30
0.0
 40
1.749999999929999
100
AcDbArc
 50
0.0
 51
180.0
  0
LINE
  5
428C
330
45D3
100
AcDbEntity
  8
247
  6
Continuous
100
AcDbLine
 10
6.500000000139946
 20
-25.38461538472002
 30
0.0
 11
9.500000000019952
 21
-26.24485154196204
 31
0.0
  0
LINE
  5
428D
330
45D3
100
AcDbEntity
  8
247
  6
Continuous
100
AcDbLine
 10
7.923076923159953
 20
-24.48498381833584
 30
0.0
 11
7.923076923159953
 21
-25.79267612597586
 31
0.0
  0
ARC
  5
428E
330
45D3
100
AcDbEntity
  8
247
  6
Continuous
100
AcDbCircle
 10
7.049598667702921
 20
-24.1451438160898
 30
0.0
 40
0.5538165441895349
100
AcDbArc
 50
72.99788967529534
 51
172.9241662185136
  0
ARC
  5
428F
330
45D3
100
AcDbEntity
  8
247
  6
Continuous
100
AcDbCircle
 10
6.936033044465714
 20
-24.5668783230288
 30
0.0
 40
0.9904354236226808
100
AcDbArc
 50
4.742936852202212
 51
73.84922627326642
1001
GENIUS_GENOBJ-N-FIL_13
1002
{
1000
OWNER
1000
GEN
1002
}
1001
GENIUS_GENODEF_13
1002
{
1000
HIER
1070
     0
1002
}
1002
{
1000
MANEDIT
1070
     0
1002
}
1002
{
1000
NOSEL
1070
     0
1002
}
1002
{
1000
BEHIND
1070
     0
1002
}
1002
{
1000
OTHER
1070
     0
1002
}
1002
{
1000
REACTOR
1002
}
  0
LINE
  5
4290
330
45D3
100
AcDbEntity
  8
247
  6
Continuous
100
AcDbLine
 10
9.500000000019952
 20
-24.93715923432202
 30
0.0
 11
9.500000000019952
 21
-26.24485154196204
 31
0.0
  0
LINE
  5
4291
330
45D3
100
AcDbEntity
  8
247
  6
Continuous
100
AcDbLine
 10
6.500000000139946
 20
-25.38461538472002
 30
0.0
 11
6.500000000139946
 21
-24.07692307708
 31
0.0
  0
ARC
  5
4292
330
45D3
100
AcDbEntity
  8
247
  6
Continuous
100
AcDbCircle
 10
8.48202423266548
 20
-24.56091963654696
 30
0.0
 40
0.5640818586791229
100
AcDbArc
 50
65.99094165252889
 51
172.2634434590691
  0
ARC
  5
4293
330
45D3
100
AcDbEntity
  8
247
  6
Continuous
100
AcDbCircle
 10
8.487429039186509
 20
-25.03826268534711
 30
0.0
 40
1.017605944623098
100
AcDbArc
 50
5.701985164256464
 51
77.27733843682219
1001
GENIUS_GENOBJ-N-FIL_13
1002
{
1000
OWNER
1000
GEN
1002
}
1001
GENIUS_GENODEF_13
1002
{
1000
HIER
1070
     0
1002
}
1002
{
1000
MANEDIT
1070
     0
1002
}
1002
{
1000
NOSEL
1070
     0
1002
}
1002
{
1000
BEHIND
1070
     0
1002
}
1002
{
1000
OTHER
1070
     0
1002
}
1002
{
1000
REACTOR
1002
}
  0
LINE
  5
4294
330
45D3
100
AcDbEntity
  8
247
  6
Continuous
100
AcDbLine
 10
9.500000000019952
 20
-23.28331308054204
 30
0.0
 11
6.500000000139946
 21
-22.42307692330003
 31
0.0
  0
LINE
  5
4295
330
45D3
100
AcDbEntity
  8
247
  6
Continuous
100
AcDbLine
 10
6.500000000139946
 20
-20.00000000031999
 30
0.0
 11
6.500000000139946
 21
-20.56573661945659
 31
0.0
  0
LINE
  5
4296
330
45D3
100
AcDbEntity
  8
247
  6
Continuous
100
AcDbLine
 10
9.500000000019952
 20
-21.4615384618
 30
0.0
 11
9.500000000019952
 21
-20.84615384644003
 31
0.0
  0
ARC
  5
4297
330
45D3
100
AcDbEntity
  8
247
  6
Continuous
100
AcDbCircle
 10
8.583285135973313
 20
-19.70879120912288
 30
0.0
 40
2.252650082342212
100
AcDbArc
 50
202.3594881415259
 51
254.9932485428461
  0
ARC
  5
4298
330
45D3
100
AcDbEntity
  8
247
  6
Continuous
100
AcDbCircle
 10
7.30831265519447
 20
-20.37406947921324
 30
0.0
 40
0.8906723995727782
100
AcDbArc
 50
94.99458931907539
 51
155.1663289573039
1001
GENIUS_GENOBJ-N-FIL_13
1002
{
1000
OWNER
1000
GEN
1002
}
1001
GENIUS_GENODEF_13
1002
{
1000
HIER
1070
     0
1002
}
1002
{
1000
MANEDIT
1070
     0
1002
}
1002
{
1000
NOSEL
1070
     0
1002
}
1002
{
1000
BEHIND
1070
     0
1002
}
1002
{
1000
OTHER
1070
     0
1002
}
1002
{
1000
REACTOR
1002
}
  0
ARC
  5
4299
330
45D3
100
AcDbEntity
  8
247
  6
Continuous
100
AcDbCircle
 10
8.160145888667728
 20
-21.2264588862126
 30
0.0
 40
1.392781735586712
100
AcDbArc
 50
15.8460965557808
 51
82.32513700416912
  0
ARC
  5
429A
330
45D3
100
AcDbEntity
  8
247
  6
Continuous
100
AcDbCircle
 10
8.459243431527227
 20
-20.64221272584036
 30
0.0
 40
1.324563662670287
100
AcDbArc
 50
249.7136016704969
 51
321.7887456564063
1001
GENIUS_GENOBJ-N-FIL_13
1002
{
1000
OWNER
1000
GEN
1002
}
1001
GENIUS_GENODEF_13
1002
{
1000
HIER
1070
     0
1002
}
1002
{
1000
MANEDIT
1070
     0
1002
}
1002
{
1000
NOSEL
1070
     0
1002
}
1002
{
1000
BEHIND
1070
     0
1002
}
1002
{
1000
OTHER
1070
     0
1002
}
1002
{
1000
REACTOR
1002
}
  0
LINE
  5
429B
330
45D3
100
AcDbEntity
  8
247
  6
Continuous
100
AcDbLine
 10
8.34615384621992
 20
-20.53846153875999
 30
0.0
 11
8.34615384621992
 21
-19.84615384647999
 31
0.0
  0
LINE
  5
429C
330
45D3
100
AcDbEntity
  8
250
  6
Continuous
100
AcDbLine
 10
-32.93590567000001
 20
-48.713341000781
 30
0.0
 11
-59.86923900000005
 21
-48.713341000781
 31
0.0
1001
ITEMNAME
1000
LNSP2
  0
TEXT
  5
429D
330
45D3
100
AcDbEntity
  8
250
  6
Continuous
100
AcDbText
 10
-57.60257233333334
 20
-47.71334100078099
 30
0.0
 40
2.799999999999998
  1
HSK-A100
  7
YOKO
100
AcDbText
1001
ITEMNAME
1000
LNSP3
1001
ACAD
1000
MTEXTBEGIN
1070
    73
1070
     1
1070
    44
1040
1.0
1070
    74
1070
     0
1000
MTEXTEND
  0
LINE
  5
429E
330
45D3
100
AcDbEntity
  8
250
  6
Continuous
100
AcDbLine
 10
-27.00000000105791
 20
-38.43205080773909
 30
0.0
 11
-32.93590567000001
 21
-48.713341000781
 31
0.0
1001
ACAD
1000
DSTYLE
1002
{
1070
     6
1000
OPEN
1070
    41
1040
2.0
1070
    42
1040
2.0
1070
    44
1040
2.0
1070
   140
1040
4.0
1070
   343
1005
0
1002
}
  0
LINE
  5
429F
330
45D3
100
AcDbEntity
  8
250
  6
Continuous
100
AcDbLine
 10
-27.28867513555093
 20
-38.26538414089613
 30
0.0
 11
-26.0
 21
-36.70000000078097
 31
0.0
  0
LINE
  5
42A0
330
45D3
100
AcDbEntity
  8
250
  6
Continuous
100
AcDbLine
 10
-26.71132486656489
 20
-38.59871747458207
 30
0.0
 11
-26.0
 21
-36.70000000078097
 31
0.0
  0
LINE
  5
42A1
330
45D3
100
AcDbEntity
  8
250
  6
Continuous
100
AcDbLine
 10
-26.0
 20
-36.70000000078097
 30
0.0
 11
-27.00000000105791
 21
-38.43205080773909
 31
0.0
  0
LINE
  5
42A2
330
45D3
100
AcDbEntity
  8
247
  6
Continuous
100
AcDbLine
 10
6.500000000139889
 20
-26.25000000007005
 30
0.0
 11
6.500000000139889
 21
-25.57692307702005
 31
0.0
  0
LINE
  5
42B3
330
45D3
100
AcDbEntity
  8
240
  6
Continuous
100
AcDbLine
 10
213.0
 20
-45.00000000000001
 30
0.0
 11
47.49999999999997
 21
-45.0
 31
0.0
1001
GRPNAME
1000
PASTMD0D
  0
LINE
  5
42B4
330
45D3
100
AcDbEntity
  8
243
  6
HIDDEN2
100
AcDbLine
 10
213.0
 20
22.99999999999998
 30
0.0
 11
161.0
 21
22.99999999999998
 31
0.0
1001
GRPNAME
1000
PASTMD0D
  0
LINE
  5
42B5
330
45D3
100
AcDbEntity
  8
240
  6
Continuous
100
AcDbLine
 10
47.49999999999997
 20
-45.0
 30
0.0
 11
45.0000000000255
 21
-42.50000000002549
 31
0.0
1001
GRPNAME
1000
PASTMD0E
  0
LINE
  5
42B7
330
45D3
100
AcDbEntity
  8
240
  6
Continuous
100
AcDbLine
 10
45.0000000000001
 20
42.50000000000009
 30
0.0
 11
47.50000000000009
 21
45.00000000000007
 31
0.0
1001
GRPNAME
1000
PASTMD0E
  0
LINE
  5
42B8
330
45D3
100
AcDbEntity
  8
240
  6
Continuous
100
AcDbLine
 10
47.50000000000009
 20
45.00000000000007
 30
0.0
 11
213.0
 21
44.99999999996869
 31
0.0
1001
GRPNAME
1000
PASTMD0D
  0
LINE
  5
42B9
330
45D3
100
AcDbEntity
  8
240
  6
Continuous
100
AcDbLine
 10
213.0
 20
-45.00000000000001
 30
0.0
 11
213.0
 21
44.99999999996869
 31
0.0
1001
GRPNAME
1000
PASTMD0D
  0
LINE
  5
42BA
330
45D3
100
AcDbEntity
  8
240
  6
Continuous
100
AcDbLine
 10
45.0000000000001
 20
42.50000000000009
 30
0.0
 11
30.30000000000145
 21
42.5
 31
0.0
  0
LINE
  5
42BB
330
45D3
100
AcDbEntity
  8
240
  6
Continuous
100
AcDbLine
 10
30.30000000002472
 20
-42.50000000002549
 30
0.0
 11
45.0000000000255
 21
-42.50000000002549
 31
0.0
  0
LINE
  5
42E6
330
45D3
100
AcDbEntity
  8
243
  6
HIDDEN2
100
AcDbLine
 10
212.9999999999862
 20
-23.00000000003131
 30
0.0
 11
160.9999999999861
 21
-23.00000000000002
 31
0.0
1001
GRPNAME
1000
PASTMD0D
  0
LINE
  5
42E7
330
45D3
100
AcDbEntity
  8
241
  6
Continuous
100
AcDbLine
 10
45.0000000000255
 20
-42.50000000002549
 30
0.0
 11
45.0000000000001
 21
42.50000000000009
 31
0.0
  0
LINE
  5
42E8
330
45D3
100
AcDbEntity
  8
241
  6
Continuous
100
AcDbLine
 10
47.49999999999997
 20
-45.0
 30
0.0
 11
47.50000000000009
 21
45.00000000000007
 31
0.0
  0
LINE
  5
432E
330
45D3
100
AcDbEntity
  8
250
  6
Continuous
100
AcDbLine
 10
0.0000000000000142
 20
50.50000000000004
 30
0.0
 11
0.0000000000000151
 21
64.00000000000003
 31
0.0
  0
LINE
  5
432F
330
45D3
100
AcDbEntity
  8
250
  6
Continuous
100
AcDbLine
 10
213.0
 20
45.50000000000003
 30
0.0
 11
213.0
 21
64.00000000000003
 31
0.0
  0
LINE
  5
4330
330
45D3
100
AcDbEntity
  8
250
  6
Continuous
100
AcDbLine
 10
2.230000000000013
 20
63.00000000000004
 30
0.0
 11
210.77
 21
63.00000000000004
 31
0.0
  0
LINE
  5
4331
330
45D3
100
AcDbEntity
  8
250
  6
Continuous
100
AcDbLine
 10
2.230000000000014
 20
62.62833333333336
 30
0.0
 11
0.000000000000015
 21
63.00000000000004
 31
0.0
  0
LINE
  5
4332
330
45D3
100
AcDbEntity
  8
250
  6
Continuous
100
AcDbLine
 10
2.230000000000014
 20
63.37166666666671
 30
0.0
 11
0.000000000000015
 21
63.00000000000004
 31
0.0
  0
LINE
  5
4333
330
45D3
100
AcDbEntity
  8
250
  6
Continuous
100
AcDbLine
 10
0.000000000000015
 20
63.00000000000004
 30
0.0
 11
2.230000000000014
 21
63.00000000000004
 31
0.0
  0
LINE
  5
4334
330
45D3
100
AcDbEntity
  8
250
  6
Continuous
100
AcDbLine
 10
210.77
 20
63.37166666666671
 30
0.0
 11
213.0
 21
63.00000000000004
 31
0.0
  0
LINE
  5
4335
330
45D3
100
AcDbEntity
  8
250
  6
Continuous
100
AcDbLine
 10
210.77
 20
62.62833333333336
 30
0.0
 11
213.0
 21
63.00000000000004
 31
0.0
  0
LINE
  5
4336
330
45D3
100
AcDbEntity
  8
250
  6
Continuous
100
AcDbLine
 10
213.0
 20
63.00000000000004
 30
0.0
 11
210.77
 21
63.00000000000004
 31
0.0
  0
TEXT
  5
4337
330
45D3
100
AcDbEntity
  8
250
  6
Continuous
100
AcDbText
 10
104.7835941030555
 20
64.00000000000006
 30
0.0
 40
2.799999999999998
  1
213
100
AcDbText
1001
ACAD
1000
MTEXTBEGIN
1070
    73
1070
     1
1070
    44
1040
1.0
1070
    74
1070
     0
1000
MTEXTEND
  0
TEXT
  5
4338
330
45D3
100
AcDbEntity
  8
241
  6
Continuous
100
AcDbText
 10
-47.0
 20
78.66666666666667
 30
0.0
 40
5.0
  1
HSK-A100-CKB7-213
  7
YOKO
 11
-47.0
 21
77.0
 31
0.0
100
AcDbText
 73
     1
1001
GRPNAME
1000
PASTMD0I
  0
LINE
  5
4339
330
45D3
100
AcDbEntity
  8
250
  6
Continuous
100
AcDbLine
 10
213.5
 20
-44.99999999999996
 30
0.0
 11
231.0
 21
-44.99999999999996
 31
0.0
  0
LINE
  5
433A
330
45D3
100
AcDbEntity
  8
250
  6
Continuous
100
AcDbLine
 10
213.5
 20
45.00000000000003
 30
0.0
 11
231.0
 21
45.00000000000003
 31
0.0
  0
LINE
  5
433B
330
45D3
100
AcDbEntity
  8
250
  6
Continuous
100
AcDbLine
 10
230.0
 20
-42.76999999999996
 30
0.0
 11
230.0
 21
42.77000000000003
 31
0.0
  0
LINE
  5
433C
330
45D3
100
AcDbEntity
  8
250
  6
Continuous
100
AcDbLine
 10
230.3716666666667
 20
-42.76999999999996
 30
0.0
 11
230.0
 21
-44.99999999999996
 31
0.0
  0
LINE
  5
433D
330
45D3
100
AcDbEntity
  8
250
  6
Continuous
100
AcDbLine
 10
229.6283333333333
 20
-42.76999999999996
 30
0.0
 11
230.0
 21
-44.99999999999996
 31
0.0
  0
LINE
  5
433E
330
45D3
100
AcDbEntity
  8
250
  6
Continuous
100
AcDbLine
 10
230.0
 20
-44.99999999999996
 30
0.0
 11
230.0
 21
-42.76999999999996
 31
0.0
  0
LINE
  5
433F
330
45D3
100
AcDbEntity
  8
250
  6
Continuous
100
AcDbLine
 10
229.6283333333333
 20
42.77000000000003
 30
0.0
 11
230.0
 21
45.00000000000003
 31
0.0
  0
LINE
  5
4340
330
45D3
100
AcDbEntity
  8
250
  6
Continuous
100
AcDbLine
 10
230.3716666666667
 20
42.77000000000003
 30
0.0
 11
230.0
 21
45.00000000000003
 31
0.0
  0
LINE
  5
4341
330
45D3
100
AcDbEntity
  8
250
  6
Continuous
100
AcDbLine
 10
230.0
 20
45.00000000000003
 30
0.0
 11
230.0
 21
42.77000000000003
 31
0.0
  0
TEXT
  5
4342
330
45D3
100
AcDbEntity
  8
250
  6
Continuous
100
AcDbText
 10
229.0
 20
-3.93333333333326
 30
0.0
 40
2.799999999999999
  1
∅
 50
90.0
100
AcDbText
1001
ACAD
1000
MTEXTBEGIN
1070
    73
1070
     1
1070
    44
1040
1.0
1070
    74
1070
     0
1000
MTEXTEND
  0
TEXT
  5
4343
330
45D3
100
AcDbEntity
  8
250
  6
Continuous
100
AcDbText
 10
229.0
 20
-1.399999999999927
 30
0.0
 40
2.799999999999998
  1
90
 50
90.0
100
AcDbText
1001
ACAD
1000
MTEXTBEGIN
1070
    73
1070
     1
1070
    44
1040
1.0
1070
    74
1070
     0
1000
MTEXTEND
  0
CIRCLE
  5
434A
330
45D3
100
AcDbEntity
  8
241
  6
Continuous
100
AcDbCircle
 10
194.0
 20
0.0000000000000355
 30
0.0
 40
10.0
  0
CIRCLE
  5
434B
330
45D3
100
AcDbEntity
  8
242
  6
Continuous
100
AcDbCircle
 10
194.0
 20
0.0000000000000355
 30
0.0
 40
9.25
  0
LWPOLYLINE
  5
434C
330
45D3
100
AcDbEntity
  8
241
  6
Continuous
100
AcDbPolyline
 90
        6
 70
     1
 43
0.0
 10
189.75
 20
-2.453738639999973
 10
194.0
 20
-4.907477289999964
 10
198.25
 20
-2.453738639999973
 10
198.25
 20
2.453738640000044
 10
194.0
 20
4.907477290000035
 10
189.75
 20
2.453738640000044
  0
LINE
  5
434D
330
45D3
100
AcDbEntity
  8
245
  6
CENTER2
100
AcDbLine
 10
194.0
 20
11.00000000000003
 30
0.0
 11
194.0
 21
-10.99999999999996
 31
0.0
  0
LINE
  5
43B3
330
45D3
100
AcDbEntity
  8
250
  6
Continuous
100
AcDbLine
 10
207.4739654548686
 20
46.74540331725874
 30
0.0
 11
206.03709268
 21
44.99999999998429
 31
0.0
  0
LINE
  5
43B4
330
45D3
100
AcDbEntity
  8
250
  6
Continuous
100
AcDbLine
 10
206.8302199046785
 20
47.11706998384992
 30
0.0
 11
206.03709268
 21
44.99999999998429
 31
0.0
  0
LINE
  5
43B5
330
45D3
100
AcDbEntity
  8
250
  6
Continuous
100
AcDbLine
 10
206.03709268
 20
44.99999999998429
 30
0.0
 11
207.1520926797735
 21
46.93123665055433
 31
0.0
  0
LINE
  5
43B6
330
45D3
100
AcDbEntity
  8
250
  6
Continuous
100
AcDbLine
 10
207.1520926797735
 20
46.93123665055433
 30
0.0
 11
216.9832150235341
 21
63.9592400499843
 31
0.0
1001
ACAD
1000
DSTYLE
1002
{
1070
     6
1000
OPEN
1070
    79
1070
     2
1070
   179
1070
     3
1070
   343
1005
594
1070
   371
1070
    -1
1070
   372
1070
    -1
1002
}
  0
LINE
  5
43B7
330
45D3
100
AcDbEntity
  8
250
  6
Continuous
100
AcDbLine
 10
216.9832150235341
 20
63.9592400499843
 30
0.0
 11
227.6154330567159
 21
63.9592400499843
 31
0.0
1001
ACAD
1000
DSTYLE
1002
{
1070
     6
1000
OPEN
1070
    79
1070
     2
1070
   179
1070
     3
1070
   343
1005
594
1070
   371
1070
    -1
1070
   372
1070
    -1
1002
}
  0
INSERT
  5
43B8
330
45D3
100
AcDbEntity
  8
240
100
AcDbBlockReference
  2
*U3
 10
0.0
 20
0.0
 30
0.0
  0
VIEWPORT
  5
22
330
45D1
100
AcDbEntity
 67
     1
  8
0
100
AcDbViewport
 10
261.5176991150442
 20
148.5
 30
0.0
 40
523.0353982300885
 41
297.0
 68
     1
 69
    -1
 12
261.5176991150442
 22
148.5
 13
0.0
 23
0.0
 14
1.0
 24
1.0
 15
10.0
 25
10.0
 16
0.0
 26
0.0
 36
1.0
 17
0.0
 27
0.0
 37
0.0
 42
50.0
 43
0.0
 44
0.0
 45
297.0
 50
0.0
 51
0.0
 72
   100
 90
   557216
  1

281
     0
 71
     0
 74
     0
110
0.0
120
0.0
130
0.0
111
1.0
121
0.0
131
0.0
112
0.0
122
1.0
132
0.0
 79
     0
146
0.0
170
     0
 61
     5
292
     1
282
     1
141
0.0
142
0.0
 63
   256
1001
GENIUS_GENODEF_13
1002
{
1000
HIER
1070
     0
1002
}
1002
{
1000
MANEDIT
1070
     0
1002
}
1002
{
1000
NOSEL
1070
     0
1002
}
1002
{
1000
BEHIND
1070
     0
1002
}
1002
{
1000
OTHER
1070
     0
1002
}
1002
{
1000
REACTOR
1002
}
1001
GENIUS_GENOBJ-N-SDF_13
1002
{
1000
OWNER
1000
GEN
1002
}
1001
GENIUS_GENSCREG_15
1000
PF
1040
1.0
1000
DF
1040
1.0
1000
MIN
1011
0.0
1021
0.0
1031
0.0
1000
MAX
1011
523.0353982300885
1021
297.0
1031
0.0
1000
FLAGS
1070
     4
  0
ENDSEC
  0
SECTION
  2
OBJECTS
  0
DICTIONARY
  5
45C3
330
0
100
AcDbDictionary
281
     1
  3
ACAD_GROUP
350
45C4
  3
ACAD_IMAGE_VARS
350
E066
  3
ACAD_LAYOUT
350
45D0
  3
ACAD_MLEADERSTYLE
350
E06D
  3
ACAD_MLINESTYLE
350
45CD
  3
ACAD_PLOTSETTINGS
350
45CF
  3
ACAD_PLOTSTYLENAME
350
45C5
  3
ACAD_SCALELIST
350
E041
  3
ACAD_TABLESTYLE
350
E063
  3
ACDB_RECOMPOSE_DATA
350
E06B
  3
AcDbVariableDictionary
350
E067
  3
APPDATA
350
E065
  0
DICTIONARY
  5
45C4
102
{ACAD_REACTORS
330
45C3
102
}
330
45C3
100
AcDbDictionary
281
     1
  0
RASTERVARIABLES
  5
E066
102
{ACAD_REACTORS
330
45C3
102
}
330
45C3
100
AcDbRasterVariables
 90
        0
 70
     1
 71
     1
 72
     0
  0
DICTIONARY
  5
45D0
102
{ACAD_REACTORS
330
45C3
102
}
330
45C3
100
AcDbDictionary
281
     1
  3
Model
350
45D4
  3
Sheet1
350
45D2
  0
DICTIONARY
  5
E06D
102
{ACAD_REACTORS
330
45C3
102
}
330
45C3
100
AcDbDictionary
281
     1
  0
DICTIONARY
  5
45CD
102
{ACAD_REACTORS
330
45C3
102
}
330
45C3
100
AcDbDictionary
281
     1
  3
Standard
350
45CE
  0
DICTIONARY
  5
45CF
102
{ACAD_REACTORS
330
45C3
102
}
330
45C3
100
AcDbDictionary
281
     1
  0
ACDBDICTIONARYWDFLT
  5
45C5
102
{ACAD_REACTORS
330
45C3
102
}
330
45C3
100
AcDbDictionary
281
     1
  3
Normal
350
45C6
100
AcDbDictionaryWithDefault
340
45C6
  0
DICTIONARY
  5
E041
102
{ACAD_REACTORS
330
45C3
102
}
330
45C3
100
AcDbDictionary
281
     1
  3
A0
350
E042
  3
A1
350
E043
  3
A2
350
E044
  3
A3
350
E045
  3
A4
350
E046
  3
A5
350
E047
  3
A6
350
E048
  3
A7
350
E049
  3
A8
350
E04A
  3
A9
350
E04B
  3
B0
350
E04C
  3
B1
350
E04D
  3
B2
350
E04E
  3
B3
350
E04F
  3
B4
350
E050
  3
B5
350
E051
  3
B6
350
E052
  3
B7
350
E053
  3
B8
350
E054
  3
B9
350
E055
  3
C0
350
E056
  3
C1
350
E057
  3
C2
350
E058
  3
C3
350
E059
  3
C4
350
E05A
  3
C5
350
E05B
  3
C6
350
E05C
  3
C7
350
E05D
  3
C8
350
E05E
  3
C9
350
E05F
  3
D0
350
E060
  3
D1
350
E061
  3
D2
350
E062
  0
DICTIONARY
  5
E063
102
{ACAD_REACTORS
330
45C3
102
}
330
45C3
100
AcDbDictionary
281
     1
  3
Standard
350
E064
  0
XRECORD
  5
E06B
102
{ACAD_REACTORS
330
45C3
102
}
330
45C3
100
AcDbXrecord
280
     1
 90
        1
330
E064
  0
DICTIONARY
  5
E067
102
{ACAD_REACTORS
330
45C3
102
}
330
45C3
100
AcDbDictionary
281
     1
  3
CANNOSCALE
350
E068
  3
CTABLESTYLE
350
E06C
  0
DICTIONARY
  5
E065
102
{ACAD_REACTORS
330
45C3
102
}
330
45C3
100
AcDbDictionary
281
     1
  0
LAYOUT
  5
45D4
102
{ACAD_REACTORS
330
45D0
102
}
330
45D0
100
AcDbPlotSettings
  1

  2
none_device
  4

  6

 40
0.0
 41
0.0
 42
0.0
 43
0.0
 44
0.0
 45
0.0
 46
0.0
 47
0.0
 48
0.0
 49
0.0
140
0.0
141
0.0
142
1.0
143
1.0
 70
  1712
 72
     0
 73
     0
 74
     0
  7

 75
     0
 76
     0
 77
     2
 78
   300
147
1.0
148
0.0
149
0.0
100
AcDbLayout
  1
Model
 70
     1
 71
     0
 10
0.0
 20
0.0
 11
12.0
 21
9.0
 12
0.0
 22
0.0
 32
0.0
 14
-59.86923900000005
 24
-49.99999999999996
 34
0.0
 15
231.0
 25
82.00000000000004
 35
0.0
146
0.0
 13
0.0
 23
0.0
 33
0.0
 16
1.0
 26
0.0
 36
0.0
 17
0.0
 27
1.0
 37
0.0
 76
     0
330
45D3
331
45D6
  0
LAYOUT
  5
45D2
102
{ACAD_REACTORS
330
45D0
102
}
330
45D0
100
AcDbPlotSettings
  1

  2
none_device
  4

  6

 40
0.0
 41
0.0
 42
0.0
 43
0.0
 44
0.0
 45
0.0
 46
0.0
 47
0.0
 48
0.0
 49
0.0
140
0.0
141
0.0
142
1.0
143
1.0
 70
   688
 72
     0
 73
     0
 74
     5
  7

 75
    16
 76
     0
 77
     2
 78
   300
147
1.0
148
0.0
149
0.0
100
AcDbLayout
  1
Sheet1
 70
     1
 71
     1
 10
0.0
 20
0.0
 11
420.0
 21
297.0
 12
0.0
 22
0.0
 32
0.0
 14
1.000000000000000E+20
 24
1.000000000000000E+20
 34
1.000000000000000E+20
 15
-1.000000000000000E+20
 25
-1.000000000000000E+20
 35
-1.000000000000000E+20
146
0.0
 13
0.0
 23
0.0
 33
0.0
 16
1.0
 26
0.0
 36
0.0
 17
0.0
 27
1.0
 37
0.0
 76
     0
330
45D1
331
22
  0
MLINESTYLE
  5
45CE
102
{ACAD_REACTORS
330
45CD
102
}
330
45CD
100
AcDbMlineStyle
  2
Standard
 70
     0
  3

 62
   256
 51
90.0
 52
90.0
 71
     2
 49
0.5
 62
   256
  6
BYLAYER
 49
-0.5
 62
   256
  6
BYLAYER
  0
ACDBPLACEHOLDER
  5
45C6
102
{ACAD_REACTORS
330
45C5
102
}
330
45C5
  0
SCALE
  5
E042
102
{ACAD_REACTORS
330
E041
102
}
330
E041
100
AcDbScale
 70
     0
300
1:1
140
1.0
141
1.0
290
     1
  0
SCALE
  5
E043
102
{ACAD_REACTORS
330
E041
102
}
330
E041
100
AcDbScale
 70
     0
300
1:2
140
1.0
141
2.0
290
     0
  0
SCALE
  5
E044
102
{ACAD_REACTORS
330
E041
102
}
330
E041
100
AcDbScale
 70
     0
300
1:4
140
1.0
141
4.0
290
     0
  0
SCALE
  5
E045
102
{ACAD_REACTORS
330
E041
102
}
330
E041
100
AcDbScale
 70
     0
300
1:5
140
1.0
141
5.0
290
     0
  0
SCALE
  5
E046
102
{ACAD_REACTORS
330
E041
102
}
330
E041
100
AcDbScale
 70
     0
300
1:8
140
1.0
141
8.0
290
     0
  0
SCALE
  5
E047
102
{ACAD_REACTORS
330
E041
102
}
330
E041
100
AcDbScale
 70
     0
300
1:10
140
1.0
141
10.0
290
     0
  0
SCALE
  5
E048
102
{ACAD_REACTORS
330
E041
102
}
330
E041
100
AcDbScale
 70
     0
300
1:16
140
1.0
141
16.0
290
     0
  0
SCALE
  5
E049
102
{ACAD_REACTORS
330
E041
102
}
330
E041
100
AcDbScale
 70
     0
300
1:20
140
1.0
141
20.0
290
     0
  0
SCALE
  5
E04A
102
{ACAD_REACTORS
330
E041
102
}
330
E041
100
AcDbScale
 70
     0
300
1:30
140
1.0
141
30.0
290
     0
  0
SCALE
  5
E04B
102
{ACAD_REACTORS
330
E041
102
}
330
E041
100
AcDbScale
 70
     0
300
1:40
140
1.0
141
40.0
290
     0
  0
SCALE
  5
E04C
102
{ACAD_REACTORS
330
E041
102
}
330
E041
100
AcDbScale
 70
     0
300
1:50
140
1.0
141
50.0
290
     0
  0
SCALE
  5
E04D
102
{ACAD_REACTORS
330
E041
102
}
330
E041
100
AcDbScale
 70
     0
300
1:100
140
1.0
141
100.0
290
     0
  0
SCALE
  5
E04E
102
{ACAD_REACTORS
330
E041
102
}
330
E041
100
AcDbScale
 70
     0
300
2:1
140
2.0
141
1.0
290
     0
  0
SCALE
  5
E04F
102
{ACAD_REACTORS
330
E041
102
}
330
E041
100
AcDbScale
 70
     0
300
4:1
140
4.0
141
1.0
290
     0
  0
SCALE
  5
E050
102
{ACAD_REACTORS
330
E041
102
}
330
E041
100
AcDbScale
 70
     0
300
8:1
140
8.0
141
1.0
290
     0
  0
SCALE
  5
E051
102
{ACAD_REACTORS
330
E041
102
}
330
E041
100
AcDbScale
 70
     0
300
10:1
140
10.0
141
1.0
290
     0
  0
SCALE
  5
E052
102
{ACAD_REACTORS
330
E041
102
}
330
E041
100
AcDbScale
 70
     0
300
100:1
140
100.0
141
1.0
290
     0
  0
SCALE
  5
E053
102
{ACAD_REACTORS
330
E041
102
}
330
E041
100
AcDbScale
 70
     0
300
1/128" = 1'-0"
140
0.0078125
141
12.0
290
     0
  0
SCALE
  5
E054
102
{ACAD_REACTORS
330
E041
102
}
330
E041
100
AcDbScale
 70
     0
300
1/64" = 1'-0"
140
0.015625
141
12.0
290
     0
  0
SCALE
  5
E055
102
{ACAD_REACTORS
330
E041
102
}
330
E041
100
AcDbScale
 70
     0
300
1/32" = 1'-0"
140
0.03125
141
12.0
290
     0
  0
SCALE
  5
E056
102
{ACAD_REACTORS
330
E041
102
}
330
E041
100
AcDbScale
 70
     0
300
1/16" = 1'-0"
140
0.0625
141
12.0
290
     0
  0
SCALE
  5
E057
102
{ACAD_REACTORS
330
E041
102
}
330
E041
100
AcDbScale
 70
     0
300
3/32" = 1'-0"
140
0.09375
141
12.0
290
     0
  0
SCALE
  5
E058
102
{ACAD_REACTORS
330
E041
102
}
330
E041
100
AcDbScale
 70
     0
300
1/8" = 1'-0"
140
0.125
141
12.0
290
     0
  0
SCALE
  5
E059
102
{ACAD_REACTORS
330
E041
102
}
330
E041
100
AcDbScale
 70
     0
300
3/16" = 1'-0"
140
0.1875
141
12.0
290
     0
  0
SCALE
  5
E05A
102
{ACAD_REACTORS
330
E041
102
}
330
E041
100
AcDbScale
 70
     0
300
1/4" = 1'-0"
140
0.25
141
12.0
290
     0
  0
SCALE
  5
E05B
102
{ACAD_REACTORS
330
E041
102
}
330
E041
100
AcDbScale
 70
     0
300
3/8" = 1'-0"
140
0.375
141
12.0
290
     0
  0
SCALE
  5
E05C
102
{ACAD_REACTORS
330
E041
102
}
330
E041
100
AcDbScale
 70
     0
300
1/2" = 1'-0"
140
0.5
141
12.0
290
     0
  0
SCALE
  5
E05D
102
{ACAD_REACTORS
330
E041
102
}
330
E041
100
AcDbScale
 70
     0
300
3/4" = 1'-0"
140
0.75
141
12.0
290
     0
  0
SCALE
  5
E05E
102
{ACAD_REACTORS
330
E041
102
}
330
E041
100
AcDbScale
 70
     0
300
1" = 1'-0"
140
1.0
141
12.0
290
     0
  0
SCALE
  5
E05F
102
{ACAD_REACTORS
330
E041
102
}
330
E041
100
AcDbScale
 70
     0
300
1-1/2" = 1'-0"
140
1.5
141
12.0
290
     0
  0
SCALE
  5
E060
102
{ACAD_REACTORS
330
E041
102
}
330
E041
100
AcDbScale
 70
     0
300
3" = 1'-0"
140
3.0
141
12.0
290
     0
  0
SCALE
  5
E061
102
{ACAD_REACTORS
330
E041
102
}
330
E041
100
AcDbScale
 70
     0
300
6" = 1'-0"
140
6.0
141
12.0
290
     0
  0
SCALE
  5
E062
102
{ACAD_REACTORS
330
E041
102
}
330
E041
100
AcDbScale
 70
     0
300
1'-0" = 1'-0"
140
12.0
141
12.0
290
     0
  0
TABLESTYLE
  5
E064
102
{ACAD_REACTORS
330
E063
102
}
102
{ACAD_XDICTIONARY
360
E069
102
}
330
E063
100
AcDbTableStyle
  3
Standard
 70
     0
 71
     0
 40
0.06
 41
0.06
280
     0
281
     0
  7
STANDARD
140
0.18
170
     2
 62
     0
 63
   257
283
     0
 90
        4
 91
        0
  1

274
    -2
284
     1
 64
     0
275
    -2
285
     1
 65
     0
276
    -2
286
     1
 66
     0
277
    -2
287
     1
 67
     0
278
    -2
288
     1
 68
     0
279
    -2
289
     1
 69
     0
  7
STANDARD
140
0.25
170
     5
 62
     0
 63
   257
283
     0
 90
        4
 91
        0
  1

274
    -2
284
     1
 64
     0
275
    -2
285
     1
 65
     0
276
    -2
286
     1
 66
     0
277
    -2
287
     1
 67
     0
278
    -2
288
     1
 68
     0
279
    -2
289
     1
 69
     0
  7
STANDARD
140
0.18
170
     5
 62
     0
 63
   257
283
     0
 90
        4
 91
        0
  1

274
    -2
284
     1
 64
     0
275
    -2
285
     1
 65
     0
276
    -2
286
     1
 66
     0
277
    -2
287
     1
 67
     0
278
    -2
288
     1
 68
     0
279
    -2
289
     1
 69
     0
  0
DICTIONARYVAR
  5
E068
102
{ACAD_REACTORS
330
E067
102
}
330
E067
100
DictionaryVariables
280
     0
  1
1:1
  0
DICTIONARYVAR
  5
E06C
102
{ACAD_REACTORS
330
E067
102
}
330
E067
100
DictionaryVariables
280
     0
  1
Standard
  0
DICTIONARY
  5
E069
330
E064
100
AcDbDictionary
280
     1
281
     1
  3
ACAD_ROUNDTRIP_2008_TABLESTYLE_CELLSTYLEMAP
360
E06A
  0
CELLSTYLEMAP
  5
E06A
102
{ACAD_REACTORS
330
E069
102
}
330
E069
100
AcDbCellStyleMap
 90
        3
300
CELLSTYLE
  1
TABLEFORMAT_BEGIN
 90
        5
170
     1
 91
        0
 92
        0
 62
   257
 93
        1
300
CONTENTFORMAT
  1
CONTENTFORMAT_BEGIN
 90
        0
 91
        0
 92
        4
 93
        0
300

 40
0.0
140
1.0
 94
        5
 62
     0
340
45C8
144
0.25
309
CONTENTFORMAT_END
171
     1
301
MARGIN
  1
CELLMARGIN_BEGIN
 40
0.06
 40
0.06
 40
0.06
 40
0.06
 40
0.06
 40
0.06
309
CELLMARGIN_END
 94
        6
 95
        1
302
GRIDFORMAT
  1
GRIDFORMAT_BEGIN
 90
        0
 91
        1
 62
     0
 92
       -2
340
45CA
 93
        0
 40
0.045
309
GRIDFORMAT_END
 95
        2
302
GRIDFORMAT
  1
GRIDFORMAT_BEGIN
 90
        0
 91
        1
 62
     0
 92
       -2
340
45CA
 93
        0
 40
0.045
309
GRIDFORMAT_END
 95
        4
302
GRIDFORMAT
  1
GRIDFORMAT_BEGIN
 90
        0
 91
        1
 62
     0
 92
       -2
340
45CA
 93
        0
 40
0.045
309
GRIDFORMAT_END
 95
        8
302
GRIDFORMAT
  1
GRIDFORMAT_BEGIN
 90
        0
 91
        1
 62
     0
 92
       -2
340
45CA
 93
        0
 40
0.045
309
GRIDFORMAT_END
 95
       16
302
GRIDFORMAT
  1
GRIDFORMAT_BEGIN
 90
        0
 91
        1
 62
     0
 92
       -2
340
45CA
 93
        0
 40
0.045
309
GRIDFORMAT_END
 95
       32
302
GRIDFORMAT
  1
GRIDFORMAT_BEGIN
 90
        0
 91
        1
 62
     0
 92
       -2
340
45CA
 93
        0
 40
0.045
309
GRIDFORMAT_END
309
TABLEFORMAT_END
  1
CELLSTYLE_BEGIN
 90
        1
 91
        1
300
_TITLE
309
CELLSTYLE_END
300
CELLSTYLE
  1
TABLEFORMAT_BEGIN
 90
        5
170
     1
 91
        0
 92
        0
 62
   257
 93
        1
300
CONTENTFORMAT
  1
CONTENTFORMAT_BEGIN
 90
        0
 91
        0
 92
        4
 93
        0
300

 40
0.0
140
1.0
 94
        5
 62
     0
340
45C8
144
0.18
309
CONTENTFORMAT_END
171
     1
301
MARGIN
  1
CELLMARGIN_BEGIN
 40
0.06
 40
0.06
 40
0.06
 40
0.06
 40
0.06
 40
0.06
309
CELLMARGIN_END
 94
        6
 95
        1
302
GRIDFORMAT
  1
GRIDFORMAT_BEGIN
 90
        0
 91
        1
 62
     0
 92
       -2
340
45CA
 93
        0
 40
0.045
309
GRIDFORMAT_END
 95
        2
302
GRIDFORMAT
  1
GRIDFORMAT_BEGIN
 90
        0
 91
        1
 62
     0
 92
       -2
340
45CA
 93
        0
 40
0.045
309
GRIDFORMAT_END
 95
        4
302
GRIDFORMAT
  1
GRIDFORMAT_BEGIN
 90
        0
 91
        1
 62
     0
 92
       -2
340
45CA
 93
        0
 40
0.045
309
GRIDFORMAT_END
 95
        8
302
GRIDFORMAT
  1
GRIDFORMAT_BEGIN
 90
        0
 91
        1
 62
     0
 92
       -2
340
45CA
 93
        0
 40
0.045
309
GRIDFORMAT_END
 95
       16
302
GRIDFORMAT
  1
GRIDFORMAT_BEGIN
 90
        0
 91
        1
 62
     0
 92
       -2
340
45CA
 93
        0
 40
0.045
309
GRIDFORMAT_END
 95
       32
302
GRIDFORMAT
  1
GRIDFORMAT_BEGIN
 90
        0
 91
        1
 62
     0
 92
       -2
340
45CA
 93
        0
 40
0.045
309
GRIDFORMAT_END
309
TABLEFORMAT_END
  1
CELLSTYLE_BEGIN
 90
        2
 91
        1
300
_HEADER
309
CELLSTYLE_END
300
CELLSTYLE
  1
TABLEFORMAT_BEGIN
 90
        5
170
     1
 91
        0
 92
        0
 62
   257
 93
        1
300
CONTENTFORMAT
  1
CONTENTFORMAT_BEGIN
 90
        0
 91
        0
 92
        4
 93
        0
300

 40
0.0
140
1.0
 94
        2
 62
     0
340
45C8
144
0.18
309
CONTENTFORMAT_END
171
     1
301
MARGIN
  1
CELLMARGIN_BEGIN
 40
0.06
 40
0.06
 40
0.06
 40
0.06
 40
0.06
 40
0.06
309
CELLMARGIN_END
 94
        6
 95
        1
302
GRIDFORMAT
  1
GRIDFORMAT_BEGIN
 90
        0
 91
        1
 62
     0
 92
       -2
340
45CA
 93
        0
 40
0.045
309
GRIDFORMAT_END
 95
        2
302
GRIDFORMAT
  1
GRIDFORMAT_BEGIN
 90
        0
 91
        1
 62
     0
 92
       -2
340
45CA
 93
        0
 40
0.045
309
GRIDFORMAT_END
 95
        4
302
GRIDFORMAT
  1
GRIDFORMAT_BEGIN
 90
        0
 91
        1
 62
     0
 92
       -2
340
45CA
 93
        0
 40
0.045
309
GRIDFORMAT_END
 95
        8
302
GRIDFORMAT
  1
GRIDFORMAT_BEGIN
 90
        0
 91
        1
 62
     0
 92
       -2
340
45CA
 93
        0
 40
0.045
309
GRIDFORMAT_END
 95
       16
302
GRIDFORMAT
  1
GRIDFORMAT_BEGIN
 90
        0
 91
        1
 62
     0
 92
       -2
340
45CA
 93
        0
 40
0.045
309
GRIDFORMAT_END
 95
       32
302
GRIDFORMAT
  1
GRIDFORMAT_BEGIN
 90
        0
 91
        1
 62
     0
 92
       -2
340
45CA
 93
        0
 40
0.045
309
GRIDFORMAT_END
309
TABLEFORMAT_END
  1
CELLSTYLE_BEGIN
 90
        3
 91
        2
300
_DATA
309
CELLSTYLE_END
  0
ENDSEC
  0
EOF
