  0
SECTION
  2
HEADER
  9
$ACADVER
  1
AC1009
  9
$INSBASE
 10
0.0
 20
0.0
 30
0.0
  9
$EXTMIN
 10
-28.52737259719402
 20
-24.552871518836469
 30
-0.000000039842541
  9
$EXTMAX
 10
84.771334184499779
 20
61.015382573320267
 30
0.0000000765687993
  9
$LIMMIN
 10
0.0
 20
0.0
  9
$LIMMAX
 10
420.0
 20
297.0
  9
$ORTHOMODE
 70
     0
  9
$REGENMODE
 70
     1
  9
$FILLMODE
 70
     1
  9
$QTEXTMODE
 70
     0
  9
$MIRRTEXT
 70
     1
  9
$DRAGMODE
 70
     2
  9
$LTSCALE
 40
10.0
  9
$OSMODE
 70
    39
  9
$ATTMODE
 70
     1
  9
$TEXTSIZE
 40
3.0
  9
$TRACEWID
 40
1.0
  9
$TEXTSTYLE
  7
YOKO
  9
$CLAYER
  8
240
  9
$CELTYPE
  6
BYLAYER
  9
$CECOLOR
 62
   256
  9
$DIMSCALE
 40
1.0
  9
$DIMASZ
 40
2.2299999999999991
  9
$DIMEXO
 40
0.5
  9
$DIMDLI
 40
2.5
  9
$DIMRND
 40
0.0
  9
$DIMDLE
 40
0.0
  9
$DIMEXE
 40
1.0
  9
$DIMTP
 40
0.0
  9
$DIMTM
 40
0.0
  9
$DIMTXT
 40
2.7999999999999989
  9
$DIMCEN
 40
0.0
  9
$DIMTSZ
 40
0.0
  9
$DIMTOL
 70
     0
  9
$DIMLIM
 70
     0
  9
$DIMTIH
 70
     0
  9
$DIMTOH
 70
     0
  9
$DIMSE1
 70
     0
  9
$DIMSE2
 70
     0
  9
$DIMTAD
 70
     3
  9
$DIMZIN
 70
     8
  9
$DIMBLK
  1

  9
$DIMASO
 70
     1
  9
$DIMSHO
 70
     1
  9
$DIMPOST
  1

  9
$DIMAPOST
  1

  9
$DIMALT
 70
     0
  9
$DIMALTD
 70
     2
  9
$DIMALTF
 40
25.399999999999999
  9
$DIMLFAC
 40
1.0
  9
$DIMTOFL
 70
     1
  9
$DIMTVP
 40
0.0
  9
$DIMTIX
 70
     1
  9
$DIMSOXD
 70
     0
  9
$DIMSAH
 70
     1
  9
$DIMBLK1
  1
OPEN
  9
$DIMBLK2
  1
OPEN
  9
$DIMSTYLE
  2
BIGT
  9
$DIMCLRD
 70
   256
  9
$DIMCLRE
 70
   256
  9
$DIMCLRT
 70
    40
  9
$DIMTFAC
 40
1.0
  9
$DIMGAP
 40
1.0
  9
$LUNITS
 70
     2
  9
$LUPREC
 70
     3
  9
$SKETCHINC
 40
1.0
  9
$FILLETRAD
 40
0.0
  9
$AUNITS
 70
     0
  9
$AUPREC
 70
     3
  9
$MENU
  1
.
  9
$ELEVATION
 40
0.0
  9
$PELEVATION
 40
0.0
  9
$THICKNESS
 40
0.0
  9
$LIMCHECK
 70
     0
  9
$BLIPMODE
 70
     0
  9
$CHAMFERA
 40
10.0
  9
$CHAMFERB
 40
10.0
  9
$SKPOLY
 70
     0
  9
$TDCREATE
 40
2455373.5983156022
  9
$TDUPDATE
 40
2456091.7271850118
  9
$TDINDWG
 40
0.0363634954
  9
$TDUSRTIMER
 40
0.0363633102
  9
$USRTIMER
 70
     1
  9
$ANGBASE
 50
0.0
  9
$ANGDIR
 70
     0
  9
$PDMODE
 70
     1
  9
$PDSIZE
 40
-5.0
  9
$PLINEWID
 40
0.0
  9
$COORDS
 70
     2
  9
$SPLFRAME
 70
     0
  9
$SPLINETYPE
 70
     6
  9
$SPLINESEGS
 70
     8
  9
$ATTDIA
 70
     1
  9
$ATTREQ
 70
     1
  9
$HANDLING
 70
     1
  9
$HANDSEED
  5
122A
  9
$SURFTAB1
 70
     6
  9
$SURFTAB2
 70
     6
  9
$SURFTYPE
 70
     6
  9
$SURFU
 70
     6
  9
$SURFV
 70
     6
  9
$UCSNAME
  2

  9
$UCSORG
 10
0.0
 20
0.0
 30
0.0
  9
$UCSXDIR
 10
1.0
 20
0.0
 30
0.0
  9
$UCSYDIR
 10
0.0
 20
1.0
 30
0.0
  9
$PUCSNAME
  2

  9
$PUCSORG
 10
0.0
 20
0.0
 30
0.0
  9
$PUCSXDIR
 10
1.0
 20
0.0
 30
0.0
  9
$PUCSYDIR
 10
0.0
 20
1.0
 30
0.0
  9
$USERI1
 70
     1
  9
$USERI2
 70
     0
  9
$USERI3
 70
     0
  9
$USERI4
 70
     0
  9
$USERI5
 70
     0
  9
$USERR1
 40
0.0
  9
$USERR2
 40
0.0
  9
$USERR3
 40
0.0
  9
$USERR4
 40
0.0
  9
$USERR5
 40
0.0
  9
$WORLDVIEW
 70
     1
  9
$SHADEDGE
 70
     3
  9
$SHADEDIF
 70
    70
  9
$TILEMODE
 70
     1
  9
$MAXACTVP
 70
    16
  9
$PLIMCHECK
 70
     0
  9
$PEXTMIN
 10
1.0000000000000000E+020
 20
1.0000000000000000E+020
 30
1.0000000000000000E+020
  9
$PEXTMAX
 10
-1.0000000000000000E+020
 20
-1.0000000000000000E+020
 30
-1.0000000000000000E+020
  9
$PLIMMIN
 10
0.0
 20
0.0
  9
$PLIMMAX
 10
420.0
 20
297.0
  9
$UNITMODE
 70
     0
  9
$VISRETAIN
 70
     0
  9
$PLINEGEN
 70
     0
  9
$PSLTSCALE
 70
     1
  0
ENDSEC
  0
SECTION
  2
TABLES
  0
TABLE
  2
VPORT
 70
    18
  0
VPORT
  2
*ACTIVE
 70
     0
 10
0.0
 20
0.0
 11
1.0
 21
1.0
 12
28.121980793652881
 22
18.231255527241899
 13
0.0
 23
0.0
 14
7.0
 24
7.0
 15
7.0
 25
7.0
 16
0.0
 26
0.0
 36
1.0
 17
0.0
 27
0.0
 37
0.0
 40
86.128133617296257
 41
1.4552401746724879
 42
50.0
 43
0.0
 44
0.0
 50
0.0
 51
0.0
 71
     0
 72
  2000
 73
     1
 74
     0
 75
     0
 76
     0
 77
     0
 78
     0
  0
ENDTAB
  0
TABLE
  2
LTYPE
 70
    16
  0
LTYPE
  2
CONTINUOUS
 70
     0
  3
Solid line
 72
    65
 73
     0
 40
0.0
  0
LTYPE
  2
CENTER2
 70
     0
  3
___ _ ___ _ ___ _ ___ _ ___ _ ___ _ ___ _ ___ _
 72
    65
 73
     4
 40
1.125
 49
0.75
 49
-0.125
 49
0.125
 49
-0.125
  0
LTYPE
  2
PHANTOM2
 70
     0
  3
___ _ _ ___ _ _ ___ _ _ ___ _ _ ___ _ _ ___ _ _
 72
    65
 73
     6
 40
1.25
 49
0.625
 49
-0.125
 49
0.125
 49
-0.125
 49
0.125
 49
-0.125
  0
LTYPE
  2
HIDDEN2
 70
     0
  3
_ _ _ _ _ _ _ _ _ _ _ _ _ _ _ _ _ _ _ _ _ _ _ _
 72
    65
 73
     2
 40
0.1875
 49
0.125
 49
-0.0625
  0
LTYPE
  2
AMCONSTR
 70
     0
  3
_______________________
 72
    65
 73
     2
 40
9999.0
 49
9999.0
 49
0.0
  0
LTYPE
  2
AM_ISO02W050
 70
     0
  3
__ __ __ __ __ __ __ __ __ __ __ __ __ __ __
 72
    65
 73
     2
 40
7.5
 49
6.0
 49
-1.5
  0
LTYPE
  2
HIDDEN
 70
     0
  3
Hidden __ __ __ __ __ __ __ __ __ __ __ __ __ _
 72
    65
 73
     2
 40
9.5249999999999986
 49
6.3499999999999988
 49
-3.1749999999999989
  0
LTYPE
  2
CENTER
 70
     0
  3
____ _ ____ _ ____ _ ____ _ ____ _ ____ _ ____ 
 72
    65
 73
     4
 40
2.0
 49
1.25
 49
-0.25
 49
0.25
 49
-0.25
  0
LTYPE
  2
ACJISTGB
 70
     0
  3
__ . . __ . .
 72
    65
 73
     6
 40
9.0
 49
4.0
 49
-1.0
 49
1.0
 49
-1.0
 49
1.0
 49
-1.0
  0
LTYPE
  2
ACJISTGL
 70
     0
  3
_ _ _ _ _
 72
    65
 73
     2
 40
3.0
 49
2.0
 49
-1.0
  0
LTYPE
  2
ACISOWELD
 70
     0
  3
_ _ _ _ _
 72
    65
 73
     2
 40
2.0
 49
2.0
 49
-1.0
  0
LTYPE
  2
ACISOTGB
 70
     0
  3
__ . . __ . .
 72
    65
 73
     6
 40
9.0
 49
4.0
 49
-1.0
 49
1.0
 49
-1.0
 49
1.0
 49
-1.0
  0
LTYPE
  2
ACISOTGL
 70
     0
  3
_ _ _ _ _
 72
    65
 73
     2
 40
3.0
 49
2.0
 49
-1.0
  0
LTYPE
  2
ACANSTGB
 70
     0
  3
__ . . __ . .
 72
    65
 73
     6
 40
0.35433070866
 49
0.15748031496
 49
-0.03937007874
 49
0.03937007874
 49
-0.03937007874
 49
0.03937007874
 49
-0.03937007874
  0
LTYPE
  2
ACANSTGL
 70
     0
  3
_ _ _ _ _
 72
    65
 73
     2
 40
0.11811023622
 49
0.07874015748
 49
-0.03937007874
  0
ENDTAB
  0
TABLE
  2
LAYER
 70
     8
  0
LAYER
  2
0
 70
     0
 62
     7
  6
CONTINUOUS
  0
LAYER
  2
240
 70
     0
 62
     4
  6
CONTINUOUS
  0
LAYER
  2
241
 70
     0
 62
   211
  6
CONTINUOUS
  0
LAYER
  2
245
 70
     0
 62
     2
  6
CENTER2
  0
LAYER
  2
250
 70
     0
 62
     3
  6
CONTINUOUS
  0
LAYER
  2
DEFPOINTS
 70
     0
 62
     7
  6
CONTINUOUS
  0
ENDTAB
  0
TABLE
  2
STYLE
 70
     8
  0
STYLE
  2
STANDARD
 70
     0
 40
0.0
 41
1.0
 50
0.0
 71
     0
 42
3.0
  3
romans.shx
  4
BIGFONT.SHX
  0
STYLE
  2
YOKO
 70
     0
 40
0.0
 41
1.0
 50
0.0
 71
     0
 42
3.0
  3
romans.shx
  4
extfont.shx
  0
STYLE
  2
ACJISGDT
 70
     0
 40
0.0
 41
1.0
 50
0.0
 71
     0
 42
3.0
  3
amgdt.shx
  4
extfont.shx
  0
STYLE
  2
ACJISTS
 70
     0
 40
1.0
 41
1.0
 50
0.0
 71
     0
 42
3.0
  3
amgdt.shx
  4
extfont.shx
  0
STYLE
  2
ACISOTS
 70
     0
 40
1.0
 41
1.0
 50
0.0
 71
     0
 42
3.0
  3
amgdt.shx
  4
extfont.shx
  0
STYLE
  2
ACISOGDT
 70
     0
 40
0.0
 41
1.0
 50
0.0
 71
     0
 42
3.0
  3
amgdt.shx
  4
extfont.shx
  0
STYLE
  2
ACANSTS
 70
     0
 40
1.0
 41
1.0
 50
0.0
 71
     0
 42
3.0
  3
romans.shx
  4
extfont.shx
  0
STYLE
  2
ACANSGDT
 70
     0
 40
0.0
 41
1.0
 50
0.0
 71
     0
 42
3.0
  3
amgdtans.shx
  4

  0
ENDTAB
  0
TABLE
  2
VIEW
 70
     0
  0
ENDTAB
  0
TABLE
  2
UCS
 70
     0
  0
ENDTAB
  0
TABLE
  2
APPID
 70
    33
  0
APPID
  2
ACAD
 70
     0
  0
APPID
  2
GLOBAL
 70
     0
  0
APPID
  2
DETAIL
 70
     0
  0
APPID
  2
GRPNAME
 70
     0
  0
APPID
  2
GPARA
 70
     0
  0
APPID
  2
DCO15
 70
     0
  0
APPID
  2
ITEMNAME
 70
     0
  0
APPID
  2
GRADE_0
 70
     0
  0
APPID
  2
ACAD_PSEXT
 70
     0
  0
APPID
  2
CONTENTBLOCKICON
 70
     0
  0
APPID
  2
MCAD_NO_VIS
 70
     0
  0
APPID
  2
ACAD_TEMP_GRAPHIC
 70
     0
  0
APPID
  2
ACATTRIBSERVICES
 70
     0
  0
APPID
  2
GENIUS_GENSCREG_15
 70
     0
  0
APPID
  2
GENIUS_GENODEF_13
 70
     0
  0
APPID
  2
GENIUS_GENOBJ-N-SDF_13
 70
     0
  0
APPID
  2
GENIUS_GENREC_14
 70
     0
  0
APPID
  2
GENIUS_GENOBJ-N-REC_13
 70
     0
  0
APPID
  2
GENIUS_GENDIMSH_14
 70
     0
  0
APPID
  2
GENIUS_GENOBJ-N-DIM_13
 70
     0
  0
APPID
  2
GENIUS_GENDIM_13
 70
     0
  0
APPID
  2
GENIUS_GENDTOL_13
 70
     0
  0
APPID
  2
GENIUS_GENOLIS_13
 70
     0
  0
APPID
  2
GENIUS_GENOENT_13
 70
     0
  0
APPID
  2
GENIUS_GENOBJ-F-FEM_13
 70
     0
  0
APPID
  2
GENIUS_GENOREF_13
 70
     0
  0
APPID
  2
GENIUS_GEFFEM_13
 70
     0
  0
APPID
  2
GENIUS_GEFFEMP_13
 70
     0
  0
APPID
  2
AD_DRAW
 70
     0
  0
APPID
  2
DESIGNERASSEMBLIES
 70
     0
  0
APPID
  2
ACADM_DIM_EDIT
 70
     0
  0
APPID
  2
AMDT_DM_ADJ
 70
     0
  0
APPID
  2
GENIUS_GENOBJ-N-FIL_13
 70
     0
  0
ENDTAB
  0
TABLE
  2
DIMSTYLE
 70
    29
  0
DIMSTYLE
  2
BIGT
 70
     0
  3

  4

  5
OPEN
  6

  7

 40
1.0
 41
2.2299999999999991
 42
0.5
 43
7.0
 44
1.0
 45
0.0
 46
0.0
 47
0.0
 48
0.01
140
2.7999999999999989
141
0.0
142
0.0
143
25.399999999999999
144
1.0
145
0.0
146
1.0
147
1.0
 71
     0
 72
     0
 73
     0
 74
     0
 75
     0
 76
     0
 77
     3
 78
     9
170
     0
171
     2
172
     1
173
     0
174
     1
175
     0
176
   256
177
   256
178
    40
  0
DIMSTYLE
  2
BIGT$0
 70
     0
  3

  4

  5
OPEN
  6

  7

 40
1.0
 41
2.2299999999999991
 42
0.5
 43
7.0
 44
1.0
 45
0.0
 46
0.0
 47
0.0
 48
0.01
140
2.7999999999999989
141
0.0
142
0.0
143
25.399999999999999
144
1.0
145
0.0
146
1.0
147
1.0
 71
     0
 72
     0
 73
     0
 74
     0
 75
     0
 76
     0
 77
     3
 78
     9
170
     0
171
     2
172
     1
173
     0
174
     0
175
     0
176
   256
177
   256
178
    40
  0
DIMSTYLE
  2
BIGT$2
 70
     0
  3

  4

  5
OPEN
  6

  7

 40
1.0
 41
2.2299999999999991
 42
0.5
 43
7.0
 44
1.0
 45
0.0
 46
0.0
 47
0.0
 48
0.01
140
2.7999999999999989
141
0.0
142
0.0
143
25.399999999999999
144
1.0
145
0.0
146
1.0
147
1.0
 71
     0
 72
     0
 73
     0
 74
     0
 75
     0
 76
     0
 77
     3
 78
     9
170
     0
171
     2
172
     1
173
     0
174
     0
175
     0
176
   256
177
   256
178
    40
  0
DIMSTYLE
  2
BIGT$3
 70
     0
  3

  4

  5
OPEN
  6

  7

 40
1.0
 41
2.2299999999999991
 42
0.5
 43
2.5
 44
1.0
 45
0.0
 46
0.0
 47
0.0
 48
0.01
140
2.7999999999999989
141
0.0
142
0.0
143
25.399999999999999
144
1.0
145
0.0
146
1.0
147
1.0
 71
     0
 72
     0
 73
     0
 74
     0
 75
     0
 76
     0
 77
     3
 78
     9
170
     0
171
     2
172
     1
173
     0
174
     0
175
     0
176
   256
177
   256
178
    40
  0
DIMSTYLE
  2
BIGT$4
 70
     0
  3

  4

  5
OPEN
  6

  7

 40
1.0
 41
2.2299999999999991
 42
0.5
 43
2.5
 44
1.0
 45
0.0
 46
0.0
 47
0.0
 48
0.01
140
2.7999999999999989
141
0.0
142
0.0
143
25.399999999999999
144
1.0
145
0.0
146
1.0
147
1.0
 71
     0
 72
     0
 73
     0
 74
     0
 75
     0
 76
     0
 77
     3
 78
     9
170
     0
171
     2
172
     1
173
     0
174
     0
175
     0
176
   256
177
   256
178
    40
  0
DIMSTYLE
  2
BIGT$6
 70
     0
  3

  4

  5
OPEN
  6

  7

 40
1.0
 41
2.2299999999999991
 42
0.5
 43
2.5
 44
1.0
 45
0.0
 46
0.0
 47
0.0
 48
0.01
140
2.7999999999999989
141
0.0
142
0.0
143
25.399999999999999
144
1.0
145
0.0
146
1.0
147
1.0
 71
     0
 72
     0
 73
     0
 74
     0
 75
     0
 76
     0
 77
     3
 78
     9
170
     0
171
     2
172
     1
173
     0
174
     0
175
     0
176
   256
177
   256
178
    40
  0
DIMSTYLE
  2
BIGT$7
 70
     0
  3

  4

  5
OPEN
  6

  7

 40
0.0
 41
2.2299999999999991
 42
0.5
 43
7.0
 44
1.0
 45
0.0
 46
0.0
 47
0.0
 48
0.01
140
2.7999999999999989
141
0.0
142
0.0
143
25.399999999999999
144
1.0
145
0.0
146
1.0
147
1.0
 71
     0
 72
     0
 73
     0
 74
     0
 75
     0
 76
     0
 77
     3
 78
     9
170
     0
171
     2
172
     0
173
     0
174
     0
175
     0
176
   256
177
   256
178
    40
  0
DIMSTYLE
  2
BIGT$SF
 70
     0
  3

  4

  5
OPEN
  6

  7

 40
1.0
 41
2.2299999999999991
 42
0.5
 43
7.0
 44
1.0
 45
0.0
 46
0.0
 47
0.0
 48
0.0
140
2.7999999999999989
141
0.0
142
0.0
143
25.399999999999999
144
1.0
145
0.0
146
1.0
147
1.0
 71
     0
 72
     0
 73
     0
 74
     0
 75
     0
 76
     0
 77
     3
 78
     9
170
     0
171
     2
172
     1
173
     0
174
     0
175
     0
176
   256
177
   256
178
    40
  0
DIMSTYLE
  2
BIGT$SH
 70
     0
  3

  4

  5
OPEN
  6

  7

 40
1.0
 41
2.2299999999999991
 42
0.5
 43
7.0
 44
1.0
 45
0.0
 46
0.0
 47
0.0
 48
0.0
140
2.7999999999999989
141
0.0
142
0.0
143
25.399999999999999
144
1.0
145
0.0
146
1.0
147
1.0
 71
     0
 72
     0
 73
     0
 74
     0
 75
     0
 76
     0
 77
     3
 78
     9
170
     0
171
     2
172
     1
173
     0
174
     0
175
     0
176
   256
177
   256
178
    40
  0
DIMSTYLE
  2
AM_ISO
 70
     0
  3

  4
"
  5

  6

  7

 40
1.0
 41
2.5
 42
1.0
 43
10.0
 44
1.0
 45
0.0
 46
0.0
 47
0.1
 48
0.1
140
3.5
141
0.0
142
0.0
143
0.0393701
144
1.0
145
0.0
146
0.71
147
1.5
 71
     0
 72
     0
 73
     0
 74
     0
 75
     0
 76
     0
 77
     1
 78
     8
170
     0
171
     2
172
     1
173
     0
174
     0
175
     0
176
   256
177
   256
178
     2
  0
DIMSTYLE
  2
AM_ISO$3
 70
     0
  3

  4
"
  5

  6

  7

 40
1.0
 41
2.5
 42
1.0
 43
10.0
 44
1.0
 45
0.0
 46
0.0
 47
0.1
 48
0.1
140
3.5
141
0.0
142
0.0
143
0.0393701
144
1.0
145
0.0
146
0.71
147
1.5
 71
     0
 72
     0
 73
     0
 74
     1
 75
     0
 76
     0
 77
     1
 78
     8
170
     0
171
     2
172
     0
173
     0
174
     0
175
     0
176
   256
177
   256
178
     2
  0
DIMSTYLE
  2
AM_ISO$4
 70
     0
  3

  4
"
  5

  6

  7

 40
1.0
 41
2.5
 42
1.0
 43
10.0
 44
1.0
 45
0.0
 46
0.0
 47
0.1
 48
0.1
140
3.5
141
0.0
142
0.0
143
0.0393701
144
1.0
145
0.0
146
0.71
147
1.5
 71
     0
 72
     0
 73
     0
 74
     1
 75
     0
 76
     0
 77
     1
 78
     8
170
     0
171
     2
172
     0
173
     0
174
     0
175
     0
176
   256
177
   256
178
     2
  0
DIMSTYLE
  2
AM_ISO$6
 70
     0
  3

  4
"
  5

  6

  7

 40
1.0
 41
2.5
 42
1.0
 43
10.0
 44
1.0
 45
0.0
 46
0.0
 47
0.1
 48
0.1
140
3.5
141
0.0
142
0.0
143
0.0393701
144
1.0
145
0.0
146
0.71
147
1.5
 71
     0
 72
     0
 73
     0
 74
     0
 75
     0
 76
     0
 77
     0
 78
     8
170
     0
171
     2
172
     1
173
     0
174
     0
175
     0
176
   256
177
   256
178
     2
  0
DIMSTYLE
  2
AM_ISO$7
 70
     0
  3

  4
"
  5

  6

  7

 40
1.0
 41
2.5
 42
1.0
 43
10.0
 44
1.0
 45
0.0
 46
0.0
 47
0.1
 48
0.1
140
5.0
141
0.0
142
0.0
143
0.0393701
144
1.0
145
0.0
146
0.71
147
1.5
 71
     0
 72
     0
 73
     0
 74
     0
 75
     0
 76
     0
 77
     1
 78
     8
170
     0
171
     2
172
     1
173
     0
174
     0
175
     0
176
   256
177
   256
178
     2
  0
DIMSTYLE
  2
AM_ISO$SF
 70
     0
  3

  4
"
  5

  6

  7

 40
1.0
 41
2.5
 42
1.0
 43
10.0
 44
1.0
 45
0.0
 46
0.0
 47
0.1
 48
0.1
140
3.5
141
0.0
142
0.0
143
0.0393701
144
1.0
145
0.0
146
0.71
147
1.5
 71
     0
 72
     0
 73
     0
 74
     0
 75
     1
 76
     1
 77
     1
 78
     8
170
     0
171
     2
172
     1
173
     0
174
     0
175
     0
176
   256
177
   256
178
     2
  0
DIMSTYLE
  2
AM_ISO$SH
 70
     0
  3

  4
"
  5

  6
GENAXEH
  7

 40
1.0
 41
2.5
 42
1.0
 43
10.0
 44
1.0
 45
0.0
 46
0.0
 47
0.1
 48
0.1
140
3.5
141
0.0
142
0.0
143
0.0393701
144
2.0
145
0.0
146
0.71
147
1.5
 71
     0
 72
     0
 73
     0
 74
     0
 75
     1
 76
     1
 77
     1
 78
     8
170
     0
171
     2
172
     1
173
     1
174
     0
175
     0
176
   256
177
   256
178
     2
  0
DIMSTYLE
  2
TECHNICAL_OSAKA
 70
     0
  3

  4
"
  5
OPEN30
  6

  7

 40
1.0
 41
2.5
 42
1.0
 43
10.0
 44
1.0
 45
0.0
 46
0.0
 47
0.1
 48
0.1
140
2.7999999999999989
141
0.0
142
0.0
143
0.0393701
144
1.0
145
0.0
146
0.71
147
1.5
 71
     0
 72
     0
 73
     0
 74
     0
 75
     0
 76
     0
 77
     3
 78
     8
170
     0
171
     2
172
     1
173
     0
174
     0
175
     0
176
   256
177
   256
178
    40
  0
DIMSTYLE
  2
TECHNICAL_OSAKA$3
 70
     0
  3

  4
"
  5
OPEN30
  6

  7

 40
1.0
 41
2.5
 42
1.0
 43
10.0
 44
1.0
 45
0.0
 46
0.0
 47
0.1
 48
0.1
140
2.7999999999999989
141
0.0
142
0.0
143
0.0393701
144
1.0
145
0.0
146
0.71
147
1.5
 71
     0
 72
     0
 73
     0
 74
     1
 75
     0
 76
     0
 77
     3
 78
     8
170
     0
171
     2
172
     0
173
     0
174
     0
175
     0
176
   256
177
   256
178
    40
  0
DIMSTYLE
  2
TECHNICAL_OSAKA$4
 70
     0
  3

  4
"
  5
OPEN30
  6

  7

 40
1.0
 41
2.5
 42
1.0
 43
10.0
 44
1.0
 45
0.0
 46
0.0
 47
0.1
 48
0.1
140
2.7999999999999989
141
0.0
142
0.0
143
0.0393701
144
1.0
145
0.0
146
0.71
147
1.5
 71
     0
 72
     0
 73
     0
 74
     1
 75
     0
 76
     0
 77
     3
 78
     8
170
     0
171
     2
172
     0
173
     0
174
     0
175
     0
176
   256
177
   256
178
    40
  0
DIMSTYLE
  2
TECHNICAL_OSAKA$6
 70
     0
  3

  4
"
  5
OPEN30
  6

  7

 40
1.0
 41
2.5
 42
1.0
 43
10.0
 44
1.0
 45
0.0
 46
0.0
 47
0.1
 48
0.1
140
2.7999999999999989
141
0.0
142
0.0
143
0.0393701
144
1.0
145
0.0
146
0.71
147
1.5
 71
     0
 72
     0
 73
     0
 74
     0
 75
     0
 76
     0
 77
     0
 78
     8
170
     0
171
     2
172
     1
173
     0
174
     0
175
     0
176
   256
177
   256
178
    40
  0
DIMSTYLE
  2
TECHNICAL_OSAKA$7
 70
     0
  3

  4
"
  5
OPEN30
  6

  7

 40
1.0
 41
2.5
 42
1.0
 43
10.0
 44
1.0
 45
0.0
 46
0.0
 47
0.1
 48
0.1
140
2.7999999999999989
141
0.0
142
0.0
143
0.0393701
144
1.0
145
0.0
146
0.71
147
1.5
 71
     0
 72
     0
 73
     0
 74
     0
 75
     0
 76
     0
 77
     3
 78
     8
170
     0
171
     2
172
     1
173
     0
174
     0
175
     0
176
   256
177
   256
178
    40
  0
DIMSTYLE
  2
TECHNICAL_OSAKA$SF
 70
     0
  3

  4
"
  5
OPEN30
  6
OPEN30
  7
OPEN30
 40
1.0
 41
2.5
 42
1.0
 43
10.0
 44
1.0
 45
0.0
 46
0.0
 47
0.1
 48
0.1
140
3.5
141
0.0
142
0.0
143
0.0393701
144
1.0
145
0.0
146
0.71
147
1.5
 71
     0
 72
     0
 73
     0
 74
     0
 75
     1
 76
     1
 77
     3
 78
     8
170
     0
171
     2
172
     1
173
     0
174
     0
175
     0
176
   256
177
   256
178
    40
  0
DIMSTYLE
  2
TECHNICAL_OSAKA$SH
 70
     0
  3

  4
"
  5
OPEN30
  6
GENAXEH
  7
OPEN30
 40
1.0
 41
2.5
 42
1.0
 43
10.0
 44
1.0
 45
0.0
 46
0.0
 47
0.1
 48
0.1
140
3.5
141
0.0
142
0.0
143
0.0393701
144
2.0
145
0.0
146
0.71
147
1.5
 71
     0
 72
     0
 73
     0
 74
     0
 75
     1
 76
     1
 77
     3
 78
     8
170
     0
171
     2
172
     1
173
     1
174
     0
175
     0
176
   256
177
   256
178
    40
  0
DIMSTYLE
  2
AM_ANSI
 70
     0
  3

  4
mm
  5

  6

  7

 40
1.0
 41
0.1
 42
0.05
 43
0.5
 44
0.1
 45
0.0
 46
0.0
 47
0.1
 48
0.1
140
0.12
141
0.0
142
0.0
143
25.399999999999999
144
1.0
145
0.0
146
0.71
147
0.06
 71
     0
 72
     0
 73
     1
 74
     1
 75
     0
 76
     0
 77
     0
 78
     7
170
     0
171
     2
172
     0
173
     0
174
     0
175
     0
176
   256
177
   256
178
     2
  0
DIMSTYLE
  2
AM_ANSI$3
 70
     0
  3

  4
mm
  5

  6

  7

 40
1.0
 41
0.1
 42
0.05
 43
0.5
 44
0.1
 45
0.0
 46
0.0
 47
0.1
 48
0.1
140
0.12
141
0.0
142
0.0
143
25.399999999999999
144
1.0
145
0.0
146
0.71
147
0.06
 71
     0
 72
     0
 73
     1
 74
     1
 75
     0
 76
     0
 77
     0
 78
     7
170
     0
171
     2
172
     0
173
     0
174
     0
175
     0
176
   256
177
   256
178
     2
  0
DIMSTYLE
  2
AM_ANSI$4
 70
     0
  3

  4
mm
  5

  6

  7

 40
1.0
 41
0.1
 42
0.05
 43
0.5
 44
0.1
 45
0.0
 46
0.0
 47
0.1
 48
0.1
140
0.12
141
0.0
142
0.0
143
25.399999999999999
144
1.0
145
0.0
146
0.71
147
0.06
 71
     0
 72
     0
 73
     1
 74
     1
 75
     0
 76
     0
 77
     0
 78
     7
170
     0
171
     2
172
     0
173
     0
174
     0
175
     0
176
   256
177
   256
178
     2
  0
DIMSTYLE
  2
AM_ANSI$7
 70
     0
  3

  4
mm
  5

  6

  7

 40
1.0
 41
0.1
 42
0.05
 43
0.5
 44
0.1
 45
0.0
 46
0.0
 47
0.1
 48
0.1
140
0.24
141
0.0
142
0.0
143
25.399999999999999
144
1.0
145
0.0
146
0.71
147
0.06
 71
     0
 72
     0
 73
     1
 74
     1
 75
     0
 76
     0
 77
     0
 78
     7
170
     0
171
     2
172
     0
173
     0
174
     0
175
     0
176
   256
177
   256
178
     2
  0
DIMSTYLE
  2
AM_ANSI$SF
 70
     0
  3

  4
mm
  5

  6

  7

 40
1.0
 41
0.1
 42
0.05
 43
0.5
 44
0.1
 45
0.0
 46
0.0
 47
0.1
 48
0.1
140
0.12
141
0.0
142
0.0
143
25.399999999999999
144
1.0
145
0.0
146
0.71
147
0.06
 71
     0
 72
     0
 73
     1
 74
     1
 75
     1
 76
     1
 77
     0
 78
     7
170
     0
171
     2
172
     0
173
     0
174
     0
175
     0
176
   256
177
   256
178
     2
  0
DIMSTYLE
  2
AM_ANSI$SH
 70
     0
  3

  4
mm
  5

  6

  7

 40
1.0
 41
0.1
 42
0.05
 43
0.5
 44
0.1
 45
0.0
 46
0.0
 47
0.1
 48
0.1
140
0.12
141
0.0
142
0.0
143
25.399999999999999
144
1.0
145
0.0
146
0.71
147
0.06
 71
     0
 72
     0
 73
     1
 74
     1
 75
     1
 76
     1
 77
     0
 78
     7
170
     0
171
     2
172
     0
173
     1
174
     0
175
     0
176
   256
177
   256
178
     2
  0
ENDTAB
  0
ENDSEC
  0
SECTION
  2
BLOCKS
  0
BLOCK
  8
0
  2
$MODEL_SPACE
 70
     0
 10
0.0
 20
0.0
 30
0.0
  3
$MODEL_SPACE
  1

  0
ENDBLK
  5
1C
  8
0
  0
BLOCK
 67
     1
  8
0
  2
$PAPER_SPACE
 70
     0
 10
0.0
 20
0.0
 30
0.0
  3
$PAPER_SPACE
  1

  0
ENDBLK
  5
19
 67
     1
  8
0
  0
BLOCK
  8
0
  2
_OPEN
 70
     0
 10
0.0
 20
0.0
 30
0.0
  3
_OPEN
  1

  0
LINE
  5
106B
  8
0
  6
BYBLOCK
 62
     0
 10
-1.0
 20
0.1666666666666666
 30
0.0
 11
0.0
 21
0.0
 31
0.0
  0
LINE
  5
106C
  8
0
  6
BYBLOCK
 62
     0
 10
-1.0
 20
-0.1666666666666666
 30
0.0
 11
0.0
 21
0.0
 31
0.0
  0
LINE
  5
106D
  8
0
  6
BYBLOCK
 62
     0
 10
0.0
 20
0.0
 30
0.0
 11
-1.0
 21
0.0
 31
0.0
  0
ENDBLK
  5
106E
  8
0
  0
BLOCK
  8
0
  2
矢印なし
 70
     0
 10
0.0
 20
0.0
 30
0.0
  3
矢印なし
  1

  0
ENDBLK
  5
6E5
  8
0
  0
BLOCK
  8
0
  2
GENAXEH
 70
     0
 10
0.0
 20
0.0
 30
0.0
  3
GENAXEH
  1

  0
LINE
  5
1096
  8
0
 10
-1.0
 20
0.0
 30
0.0
 11
1.0
 21
0.0
 31
0.0
  0
ENDBLK
  5
1097
  8
0
  0
BLOCK
  8
0
  2
_OPEN30
 70
     0
 10
0.0
 20
0.0
 30
0.0
  3
_OPEN30
  1

  0
LINE
  5
10BB
  8
0
  6
BYBLOCK
 62
     0
 10
-1.0
 20
0.26794919
 30
0.0
 11
0.0
 21
0.0
 31
0.0
  0
LINE
  5
10BC
  8
0
  6
BYBLOCK
 62
     0
 10
0.0
 20
0.0
 30
0.0
 11
-1.0
 21
-0.26794919
 31
0.0
  0
LINE
  5
10BD
  8
0
  6
BYBLOCK
 62
     0
 10
0.0
 20
0.0
 30
0.0
 11
-1.0
 21
0.0
 31
0.0
  0
ENDBLK
  5
10BE
  8
0
  0
BLOCK
  8
0
  2
*U14
 70
     1
 10
0.0
 20
0.0
 30
0.0
  3
*U14
  1

  0
TEXT
  5
120C
  8
250
 62
    40
 10
31.857142857142861
 20
36.0
 30
0.0
 40
3.0
  1
11
  0
ENDBLK
  5
120E
  8
0
  0
BLOCK
  8
0
  2
*U15
 70
     1
 10
0.0
 20
0.0
 30
0.0
  3
*U15
  1

  0
TEXT
  5
1210
  8
250
 62
    40
 10
-11.5
 20
-5.2857142857142847
 30
0.0
 40
3.0
  1
10.4
 50
90.0
  0
ENDBLK
  5
1212
  8
0
  0
BLOCK
  8
0
  2
*U16
 70
     1
 10
0.0
 20
0.0
 30
0.0
  3
*U16
  1

  0
TEXT
  5
1214
  8
250
 62
    40
 10
51.5
 20
-4.0714285714285712
 30
0.0
 40
3.0
  1
\U+2205
 50
90.0
  0
TEXT
  5
1215
  8
250
 62
    40
 10
51.5
 20
-1.357142857142857
 30
0.0
 40
3.0
  1
50
 50
90.0
  0
ENDBLK
  5
1217
  8
0
  0
BLOCK
  8
0
  2
*U17
 70
     1
 10
0.0
 20
0.0
 30
0.0
  3
*U17
  1

  0
TEXT
  5
1219
  8
250
 62
    40
 10
-25.5
 20
-4.0714285714285712
 30
0.0
 40
3.0
  1
\U+2205
 50
90.0
  0
TEXT
  5
121A
  8
250
 62
    40
 10
-25.5
 20
-1.357142857142857
 30
0.0
 40
3.0
  1
47
 50
90.0
  0
ENDBLK
  5
121C
  8
0
  0
BLOCK
  8
0
  2
*U18
 70
     1
 10
0.0
 20
0.0
 30
0.0
  3
*U18
  1

  0
TEXT
  5
121E
  8
250
 62
    40
 10
-18.5
 20
-4.0470630014285707
 30
0.0
 40
3.0
  1
\U+2205
 50
90.0
  0
TEXT
  5
121F
  8
250
 62
    40
 10
-18.5
 20
-1.3327772871428569
 30
0.0
 40
3.0
  1
22
 50
90.0
  0
ENDBLK
  5
1221
  8
0
  0
BLOCK
  8
0
  2
*U19
 70
     1
 10
0.0
 20
0.0
 30
0.0
  3
*U19
  1

  0
TEXT
  5
1223
  8
250
 62
    40
 10
17.142857142857139
 20
43.0
 30
0.0
 40
3.0
  1
40
  0
ENDBLK
  5
1225
  8
0
  0
ENDSEC
  0
SECTION
  2
ENTITIES
  0
INSERT
  5
6E6
  8
245
  2
矢印なし
 10
175.62382697000001
 20
90.551235719999994
 30
0.0
  0
TEXT
  5
BE5
  8
241
 10
0.0
 20
56.0
 30
0.0
 40
5.0
  1
FMH22-FCM50115-40
  7
YOKO
 11
0.0
 21
56.0
 31
0.0
 73
     1
  0
LINE
  5
10D1
  8
241
  6
CONTINUOUS
 10
24.0
 20
-3.9002220332327169
 30
0.0
 11
24.0
 21
-17.324842305082019
 31
0.0
  0
LINE
  5
10D2
  8
241
  6
CONTINUOUS
 10
25.399999999999999
 20
-4.594198451034865
 30
0.0
 11
25.399999999999999
 21
-17.571700078073871
 31
0.0
  0
LINE
  5
10D6
  8
240
 10
0.0
 20
-23.5
 30
0.0
 11
0.0
 21
-5.2000000000000002
 31
0.0
  0
LINE
  5
10D7
  8
241
 10
8.5000039300000001
 20
0.0
 30
0.0
 11
8.5000039300000001
 21
-22.504148659999998
 31
0.0
  0
LINE
  5
10D8
  8
241
 10
6.5000039300000001
 20
-23.5
 30
0.0
 11
6.5000039300000001
 21
0.0
 31
0.0
  0
LINE
  5
10D9
  8
240
 10
24.0
 20
-24.0
 30
0.0
 11
9.4719480100000002
 21
-22.449059259999999
 31
0.0
  0
LINE
  5
10DA
  8
240
  6
CONTINUOUS
 10
6.5000039300000001
 20
-23.5
 30
0.0
 11
0.0
 21
-23.5
 31
0.0
  0
LINE
  5
10DB
  8
240
 10
6.5000039300000001
 20
-23.5
 30
0.0
 11
7.6534928200000003
 21
-22.834032870000001
 31
0.0
  0
ARC
  5
10DC
  8
240
 10
9.1534928200000003
 20
-25.432109090000001
 30
0.0
 40
3.0
 50
83.906473340000005
 51
120.0
  0
LINE
  5
10DD
  8
240
 10
25.399999999999999
 20
-24.215420559999998
 30
0.0
 11
26.411587906870729
 21
-24.21069351376023
 31
0.0
  0
LINE
  5
10DF
  8
240
 10
24.00030456
 20
-24.0
 30
0.0
 11
25.399999999999999
 21
-24.21539392
 31
0.0
  0
LINE
  5
10E1
  8
245
 10
-1.0
 20
0.0
 30
0.0
 11
40.563817419999999
 21
0.0
 31
0.0
  0
LINE
  5
10E2
  8
240
 10
24.0
 20
24.0
 30
0.0
 11
9.4719480100000002
 21
22.449059259999999
 31
0.0
  0
LINE
  5
10E3
  8
241
 10
8.5000039300000001
 20
0.0
 30
0.0
 11
8.5000039300000001
 21
22.504148659999998
 31
0.0
  0
LINE
  5
10E4
  8
241
 10
6.5000039300000001
 20
23.5
 30
0.0
 11
6.5000039300000001
 21
0.0
 31
0.0
  0
LINE
  5
10E5
  8
240
 10
0.0
 20
23.5
 30
0.0
 11
0.0
 21
5.2000000000000002
 31
0.0
  0
LINE
  5
10E6
  8
240
 10
0.0
 20
-5.2000000000000002
 30
0.0
 11
6.0
 21
-5.2000000000000002
 31
0.0
  0
LINE
  5
10E7
  8
240
 10
0.0
 20
5.2000000000000002
 30
0.0
 11
6.0
 21
5.2000000000000002
 31
0.0
  0
LINE
  5
10E8
  8
240
 10
6.0
 20
5.2000000000000002
 30
0.0
 11
6.0
 21
-5.2000000000000002
 31
0.0
  0
LINE
  5
10EA
  8
241
  6
HIDDEN2
 10
18.0
 20
11.0
 30
0.0
 11
0.0
 21
11.0
 31
0.0
  0
LINE
  5
10EB
  8
240
  6
CONTINUOUS
 10
6.5000039300000001
 20
23.5
 30
0.0
 11
0.0
 21
23.5
 31
0.0
  0
ARC
  5
10EC
  8
240
 10
9.1534928200000003
 20
25.432109090000001
 30
0.0
 40
3.0
 50
240.0
 51
276.09352666000001
  0
LINE
  5
10ED
  8
240
 10
6.5000039300000001
 20
23.5
 30
0.0
 11
7.6534928200000003
 21
22.834032870000001
 31
0.0
  0
LINE
  5
10EE
  8
241
  6
CONTINUOUS
 10
24.0
 20
19.34513434315302
 30
0.0
 11
24.0
 21
8.164795130171516
 31
0.0
  0
LINE
  5
10EF
  8
241
  6
CONTINUOUS
 10
25.400000000000009
 20
18.916932910796799
 30
0.0
 11
25.399999999999999
 21
7.9179373571796656
 31
0.0
  0
LINE
  5
10F8
  8
240
 10
25.399999999999999
 20
24.215420559999998
 30
0.0
 11
27.49229678927064
 21
24.205643472311412
 31
0.0
  0
LINE
  5
10FC
  8
240
 10
24.00030456
 20
24.0
 30
0.0
 11
25.399999999999999
 21
24.21539392
 31
0.0
  0
LINE
  5
1167
  8
241
 10
27.127163757783691
 20
-18.097492144362882
 30
0.0
 11
39.400000000000013
 21
-22.564439226553159
 31
0.0
  0
LINE
  5
1168
  8
240
 10
39.39999999999997
 20
-22.564439226553141
 30
0.0
 11
39.999999999999943
 21
-22.782821367112859
 31
0.0
  0
ARC
  5
1169
  8
241
 10
18.18965978457749
 20
-21.16387056514645
 30
0.0
 40
4.789659784577398
 50
79.999982399904255
 51
202.54151736832279
  0
LINE
  5
116A
  8
241
 10
19.021375477813979
 20
-16.446976475003851
 30
0.0
 11
27.226527555982791
 21
-17.893766167201129
 31
0.0
  0
LINE
  5
116B
  8
241
  6
CONTINUOUS
 10
28.623511385290598
 20
-15.029524855343571
 30
0.0
 11
27.127163757783691
 21
-18.097492144362882
 31
0.0
  0
LINE
  5
116C
  8
241
  6
CONTINUOUS
 10
39.39999999999997
 20
-16.929710555414481
 30
0.0
 11
28.623511385290598
 21
-15.029524855343571
 31
0.0
  0
LINE
  5
116D
  8
241
 10
39.384526498252399
 20
-16.92698215957034
 30
0.0
 11
39.39999999999997
 21
-17.074202694579942
 31
0.0
  0
LINE
  5
116E
  8
240
 10
39.39999999999997
 20
-17.074202694579888
 30
0.0
 11
39.999999999999943
 21
-22.782821367112788
 31
0.0
  0
LINE
  5
116F
  8
240
 10
39.399999999959839
 20
-23.90875167618313
 30
0.0
 11
39.39999999999997
 21
-22.564439226553141
 31
0.0
  0
LINE
  5
1170
  8
240
 10
39.39999999999997
 20
-17.074202694580009
 30
0.0
 11
39.400000000000013
 21
2.925198208700396
 31
0.0
  0
LINE
  5
1171
  8
240
 10
39.40000000000002
 20
8.4154347406737902
 30
0.0
 11
39.40000000000002
 21
13.89504771674612
 31
0.0
  0
LINE
  5
1172
  8
240
 10
39.10000000000008
 20
15.5
 30
0.0
 11
39.10000000000008
 21
14.609190559600361
 31
0.0
  0
LINE
  5
1173
  8
241
 10
14.81503361711202
 20
22.154431315507541
 30
0.0
 11
38.692483191444119
 21
14.851318380691589
 31
0.0
  0
ARC
  5
1174
  8
240
 10
38.40000000000002
 20
13.89504771674612
 30
0.0
 40
1.0
 50
0.0
 51
45.572978399097167
  0
ARC
  5
1175
  8
241
 10
38.40000000000002
 20
13.89504771674612
 30
0.0
 40
1.0
 50
45.572978399097167
 51
72.993320296257721
  0
LINE
  5
1176
  8
245
 10
29.867493990407699
 20
20.109999999999989
 30
0.0
 11
37.2782809322822
 21
20.109999999999989
 31
0.0
  0
LINE
  5
1177
  8
245
 10
33.607000000000248
 20
16.584184363733069
 30
0.0
 11
33.607000000000248
 21
23.573165947193559
 31
0.0
  0
LINE
  5
1178
  8
241
 10
27.127163757783759
 20
7.3921452908906309
 30
0.0
 11
39.40000000000002
 21
2.9251982087003792
 31
0.0
  0
LINE
  5
1179
  8
240
 10
39.40000000000002
 20
2.9251982087003912
 30
0.0
 11
40.0
 21
2.7068160681406801
 31
0.0
  0
ARC
  5
117A
  8
241
 10
18.18965978457754
 20
4.3257668701070831
 30
0.0
 40
4.789659784577398
 50
79.999982399904255
 51
259.99999999999977
  0
LINE
  5
117B
  8
241
 10
19.02137547781405
 20
9.0426609602496875
 30
0.0
 11
27.226527555982841
 21
7.5958712680524032
 31
0.0
  0
LINE
  5
117C
  8
241
  6
CONTINUOUS
 10
28.623511385290659
 20
10.460112579909961
 30
0.0
 11
27.127163757783759
 21
7.3921452908906309
 31
0.0
  0
LINE
  5
117D
  8
241
  6
CONTINUOUS
 10
39.40000000000002
 20
8.5599268798390522
 30
0.0
 11
28.623511385290659
 21
10.460112579909961
 31
0.0
  0
LINE
  5
117E
  8
241
 10
39.384526498252448
 20
8.5626552756831966
 30
0.0
 11
39.40000000000002
 21
8.4154347406736072
 31
0.0
  0
LINE
  5
117F
  8
240
 10
39.40000000000002
 20
8.4154347406736445
 30
0.0
 11
40.0
 21
2.7068160681407361
 31
0.0
  0
LINE
  5
1180
  8
241
 10
16.06244261327674
 20
0.0344048534367101
 30
0.0
 11
39.400000000000013
 21
-11.53396262905637
 31
0.0
  0
LINE
  5
1181
  8
241
 10
17.357944091341039
 20
-0.3911272200355444
 30
0.0
 11
39.400000000000013
 21
-4.2777363870167964
 31
0.0
  0
LINE
  5
1182
  8
241
 10
36.571625580028503
 20
15.499999999999989
 30
0.0
 11
39.10000000000008
 21
15.5
 31
0.0
1001
GRPNAME
1000
PASTMD03
  0
LINE
  5
1183
  8
240
 10
39.10000000000008
 20
15.5
 30
0.0
 11
39.721703210729892
 21
15.5
 31
0.0
1001
GRPNAME
1000
PASTMD03
  0
LINE
  5
1184
  8
240
 10
39.721703210729892
 20
22.299999999999951
 30
0.0
 11
39.721703210729892
 21
15.5
 31
0.0
1001
GRPNAME
1000
PASTMD03
  0
LINE
  5
1185
  8
240
 10
40.0
 20
22.631661198420051
 30
0.0
 11
39.721703210729892
 21
22.299999999999951
 31
0.0
1001
GRPNAME
1000
PASTMD03
  0
LINE
  5
1186
  8
240
 10
40.0
 20
25.0
 30
0.0
 11
40.0
 21
22.631661198420051
 31
0.0
1001
GRPNAME
1000
PASTMD03
  0
LINE
  5
1187
  8
240
 10
27.49229678927064
 20
24.99999999999995
 30
0.0
 11
40.0
 21
25.0
 31
0.0
1001
GRPNAME
1000
PASTMD03
  0
LINE
  5
1188
  8
240
 10
27.49229678927064
 20
24.205643472311412
 30
0.0
 11
27.49229678927064
 21
24.99999999999995
 31
0.0
1001
GRPNAME
1000
PASTMD03
  0
CIRCLE
  5
1189
  8
241
 10
33.607000000000248
 20
20.109999999999989
 30
0.0
 40
2.8999999999999999
  0
LINE
  5
118A
  8
241
 10
27.49229678927064
 20
24.205643472311412
 30
0.0
 11
27.4922967892706
 21
18.276986852168239
 31
0.0
  0
LINE
  5
118B
  8
241
 10
27.4922967892706
 20
19.528902049727758
 30
0.0
 11
31.385002774150959
 21
18.246474221182311
 31
0.0
  0
LINE
  5
118C
  8
241
 10
34.286260406564558
 20
17.29067289941834
 30
0.0
 11
39.721703210729892
 21
15.5
 31
0.0
  0
LINE
  5
118D
  8
241
 10
27.49229678927064
 20
24.99999999999995
 30
0.0
 11
33.535459794829123
 21
23.009117451750459
 31
0.0
  0
LINE
  5
118E
  8
241
 10
35.387702822442741
 20
22.39890748134242
 30
0.0
 11
39.721703210729864
 21
20.971097950272181
 31
0.0
  0
ARC
  5
1198
  8
241
 10
16.11525882873082
 20
24.349845279359862
 30
0.0
 40
2.5515540506928152
 50
211.9398503252838
 51
239.3640300157972
  0
LINE
  5
1199
  8
240
 10
39.008847392502773
 20
-24.308653818757598
 30
0.0
 11
28.100000009999999
 21
-24.550000000000001
 31
0.0
1001
GRPNAME
1000
PASTMD0W
  0
LINE
  5
119A
  8
240
 10
28.100000009999999
 20
-24.550000000000001
 30
0.0
 11
26.411587906870729
 21
-24.21069351376023
 31
0.0
1001
GRPNAME
1000
PASTMD0W
  0
ARC
  5
119B
  8
240
 10
38.99999999995984
 20
-23.9087516761712
 30
0.0
 40
0.4
 50
271.26739898635452
 51
359.99999999829021
1001
GRPNAME
1000
PASTMD0W
1001
GENIUS_GENOBJ-N-FIL_13
1002
{
1000
OWNER
1000
GEN
1002
}
1001
GENIUS_GENODEF_13
1002
{
1000
HIER
1070
     0
1002
}
1002
{
1000
MANEDIT
1070
     0
1002
}
1002
{
1000
NOSEL
1070
     0
1002
}
1002
{
1000
BEHIND
1070
     0
1002
}
1002
{
1000
OTHER
1070
     0
1002
}
1002
{
1000
REACTOR
1002
}
  0
LINE
  5
119F
  8
250
 10
-0.5
 20
10.999996189999999
 30
0.0
 11
-18.5
 21
10.999996189999999
 31
0.0
  0
LINE
  5
11A0
  8
250
 10
-17.5
 20
-11.0
 30
0.0
 11
-17.5
 21
8.7699961900000005
 31
0.0
  0
LINE
  5
11A3
  8
250
 10
0.0
 20
24.0
 30
0.0
 11
0.0
 21
43.0
 31
0.0
  0
LINE
  5
11A4
  8
250
 10
40.0
 20
25.5
 30
0.0
 11
40.0
 21
43.0
 31
0.0
  0
LINE
  5
11A5
  8
250
 10
2.2299999999999991
 20
42.0
 30
0.0
 11
37.77000000000001
 21
42.0
 31
0.0
  0
LINE
  5
11A9
  8
250
 10
29.0
 20
25.5
 30
0.0
 11
29.0
 21
36.0
 31
0.0
  0
LINE
  5
11AA
  8
250
 10
40.0
 20
25.5
 30
0.0
 11
40.0
 21
36.0
 31
0.0
  0
LINE
  5
11AB
  8
250
 10
31.23
 20
35.0
 30
0.0
 11
37.77000000000001
 21
35.0
 31
0.0
  0
LINE
  5
11B0
  8
250
 10
40.499999999999993
 20
25.0
 30
0.0
 11
53.5
 21
25.0
 31
0.0
  0
LINE
  5
11B1
  8
250
 10
52.5
 20
-22.77
 30
0.0
 11
52.5
 21
22.77
 31
0.0
  0
LINE
  5
11B5
  8
250
 10
-0.5
 20
-23.5
 30
0.0
 11
-25.5
 21
-23.5
 31
0.0
  0
LINE
  5
11B6
  8
250
 10
-0.5
 20
23.5
 30
0.0
 11
-25.5
 21
23.5
 31
0.0
  0
LINE
  5
11B7
  8
250
 10
-24.5
 20
-21.27
 30
0.0
 11
-24.5
 21
21.27
 31
0.0
  0
LINE
  5
11BB
  8
250
 10
-0.5
 20
-5.2000000000000002
 30
0.0
 11
-11.5
 21
-5.2000000000000002
 31
0.0
  0
LINE
  5
11BC
  8
250
 10
-0.5
 20
5.2000000000000002
 30
0.0
 11
-11.5
 21
5.2000000000000002
 31
0.0
  0
LINE
  5
11BD
  8
250
 10
-10.5
 20
-2.9700000000000002
 30
0.0
 11
-10.5
 21
2.9700000000000002
 31
0.0
  0
TEXT
  5
11C1
  8
250
 10
-18.5
 20
-4.0470630014285707
 30
0.0
 40
3.0
  1
\U+2205
 50
90.0
1001
ACAD
1000
MTEXTBEGIN
1070
    73
1070
     1
1070
    44
1040
1.0
1070
    74
1070
     0
1000
MTEXTEND
1000
MTEXTBEGIN
1070
    73
1070
     1
1070
    44
1040
1.0
1070
    74
1070
     0
1000
MTEXTEND
1000
MTEXTBEGIN
1070
    73
1070
     1
1070
    44
1040
1.0
1070
    74
1070
     0
1000
MTEXTEND
1000
MTEXTBEGIN
1070
    73
1070
     1
1070
    44
1040
1.0
1070
    74
1070
     0
1000
MTEXTEND
  0
TEXT
  5
11C2
  8
250
 10
-18.5
 20
-1.3327772871428569
 30
0.0
 40
3.0
  1
22
 50
90.0
1001
ACAD
1000
MTEXTBEGIN
1070
    73
1070
     1
1070
    44
1040
1.0
1070
    74
1070
     0
1000
MTEXTEND
1000
MTEXTBEGIN
1070
    73
1070
     1
1070
    44
1040
1.0
1070
    74
1070
     0
1000
MTEXTEND
1000
MTEXTBEGIN
1070
    73
1070
     1
1070
    44
1040
1.0
1070
    74
1070
     0
1000
MTEXTEND
1000
MTEXTBEGIN
1070
    73
1070
     1
1070
    44
1040
1.0
1070
    74
1070
     0
1000
MTEXTEND
  0
LINE
  5
11C3
  8
250
 10
-17.871666666666659
 20
8.7699961899999987
 30
0.0
 11
-17.5
 21
10.999996189999999
 31
0.0
  0
LINE
  5
11C4
  8
250
 10
-17.12833333333333
 20
8.7699961899999987
 30
0.0
 11
-17.5
 21
10.999996189999999
 31
0.0
  0
LINE
  5
11C5
  8
250
 10
-17.5
 20
10.999996189999999
 30
0.0
 11
-17.5
 21
8.7699961899999987
 31
0.0
  0
TEXT
  5
11C6
  8
250
 10
17.142857142857139
 20
43.0
 30
0.0
 40
3.0
  1
40
1001
ACAD
1000
MTEXTBEGIN
1070
    73
1070
     1
1070
    44
1040
1.0
1070
    74
1070
     0
1000
MTEXTEND
1000
MTEXTBEGIN
1070
    73
1070
     1
1070
    44
1040
1.0
1070
    74
1070
     0
1000
MTEXTEND
  0
LINE
  5
11C7
  8
250
 10
37.77000000000001
 20
42.371666666666663
 30
0.0
 11
40.0
 21
42.0
 31
0.0
  0
LINE
  5
11C8
  8
250
 10
37.77000000000001
 20
41.62833333333333
 30
0.0
 11
40.0
 21
42.0
 31
0.0
  0
LINE
  5
11C9
  8
250
 10
40.0
 20
42.0
 30
0.0
 11
37.77000000000001
 21
42.0
 31
0.0
  0
LINE
  5
11CA
  8
250
 10
2.2299999999999991
 20
41.62833333333333
 30
0.0
 11
0.0
 21
42.0
 31
0.0
  0
LINE
  5
11CB
  8
250
 10
2.2299999999999991
 20
42.371666666666663
 30
0.0
 11
0.0
 21
42.0
 31
0.0
  0
LINE
  5
11CC
  8
250
 10
0.0
 20
42.0
 30
0.0
 11
2.2299999999999991
 21
42.0
 31
0.0
  0
TEXT
  5
11CD
  8
250
 10
31.857142857142861
 20
36.0
 30
0.0
 40
3.0
  1
11
1001
ACAD
1000
MTEXTBEGIN
1070
    73
1070
     1
1070
    44
1040
1.0
1070
    74
1070
     0
1000
MTEXTEND
1000
MTEXTBEGIN
1070
    73
1070
     1
1070
    44
1040
1.0
1070
    74
1070
     0
1000
MTEXTEND
1000
MTEXTBEGIN
1070
    73
1070
     1
1070
    44
1040
1.0
1070
    74
1070
     0
1000
MTEXTEND
1000
MTEXTBEGIN
1070
    73
1070
     1
1070
    44
1040
1.0
1070
    74
1070
     0
1000
MTEXTEND
1000
MTEXTBEGIN
1070
    73
1070
     1
1070
    44
1040
1.0
1070
    74
1070
     0
1000
MTEXTEND
  0
LINE
  5
11CE
  8
250
 10
37.77000000000001
 20
35.37166666666667
 30
0.0
 11
40.0
 21
35.0
 31
0.0
  0
LINE
  5
11CF
  8
250
 10
37.77000000000001
 20
34.62833333333333
 30
0.0
 11
40.0
 21
35.0
 31
0.0
  0
LINE
  5
11D0
  8
250
 10
40.0
 20
35.0
 30
0.0
 11
37.77000000000001
 21
35.0
 31
0.0
  0
LINE
  5
11D1
  8
250
 10
31.23
 20
34.62833333333333
 30
0.0
 11
29.0
 21
35.0
 31
0.0
  0
LINE
  5
11D2
  8
250
 10
31.23
 20
35.37166666666667
 30
0.0
 11
29.0
 21
35.0
 31
0.0
  0
LINE
  5
11D3
  8
250
 10
29.0
 20
35.0
 30
0.0
 11
31.23
 21
35.0
 31
0.0
  0
TEXT
  5
11D4
  8
250
 10
51.5
 20
-4.0714285714285712
 30
0.0
 40
3.0
  1
\U+2205
 50
90.0
1001
ACAD
1000
MTEXTBEGIN
1070
    73
1070
     1
1070
    44
1040
1.0
1070
    74
1070
     0
1000
MTEXTEND
1000
MTEXTBEGIN
1070
    73
1070
     1
1070
    44
1040
1.0
1070
    74
1070
     0
1000
MTEXTEND
1000
MTEXTBEGIN
1070
    73
1070
     1
1070
    44
1040
1.0
1070
    74
1070
     0
1000
MTEXTEND
1000
MTEXTBEGIN
1070
    73
1070
     1
1070
    44
1040
1.0
1070
    74
1070
     0
1000
MTEXTEND
1000
MTEXTBEGIN
1070
    73
1070
     1
1070
    44
1040
1.0
1070
    74
1070
     0
1000
MTEXTEND
  0
TEXT
  5
11D5
  8
250
 10
51.5
 20
-1.357142857142857
 30
0.0
 40
3.0
  1
50
 50
90.0
1001
ACAD
1000
MTEXTBEGIN
1070
    73
1070
     1
1070
    44
1040
1.0
1070
    74
1070
     0
1000
MTEXTEND
1000
MTEXTBEGIN
1070
    73
1070
     1
1070
    44
1040
1.0
1070
    74
1070
     0
1000
MTEXTEND
1000
MTEXTBEGIN
1070
    73
1070
     1
1070
    44
1040
1.0
1070
    74
1070
     0
1000
MTEXTEND
1000
MTEXTBEGIN
1070
    73
1070
     1
1070
    44
1040
1.0
1070
    74
1070
     0
1000
MTEXTEND
1000
MTEXTBEGIN
1070
    73
1070
     1
1070
    44
1040
1.0
1070
    74
1070
     0
1000
MTEXTEND
  0
LINE
  5
11D6
  8
250
 10
52.12833333333333
 20
22.77
 30
0.0
 11
52.5
 21
25.0
 31
0.0
  0
LINE
  5
11D7
  8
250
 10
52.87166666666667
 20
22.77
 30
0.0
 11
52.5
 21
25.0
 31
0.0
  0
LINE
  5
11D8
  8
250
 10
52.5
 20
25.0
 30
0.0
 11
52.5
 21
22.77
 31
0.0
  0
TEXT
  5
11DC
  8
250
 10
-25.5
 20
-4.0714285714285712
 30
0.0
 40
3.0
  1
\U+2205
 50
90.0
1001
ACAD
1000
MTEXTBEGIN
1070
    73
1070
     1
1070
    44
1040
1.0
1070
    74
1070
     0
1000
MTEXTEND
1000
MTEXTBEGIN
1070
    73
1070
     1
1070
    44
1040
1.0
1070
    74
1070
     0
1000
MTEXTEND
1000
MTEXTBEGIN
1070
    73
1070
     1
1070
    44
1040
1.0
1070
    74
1070
     0
1000
MTEXTEND
1000
MTEXTBEGIN
1070
    73
1070
     1
1070
    44
1040
1.0
1070
    74
1070
     0
1000
MTEXTEND
  0
TEXT
  5
11DD
  8
250
 10
-25.5
 20
-1.357142857142857
 30
0.0
 40
3.0
  1
47
 50
90.0
1001
ACAD
1000
MTEXTBEGIN
1070
    73
1070
     1
1070
    44
1040
1.0
1070
    74
1070
     0
1000
MTEXTEND
1000
MTEXTBEGIN
1070
    73
1070
     1
1070
    44
1040
1.0
1070
    74
1070
     0
1000
MTEXTEND
1000
MTEXTBEGIN
1070
    73
1070
     1
1070
    44
1040
1.0
1070
    74
1070
     0
1000
MTEXTEND
1000
MTEXTBEGIN
1070
    73
1070
     1
1070
    44
1040
1.0
1070
    74
1070
     0
1000
MTEXTEND
  0
LINE
  5
11DE
  8
250
 10
-24.87166666666667
 20
21.27
 30
0.0
 11
-24.5
 21
23.5
 31
0.0
  0
LINE
  5
11DF
  8
250
 10
-24.12833333333333
 20
21.27
 30
0.0
 11
-24.5
 21
23.5
 31
0.0
  0
LINE
  5
11E0
  8
250
 10
-24.5
 20
23.5
 30
0.0
 11
-24.5
 21
21.27
 31
0.0
  0
LINE
  5
11E1
  8
250
 10
-24.12833333333333
 20
-21.27
 30
0.0
 11
-24.5
 21
-23.5
 31
0.0
  0
LINE
  5
11E2
  8
250
 10
-24.87166666666667
 20
-21.27
 30
0.0
 11
-24.5
 21
-23.5
 31
0.0
  0
LINE
  5
11E3
  8
250
 10
-24.5
 20
-23.5
 30
0.0
 11
-24.5
 21
-21.27
 31
0.0
  0
TEXT
  5
11E4
  8
250
 10
-11.5
 20
-5.2857142857142847
 30
0.0
 40
3.0
  1
10.4
 50
90.0
1001
ACAD
1000
MTEXTBEGIN
1070
    73
1070
     1
1070
    44
1040
1.0
1070
    74
1070
     0
1000
MTEXTEND
1000
MTEXTBEGIN
1070
    73
1070
     1
1070
    44
1040
1.0
1070
    74
1070
     0
1000
MTEXTEND
1000
MTEXTBEGIN
1070
    73
1070
     1
1070
    44
1040
1.0
1070
    74
1070
     0
1000
MTEXTEND
1000
MTEXTBEGIN
1070
    73
1070
     1
1070
    44
1040
1.0
1070
    74
1070
     0
1000
MTEXTEND
1000
MTEXTBEGIN
1070
    73
1070
     1
1070
    44
1040
1.0
1070
    74
1070
     0
1000
MTEXTEND
  0
LINE
  5
11E5
  8
250
 10
-10.871666666666661
 20
2.9700000000000002
 30
0.0
 11
-10.5
 21
5.2000000000000002
 31
0.0
  0
LINE
  5
11E6
  8
250
 10
-10.12833333333333
 20
2.9700000000000002
 30
0.0
 11
-10.5
 21
5.2000000000000002
 31
0.0
  0
LINE
  5
11E7
  8
250
 10
-10.5
 20
5.2000000000000002
 30
0.0
 11
-10.5
 21
2.9700000000000002
 31
0.0
  0
LINE
  5
11E8
  8
250
 10
-10.12833333333333
 20
-2.9700000000000002
 30
0.0
 11
-10.5
 21
-5.2000000000000002
 31
0.0
  0
LINE
  5
11E9
  8
250
 10
-10.871666666666661
 20
-2.9700000000000002
 30
0.0
 11
-10.5
 21
-5.2000000000000002
 31
0.0
  0
LINE
  5
11EA
  8
250
 10
-10.5
 20
-5.2000000000000002
 30
0.0
 11
-10.5
 21
-2.9700000000000002
 31
0.0
  0
VIEWPORT
  5
22
 67
     1
  8
0
 10
261.51769911999997
 20
148.5
 30
0.0
 40
523.03539823000006
 41
297.0
 68
     1
 69
     1
1001
ACAD
1000
MVIEW
1002
{
1070
    16
1010
0.0
1020
0.0
1030
0.0
1010
0.0
1020
0.0
1030
1.0
1040
0.0
1040
297.0
1040
261.51769911999997
1040
148.5
1040
50.0
1040
0.0
1040
0.0
1070
     0
1070
   100
1070
     1
1070
     1
1070
     0
1070
     0
1070
     0
1070
     0
1040
0.0
1040
0.0
1040
0.0
1040
1.0
1040
1.0
1040
10.0
1040
10.0
1070
     0
1002
{
1002
}
1002
}
1001
GENIUS_GENOBJ-N-SDF_13
1002
{
1000
OWNER
1000
GEN
1002
}
1001
GENIUS_GENODEF_13
1002
{
1000
HIER
1070
     0
1002
}
1002
{
1000
MANEDIT
1070
     0
1002
}
1002
{
1000
NOSEL
1070
     0
1002
}
1002
{
1000
BEHIND
1070
     0
1002
}
1002
{
1000
OTHER
1070
     0
1002
}
1002
{
1000
REACTOR
1002
}
1001
GENIUS_GENSCREG_15
1000
PF
1040
1.0
1000
DF
1040
1.0
1000
MIN
1011
0.0000000049999471
1021
0.0
1031
0.0
1021
0.0
1031
0.0
1000
MAX
1011
523.035398235
1021
0.0
1031
0.0
1021
297.0
1031
0.0
1000
FLAGS
1070
     2
  0
ENDSEC
  0
EOF
