  0
SECTION
  2
HEADER
  9
$ACADVER
  1
AC1009
  9
$INSBASE
 10
0.0
 20
0.0
 30
0.0
  9
$EXTMIN
 10
-14.499999999993459
 20
-1.903682908559168
 30
0.0
  9
$EXTMAX
 10
40.875977964395133
 20
38.000000000000007
 30
0.0
  9
$LIMMIN
 10
0.0
 20
0.0
  9
$LIMMAX
 10
297.0
 20
210.0
  9
$ORTHOMODE
 70
     1
  9
$REGENMODE
 70
     1
  9
$FILLMODE
 70
     1
  9
$QTEXTMODE
 70
     0
  9
$MIRRTEXT
 70
     1
  9
$DRAGMODE
 70
     2
  9
$LTSCALE
 40
10.0
  9
$OSMODE
 70
    45
  9
$ATTMODE
 70
     1
  9
$TEXTSIZE
 40
3.0
  9
$TRACEWID
 40
1.0
  9
$TEXTSTYLE
  7
YOKO
  9
$CLAYER
  8
240
  9
$CELTYPE
  6
BYLAYER
  9
$CECOLOR
 62
   256
  9
$DIMSCALE
 40
1.0
  9
$DIMASZ
 40
2.2299999999999991
  9
$DIMEXO
 40
0.5
  9
$DIMDLI
 40
7.0
  9
$DIMRND
 40
0.0
  9
$DIMDLE
 40
0.0
  9
$DIMEXE
 40
1.0
  9
$DIMTP
 40
0.0
  9
$DIMTM
 40
0.01
  9
$DIMTXT
 40
2.799999999999998
  9
$DIMCEN
 40
0.0
  9
$DIMTSZ
 40
0.0
  9
$DIMTOL
 70
     0
  9
$DIMLIM
 70
     0
  9
$DIMTIH
 70
     0
  9
$DIMTOH
 70
     0
  9
$DIMSE1
 70
     0
  9
$DIMSE2
 70
     0
  9
$DIMTAD
 70
     3
  9
$DIMZIN
 70
     9
  9
$DIMBLK
  1
OPEN
  9
$DIMASO
 70
     1
  9
$DIMSHO
 70
     1
  9
$DIMPOST
  1

  9
$DIMAPOST
  1

  9
$DIMALT
 70
     0
  9
$DIMALTD
 70
     2
  9
$DIMALTF
 40
25.399999999999999
  9
$DIMLFAC
 40
1.0
  9
$DIMTOFL
 70
     1
  9
$DIMTVP
 40
0.0
  9
$DIMTIX
 70
     1
  9
$DIMSOXD
 70
     0
  9
$DIMSAH
 70
     0
  9
$DIMBLK1
  1

  9
$DIMBLK2
  1

  9
$DIMSTYLE
  2
BIGT
  9
$DIMCLRD
 70
   256
  9
$DIMCLRE
 70
   256
  9
$DIMCLRT
 70
    40
  9
$DIMTFAC
 40
1.0
  9
$DIMGAP
 40
1.0
  9
$LUNITS
 70
     2
  9
$LUPREC
 70
     6
  9
$SKETCHINC
 40
1.0
  9
$FILLETRAD
 40
0.0
  9
$AUNITS
 70
     0
  9
$AUPREC
 70
     6
  9
$MENU
  1
.
  9
$ELEVATION
 40
0.0
  9
$PELEVATION
 40
0.0
  9
$THICKNESS
 40
0.0
  9
$LIMCHECK
 70
     0
  9
$BLIPMODE
 70
     0
  9
$CHAMFERA
 40
0.2
  9
$CHAMFERB
 40
0.2
  9
$SKPOLY
 70
     0
  9
$TDCREATE
 40
2457143.7706732182
  9
$TDUPDATE
 40
2457856.413142419
  9
$TDINDWG
 40
0.0049215046
  9
$TDUSRTIMER
 40
0.0049214352
  9
$USRTIMER
 70
     1
  9
$ANGBASE
 50
0.0
  9
$ANGDIR
 70
     0
  9
$PDMODE
 70
     1
  9
$PDSIZE
 40
0.0
  9
$PLINEWID
 40
0.0
  9
$COORDS
 70
     1
  9
$SPLFRAME
 70
     0
  9
$SPLINETYPE
 70
     6
  9
$SPLINESEGS
 70
     4
  9
$ATTDIA
 70
     1
  9
$ATTREQ
 70
     1
  9
$HANDLING
 70
     1
  9
$HANDSEED
  5
4927
  9
$SURFTAB1
 70
     6
  9
$SURFTAB2
 70
     6
  9
$SURFTYPE
 70
     6
  9
$SURFU
 70
     6
  9
$SURFV
 70
     6
  9
$UCSNAME
  2

  9
$UCSORG
 10
0.0
 20
0.0
 30
0.0
  9
$UCSXDIR
 10
1.0
 20
0.0
 30
0.0
  9
$UCSYDIR
 10
0.0
 20
1.0
 30
0.0
  9
$PUCSNAME
  2

  9
$PUCSORG
 10
0.0
 20
0.0
 30
0.0
  9
$PUCSXDIR
 10
1.0
 20
0.0
 30
0.0
  9
$PUCSYDIR
 10
0.0
 20
1.0
 30
0.0
  9
$USERI1
 70
     1
  9
$USERI2
 70
     0
  9
$USERI3
 70
     0
  9
$USERI4
 70
     0
  9
$USERI5
 70
     0
  9
$USERR1
 40
0.0
  9
$USERR2
 40
0.0
  9
$USERR3
 40
0.0
  9
$USERR4
 40
0.0
  9
$USERR5
 40
0.0
  9
$WORLDVIEW
 70
     1
  9
$SHADEDGE
 70
     3
  9
$SHADEDIF
 70
    70
  9
$TILEMODE
 70
     1
  9
$MAXACTVP
 70
    16
  9
$PLIMCHECK
 70
     0
  9
$PEXTMIN
 10
1.0000000000000000E+020
 20
1.0000000000000000E+020
 30
1.0000000000000000E+020
  9
$PEXTMAX
 10
-1.0000000000000000E+020
 20
-1.0000000000000000E+020
 30
-1.0000000000000000E+020
  9
$PLIMMIN
 10
0.0
 20
0.0
  9
$PLIMMAX
 10
420.0
 20
297.0
  9
$UNITMODE
 70
     0
  9
$VISRETAIN
 70
     1
  9
$PLINEGEN
 70
     0
  9
$PSLTSCALE
 70
     1
  0
ENDSEC
  0
SECTION
  2
TABLES
  0
TABLE
  2
VPORT
 70
     1
  0
VPORT
  2
*ACTIVE
 70
     0
 10
0.0
 20
0.0
 11
1.0
 21
1.0
 12
4.3372671705955881
 22
13.255321624557441
 13
0.0
 23
0.0
 14
7.0
 24
7.0
 15
7.0
 25
7.0
 16
0.0
 26
0.0
 36
1.0
 17
0.0
 27
0.0
 37
0.0
 40
68.51298062421705
 41
1.496106785317018
 42
50.0
 43
0.0
 44
0.0
 50
0.0
 51
0.0
 71
     0
 72
  2000
 73
     1
 74
     0
 75
     0
 76
     1
 77
     0
 78
     0
  0
ENDTAB
  0
TABLE
  2
LTYPE
 70
    22
  0
LTYPE
  2
CONTINUOUS
 70
     0
  3
Solid line
 72
    65
 73
     0
 40
0.0
  0
LTYPE
  2
CENTER2
 70
     0
  3
___ _ ___ _ ___ _ ___ _ ___ _ ___ _ ___ _ ___ _
 72
    65
 73
     4
 40
1.125
 49
0.75
 49
-0.125
 49
0.125
 49
-0.125
  0
LTYPE
  2
HIDDEN2
 70
     0
  3
_ _ _ _ _ _ _ _ _ _ _ _ _ _ _ _ _ _ _ _ _ _ _ _
 72
    65
 73
     2
 40
0.1875
 49
0.125
 49
-0.0625
  0
LTYPE
  2
PHANTOM2
 70
     0
  3
___ _ _ ___ _ _ ___ _ _ ___ _ _ ___ _ _ ___ _ _
 72
    65
 73
     6
 40
1.25
 49
0.625
 49
-0.125
 49
0.125
 49
-0.125
 49
0.125
 49
-0.125
  0
LTYPE
  2
AMCONSTR
 70
     0
  3
_______________________
 72
    65
 73
     2
 40
9999.0
 49
9999.0
 49
0.0
  0
LTYPE
  2
HIDDEN
 70
     0
  3
Hidden __ __ __ __ __ __ __ __ __ __ __ __ __ _
 72
    65
 73
     2
 40
0.375
 49
0.25
 49
-0.125
  0
LTYPE
  2
CENTER
 70
     0
  3
Center ____ _ ____ _ ____ _ ____ _ ____ _ ____
 72
    65
 73
     4
 40
2.0
 49
1.25
 49
-0.25
 49
0.25
 49
-0.25
  0
LTYPE
  2
AMZIGZAG2
 70
     0
  3
/\/-/\/-/\/-/\/-/\/-/\/
 72
    65
 73
     2
 40
0.4401
 49
0.0001
 49
-0.4400000000000001
  0
LTYPE
  2
ACANSTGB
 70
     0
  3
__ . . __ . .
 72
    65
 73
     6
 40
0.35433070866
 49
0.15748031496
 49
-0.03937007874
 49
0.03937007874
 49
-0.03937007874
 49
0.03937007874
 49
-0.03937007874
  0
LTYPE
  2
ACANSTGL
 70
     0
  3
_ _ _ _ _
 72
    65
 73
     2
 40
0.11811023622
 49
0.07874015748
 49
-0.03937007874
  0
ENDTAB
  0
TABLE
  2
LAYER
 70
     7
  0
LAYER
  2
0
 70
     0
 62
     7
  6
CONTINUOUS
  0
LAYER
  2
241
 70
     0
 62
   211
  6
CONTINUOUS
  0
LAYER
  2
DEFPOINTS
 70
     0
 62
     7
  6
CONTINUOUS
  0
LAYER
  2
245
 70
     0
 62
     2
  6
CENTER2
  0
LAYER
  2
240
 70
     0
 62
     4
  6
CONTINUOUS
  0
LAYER
  2
246
 70
     0
 62
     3
  6
PHANTOM2
  0
LAYER
  2
250
 70
     0
 62
     3
  6
CONTINUOUS
  0
ENDTAB
  0
TABLE
  2
STYLE
 70
    10
  0
STYLE
  2
STANDARD
 70
     0
 40
0.0
 41
1.0
 50
0.0
 71
     0
 42
3.0
  3
romans.shx
  4
extfont.shx
  0
STYLE
  2
YOKO
 70
     0
 40
0.0
 41
1.0
 50
0.0
 71
     0
 42
3.0
  3
romans.shx
  4
extfont.shx
  0
STYLE
  2
ACJISTS
 70
     0
 40
1.0
 41
1.0
 50
0.0
 71
     0
 42
3.0
  3
amgdt.shx
  4
extfont.shx
  0
STYLE
  2

 70
     1
 40
0.0
 41
1.0
 50
0.0
 71
     0
 42
3.0
  3
genltshp.shx
  4

  0
STYLE
  2
ACANSGDT
 70
     0
 40
0.0
 41
1.0
 50
0.0
 71
     0
 42
3.0
  3
amgdt.shx
  4

  0
ENDTAB
  0
TABLE
  2
VIEW
 70
     0
  0
ENDTAB
  0
TABLE
  2
UCS
 70
     0
  0
ENDTAB
  0
TABLE
  2
APPID
 70
    38
  0
APPID
  2
ACAD
 70
     0
  0
APPID
  2
ACADANNOTATIVE
 70
     0
  0
APPID
  2
GLOBAL
 70
     0
  0
APPID
  2
DETAIL
 70
     0
  0
APPID
  2
GRPNAME
 70
     0
  0
APPID
  2
GPARA
 70
     0
  0
APPID
  2
MCAD_NO_VIS
 70
     0
  0
APPID
  2
ACAD_TEMP_GRAPHIC
 70
     0
  0
APPID
  2
ACATTRIBSERVICES
 70
     0
  0
APPID
  2
GENIUS_GENSCREG_15
 70
     0
  0
APPID
  2
GENIUS_GENODEF_13
 70
     0
  0
APPID
  2
GENIUS_GENOBJ-N-SDF_13
 70
     0
  0
APPID
  2
GENIUS_GENREC_14
 70
     0
  0
APPID
  2
GENIUS_GENOBJ-N-REC_13
 70
     0
  0
APPID
  2
GENIUS_GENDIMSH_14
 70
     0
  0
APPID
  2
GENIUS_GENOBJ-N-DIM_13
 70
     0
  0
APPID
  2
GENIUS_GENDIM_13
 70
     0
  0
APPID
  2
GENIUS_GENDTOL_13
 70
     0
  0
APPID
  2
GENIUS_GENOLIS_13
 70
     0
  0
APPID
  2
GENIUS_GENOENT_13
 70
     0
  0
APPID
  2
GENIUS_GENOBJ-F-FEM_13
 70
     0
  0
APPID
  2
GENIUS_GENOREF_13
 70
     0
  0
APPID
  2
GENIUS_GEFFEM_13
 70
     0
  0
APPID
  2
GENIUS_GEFFEMP_13
 70
     0
  0
APPID
  2
AD_DRAW
 70
     0
  0
APPID
  2
DESIGNERASSEMBLIES
 70
     0
  0
APPID
  2
ACADM_DIM_EDIT
 70
     0
  0
APPID
  2
AMDT_DM_ADJ
 70
     0
  0
APPID
  2
ITEMNAME
 70
     0
  0
APPID
  2
GENIUS_GENOBJ-N-FIL_13
 70
     0
  0
APPID
  2
GENIUS_GENFIL_13
 70
     0
  0
APPID
  2
GENIUS_GENOBJ-N-CHA_13
 70
     0
  0
APPID
  2
ACAD_NAV_VCDISPLAY
 70
     0
  0
APPID
  2
ACAD_DSTYLE_DIMINSPECT
 70
     0
  0
APPID
  2
ACAD_EXEMPT_FROM_CAD_STANDARDS
 70
     0
  0
APPID
  2
ACAD_MLEADERVER
 70
     0
  0
APPID
  2
ACAD_DSTYLE_DIMJAG
 70
     0
  0
APPID
  2
ACAD_DSTYLE_DIMBREAK
 70
     0
  0
ENDTAB
  0
TABLE
  2
DIMSTYLE
 70
    32
  0
DIMSTYLE
  2
STANDARD
 70
     0
  3

  4

  5

  6

  7

 40
1.0
 41
0.18
 42
0.0625
 43
0.38
 44
0.18
 45
0.0
 46
0.0
 47
0.0
 48
0.0
140
0.18
141
0.09
142
0.0
143
25.399999999999999
144
1.0
145
0.0
146
1.0
147
0.09
 71
     0
 72
     0
 73
     1
 74
     1
 75
     0
 76
     0
 77
     0
 78
     0
170
     0
171
     2
172
     0
173
     0
174
     0
175
     0
176
     0
177
     0
178
     0
  0
DIMSTYLE
  2
BIGT
 70
     0
  3

  4

  5

  6

  7

 40
1.0
 41
2.2299999999999991
 42
0.5
 43
7.0
 44
1.0
 45
0.0
 46
0.0
 47
0.0
 48
0.01
140
2.799999999999998
141
0.0
142
0.0
143
25.399999999999999
144
1.0
145
0.0
146
1.0
147
1.0
 71
     0
 72
     0
 73
     0
 74
     0
 75
     0
 76
     0
 77
     3
 78
     9
170
     0
171
     2
172
     1
173
     0
174
     1
175
     0
176
   256
177
   256
178
    40
  0
DIMSTYLE
  2
AM_ANSI
 70
     0
  3

  4
mm
  5

  6

  7

 40
1.0
 41
0.12
 42
0.05
 43
0.5
 44
0.1
 45
0.0
 46
0.0
 47
0.1
 48
0.1
140
0.12
141
0.0
142
0.0
143
25.399999999999999
144
1.0
145
0.0
146
0.71
147
0.06
 71
     0
 72
     0
 73
     1
 74
     1
 75
     0
 76
     0
 77
     0
 78
     7
170
     0
171
     2
172
     0
173
     0
174
     0
175
     0
176
   256
177
   256
178
     2
  0
DIMSTYLE
  2
AM_ANSI$3
 70
     0
  3

  4
mm
  5

  6

  7

 40
1.0
 41
0.12
 42
0.05
 43
0.5
 44
0.1
 45
0.0
 46
0.0
 47
0.1
 48
0.1
140
0.12
141
0.0
142
0.0
143
25.399999999999999
144
1.0
145
0.0
146
0.71
147
0.06
 71
     0
 72
     0
 73
     1
 74
     1
 75
     0
 76
     0
 77
     0
 78
     7
170
     0
171
     2
172
     0
173
     0
174
     0
175
     0
176
   256
177
   256
178
     2
  0
DIMSTYLE
  2
AM_ANSI$4
 70
     0
  3

  4
mm
  5

  6

  7

 40
1.0
 41
0.12
 42
0.05
 43
0.5
 44
0.1
 45
0.0
 46
0.0
 47
0.1
 48
0.1
140
0.12
141
0.0
142
0.0
143
25.399999999999999
144
1.0
145
0.0
146
0.71
147
0.06
 71
     0
 72
     0
 73
     1
 74
     1
 75
     0
 76
     0
 77
     0
 78
     7
170
     0
171
     2
172
     0
173
     0
174
     0
175
     0
176
   256
177
   256
178
     2
  0
DIMSTYLE
  2
AM_ANSI$7
 70
     0
  3

  4
mm
  5

  6

  7

 40
1.0
 41
0.12
 42
0.05
 43
0.5
 44
0.1
 45
0.0
 46
0.0
 47
0.1
 48
0.1
140
0.12
141
0.0
142
0.0
143
25.399999999999999
144
1.0
145
0.0
146
0.71
147
0.06
 71
     0
 72
     0
 73
     1
 74
     1
 75
     0
 76
     0
 77
     0
 78
     7
170
     0
171
     2
172
     0
173
     0
174
     0
175
     0
176
   256
177
   256
178
     2
  0
DIMSTYLE
  2
AM_ANSI$SF
 70
     0
  3

  4
mm
  5

  6

  7

 40
1.0
 41
0.12
 42
0.05
 43
0.5
 44
0.1
 45
0.0
 46
0.0
 47
0.1
 48
0.1
140
0.12
141
0.0
142
0.0
143
25.399999999999999
144
1.0
145
0.0
146
0.71
147
0.06
 71
     0
 72
     0
 73
     1
 74
     1
 75
     1
 76
     1
 77
     0
 78
     7
170
     0
171
     2
172
     0
173
     0
174
     0
175
     0
176
   256
177
   256
178
     2
  0
DIMSTYLE
  2
AM_ANSI$SH
 70
     0
  3

  4
mm
  5

  6
GENAXEH
  7

 40
1.0
 41
0.12
 42
0.05
 43
0.5
 44
0.1
 45
0.0
 46
0.0
 47
0.1
 48
0.1
140
0.12
141
0.0
142
0.0
143
25.399999999999999
144
1.0
145
0.0
146
0.71
147
0.06
 71
     0
 72
     0
 73
     1
 74
     1
 75
     1
 76
     1
 77
     0
 78
     7
170
     0
171
     2
172
     0
173
     1
174
     0
175
     0
176
   256
177
   256
178
     2
  0
ENDTAB
  0
ENDSEC
  0
SECTION
  2
BLOCKS
  0
BLOCK
  8
0
  2
$MODEL_SPACE
 70
     0
 10
0.0
 20
0.0
 30
0.0
  3
$MODEL_SPACE
  1

  0
ENDBLK
  5
47E2
  8
0
  0
BLOCK
 67
     1
  8
0
  2
$PAPER_SPACE
 70
     0
 10
0.0
 20
0.0
 30
0.0
  3
$PAPER_SPACE
  1

  0
ENDBLK
  5
47DE
 67
     1
  8
0
  0
BLOCK
  8
0
  2
_OPEN
 70
     0
 10
0.0
 20
0.0
 30
0.0
  3
_OPEN
  1

  0
LINE
  5
449B
  8
0
  6
BYBLOCK
 62
     0
 10
-1.0
 20
0.1666666666666666
 30
0.0
 11
0.0
 21
0.0
 31
0.0
  0
LINE
  5
449C
  8
0
  6
BYBLOCK
 62
     0
 10
-1.0
 20
-0.1666666666666666
 30
0.0
 11
0.0
 21
0.0
 31
0.0
  0
LINE
  5
449D
  8
0
  6
BYBLOCK
 62
     0
 10
0.0
 20
0.0
 30
0.0
 11
-1.0
 21
0.0
 31
0.0
  0
ENDBLK
  5
449E
  8
0
  0
BLOCK
  8
0
  2
GENAXEH
 70
     0
 10
0.0
 20
0.0
 30
0.0
  3
GENAXEH
  1

  0
LINE
  5
44D6
  8
0
 10
-1.0
 20
0.0
 30
0.0
 11
1.0
 21
0.0
 31
0.0
  0
ENDBLK
  5
44D7
  8
0
  0
BLOCK
  8
0
  2
*U5
 70
     1
 10
0.0
 20
0.0
 30
0.0
  3
*U5
  1

  0
TEXT
  5
4589
  8
250
 10
29.009311297728448
 20
20.96828187947991
 30
0.0
 40
2.799999999999998
  1
TC11
  7
ACJISTS
  0
ENDBLK
  5
458B
  8
0
  0
BLOCK
  8
0
  2
_ACMFILLEDHALF
 70
     0
 10
0.0
 20
0.0
 30
0.0
  3
_ACMFILLEDHALF
  1

  0
TRACE
  5
48A3
  8
241
 62
     0
 10
-0.8
 20
0.0
 30
0.0
 11
-1.0
 21
0.166666666
 31
0.0
 12
0.0
 22
0.0
 32
0.0
 13
0.0
 23
0.0
 33
0.0
  0
LINE
  5
48A4
  8
241
 62
     0
 10
-1.0
 20
0.0
 30
0.0
 11
-0.8
 21
0.0
 31
0.0
  0
ENDBLK
  5
48A2
  8
0
  0
ENDSEC
  0
SECTION
  2
ENTITIES
  0
LINE
  5
41E9
  8
240
  6
CONTINUOUS
 10
-14.499999999993459
 20
0.0000000000000995
 30
0.0
 11
-4.3163286954582532
 21
0.0000000000000995
 31
0.0
1001
GRPNAME
1000
PASTMD2E
  0
LINE
  5
41EB
  8
240
  6
CONTINUOUS
 10
-14.499999999993459
 20
0.0000000000000995
 30
0.0
 11
-14.499999999993459
 21
6.5000000000000977
 31
0.0
1001
GRPNAME
1000
PASTMD2E
  0
ARC
  5
41EC
  8
240
  6
CONTINUOUS
 10
-11.499999999993459
 20
6.5000000000000977
 30
0.0
 40
3.0
 50
89.999999989708229
 51
179.99999998971069
1001
GRPNAME
1000
PASTMD2E
  0
LINE
  5
41ED
  8
240
  6
CONTINUOUS
 10
-11.499999999993459
 20
9.5000000000000995
 30
0.0
 11
-6.9999999999934621
 21
9.5000000000000995
 31
0.0
1001
GRPNAME
1000
PASTMD2E
  0
LINE
  5
41EF
  8
245
  6
CENTER2
 10
0.0
 20
12.558592347426311
 30
0.0
 11
0.0
 21
-1.903682908559168
 31
0.0
1001
GRPNAME
1000
PASTMD2A
  0
ARC
  5
41F0
  8
241
  6
CONTINUOUS
 10
20.037420526455609
 20
3.387770203839322
 30
0.0
 40
0.400000000000011
 50
214.99999985036149
 51
334.99999985037363
1001
GRPNAME
1000
PASTMD2F
  0
LINE
  5
41F1
  8
241
  6
CONTINUOUS
 10
14.488835639050651
 20
11.66066001014395
 30
0.0
 11
24.065137702907471
 21
12.49847787923539
 31
0.0
1001
GRPNAME
1000
PASTMD2F
  0
CIRCLE
  5
41F2
  8
246
  6
PHANTOM2
 10
19.55370615420388
 20
8.9166507782484938
 30
0.0
 40
3.174999999999998
1001
GRPNAME
1000
PASTMD2F
  0
LINE
  5
41F3
  8
240
  6
CONTINUOUS
 10
21.840814773427571
 20
0.0000000000000711
 30
0.0
 11
4.3163286954565461
 21
0.0000000000000142
 31
0.0
1001
GRPNAME
1000
PASTMD2E
  0
LINE
  5
41F4
  8
241
  6
CONTINUOUS
 10
14.196037118434329
 20
11.03275155636673
 30
0.0
 11
19.709759708740108
 21
3.1583396292987942
 31
0.0
1001
GRPNAME
1000
PASTMD2F
  0
LINE
  5
41F5
  8
241
  6
CONTINUOUS
 10
12.557368354880911
 20
0.0000000000000995
 30
0.0
 11
12.557368354880911
 21
9.3074850243786909
 31
0.0
1001
GRPNAME
1000
PASTMD2E
  0
LINE
  5
41F6
  8
241
  6
CONTINUOUS
 10
14.500000000006541
 20
0.0000000000000995
 30
0.0
 11
14.500000000006541
 21
6.5000000000000977
 31
0.0
1001
GRPNAME
1000
PASTMD2E
  0
LINE
  5
41F7
  8
240
  6
CONTINUOUS
 10
7.0000000000065361
 20
9.5000000000000995
 30
0.0
 11
12.50000000000653
 21
9.5000000000000995
 31
0.0
1001
GRPNAME
1000
PASTMD2E
  0
ARC
  5
41F9
  8
241
  6
CONTINUOUS
 10
14.52369793614986
 20
11.26218213090727
 30
0.0
 40
0.4000000000000262
 50
95.000000138334855
 51
215.0000001383348
1001
GRPNAME
1000
PASTMD2F
  0
ARC
  5
41FA
  8
241
  6
CONTINUOUS
 10
11.500000000006541
 20
6.5000000000000977
 30
0.0
 40
3.0
 50
0.0
 51
90.0
1001
GRPNAME
1000
PASTMD2E
  0
LINE
  5
41FB
  8
240
  6
CONTINUOUS
 10
12.50000000000653
 20
9.5000000000000995
 30
0.0
 11
12.88207804947535
 21
10.161778594138079
 31
0.0
1001
GRPNAME
1000
PASTMD2E
  0
LINE
  5
41FC
  8
241
  6
CONTINUOUS
 10
24.462523114821408
 20
11.930952695302659
 30
0.0
 11
20.399943641270291
 21
3.2187228991431591
 31
0.0
1001
GRPNAME
1000
PASTMD2F
  0
ARC
  5
41FD
  8
241
  6
CONTINUOUS
 10
24.100000000006681
 20
12.09999999999877
 30
0.0
 40
0.400000000000003
 50
335.00000022061022
 51
95.000000220617352
1001
GRPNAME
1000
PASTMD2F
  0
LINE
  5
4200
  8
240
  6
CONTINUOUS
 10
-3.6322518254697211
 20
2.1000000000001222
 30
0.0
 11
3.6322518254697211
 21
2.1000000000001222
 31
0.0
1001
GRPNAME
1000
PASTMD30
  0
LINE
  5
4202
  8
240
  6
CONTINUOUS
 10
-4.31632869545939
 20
0.0000000000000995
 30
0.0
 11
-3.81632869545939
 21
0.5000000000000995
 31
0.0
1001
GRPNAME
1000
PASTMD30
  0
LINE
  5
4203
  8
240
  6
CONTINUOUS
 10
-3.816328695459275
 20
0.50000000000027
 30
0.0
 11
-3.6322518254697211
 21
1.600000000000122
 31
0.0
1001
GRPNAME
1000
PASTMD30
  0
LINE
  5
4204
  8
240
  6
CONTINUOUS
 10
-3.6322518254697211
 20
1.600000000000122
 30
0.0
 11
-3.6322518254697211
 21
2.1000000000001222
 31
0.0
1001
GRPNAME
1000
PASTMD30
  0
LINE
  5
4207
  8
240
  6
CONTINUOUS
 10
4.31632869545939
 20
0.0000000000000995
 30
0.0
 11
3.81632869545939
 21
0.5000000000000995
 31
0.0
1001
GRPNAME
1000
PASTMD30
  0
LINE
  5
4208
  8
240
  6
CONTINUOUS
 10
3.816328695459275
 20
0.50000000000027
 30
0.0
 11
3.6322518254697211
 21
1.600000000000122
 31
0.0
1001
GRPNAME
1000
PASTMD30
  0
LINE
  5
4209
  8
240
  6
CONTINUOUS
 10
3.6322518254697211
 20
1.600000000000122
 30
0.0
 11
3.6322518254697211
 21
2.1000000000001222
 31
0.0
1001
GRPNAME
1000
PASTMD30
  0
LINE
  5
420F
  8
240
  6
CONTINUOUS
 10
12.88207804947535
 20
10.161778594138079
 30
0.0
 11
14.59447681479935
 21
10.46372069819655
 31
0.0
  0
LINE
  5
4210
  8
240
  6
CONTINUOUS
 10
23.553553390600111
 20
1.5056318359857159
 30
0.0
 11
22.194368164020801
 21
0.1464466094068015
 31
0.0
  0
LINE
  5
4211
  8
240
  6
CONTINUOUS
 10
23.70000000000676
 20
1.8591852265791351
 30
0.0
 11
23.700000000006689
 21
10.29571659853231
 31
0.0
  0
ARC
  5
4213
  8
240
  6
CONTINUOUS
 10
23.200000000006749
 20
1.859185226579128
 30
0.0
 40
0.5
 50
314.9999999999971
 51
0.0000000000004071
  0
ARC
  5
4214
  8
240
  6
CONTINUOUS
 10
21.840814773427571
 20
0.5000000000000711
 30
0.0
 40
0.5
 50
270.0
 51
314.9999999999971
  0
TEXT
  5
428C
  8
241
  6
CONTINUOUS
 10
0.0
 20
35.0
 30
0.0
 40
3.0
  1
ENH6-1J
  7
YOKO
  0
LINE
  5
4295
  8
250
  6
CONTINUOUS
 10
22.340814773427571
 20
0.0000000000000709
 30
0.0
 11
36.0
 21
0.000000000000067
 31
0.0
  0
LINE
  5
4296
  8
250
  6
CONTINUOUS
 10
24.60000000000667
 20
12.499999999998771
 30
0.0
 11
36.0
 21
12.499999999998771
 31
0.0
  0
LINE
  5
4297
  8
250
  6
CONTINUOUS
 10
35.0
 20
2.2300000000000662
 30
0.0
 11
35.0
 21
10.26999999999877
 31
0.0
  0
LINE
  5
429C
  8
250
  6
CONTINUOUS
 10
40.875977964395133
 20
19.568281879479908
 30
0.0
 11
28.892471650838729
 21
19.568281879479908
 31
0.0
  0
LINE
  5
429D
  8
250
  6
CONTINUOUS
 10
28.892471650838729
 20
19.568281879479908
 30
0.0
 11
23.4278854078742
 21
13.911093413927521
 31
0.0
  0
LINE
  5
429E
  8
250
  6
CONTINUOUS
 10
23.4278854078742
 20
13.911093413927521
 30
0.0
 11
21.878576779544339
 21
12.30717858633141
 31
0.0
  0
LINE
  5
429F
  8
250
  6
CONTINUOUS
 10
23.21672601584585
 20
14.11506376347079
 30
0.0
 11
21.878576779544339
 21
12.30717858633141
 31
0.0
  0
LINE
  5
42A0
  8
250
  6
CONTINUOUS
 10
21.878576779544339
 20
12.30717858633141
 30
0.0
 11
23.63904479990255
 21
13.70712306438425
 31
0.0
  0
INSERT
  5
42A1
  8
250
  6
CONTINUOUS
  2
*U5
 10
0.0
 20
0.0
 30
0.0
  0
LINE
  5
42A2
  8
250
  6
CONTINUOUS
 10
0.0
 20
13.058592347426311
 30
0.0
 11
0.0000000000000006
 21
22.0
 31
0.0
  0
LINE
  5
42A3
  8
250
  6
CONTINUOUS
 10
24.500000000006679
 20
12.59999999999877
 30
0.0
 11
24.500000000006679
 21
22.0
 31
0.0
  0
LINE
  5
42A4
  8
250
  6
CONTINUOUS
 10
2.2299999999999991
 20
21.0
 30
0.0
 11
22.270000000006679
 21
21.0
 31
0.0
  0
TEXT
  5
42A8
  8
250
  6
CONTINUOUS
 10
7.5833333333366708
 20
22.0
 30
0.0
 40
2.799999999999998
  1
24.5
  0
LINE
  5
42A9
  8
250
  6
CONTINUOUS
 10
22.270000000006679
 20
21.37166666666667
 30
0.0
 11
24.500000000006679
 21
21.0
 31
0.0
  0
LINE
  5
42AA
  8
250
  6
CONTINUOUS
 10
22.270000000006679
 20
20.62833333333333
 30
0.0
 11
24.500000000006679
 21
21.0
 31
0.0
  0
LINE
  5
42AB
  8
250
  6
CONTINUOUS
 10
24.500000000006679
 20
21.0
 30
0.0
 11
22.270000000006679
 21
21.0
 31
0.0
  0
LINE
  5
42AC
  8
250
  6
CONTINUOUS
 10
2.2299999999999991
 20
20.62833333333333
 30
0.0
 11
0.0000000000000005
 21
21.0
 31
0.0
  0
LINE
  5
42AD
  8
250
  6
CONTINUOUS
 10
2.2299999999999991
 20
21.37166666666667
 30
0.0
 11
0.0000000000000005
 21
21.0
 31
0.0
  0
LINE
  5
42AE
  8
250
  6
CONTINUOUS
 10
0.0000000000000005
 20
21.0
 30
0.0
 11
2.2299999999999991
 21
21.0
 31
0.0
  0
TEXT
  5
42AF
  8
250
  6
CONTINUOUS
 10
34.0
 20
1.3833333333327591
 30
0.0
 40
2.799999999999998
  1
12.5
 50
90.0
  0
LINE
  5
42B0
  8
250
  6
CONTINUOUS
 10
34.62833333333333
 20
10.26999999999877
 30
0.0
 11
35.0
 21
12.499999999998771
 31
0.0
  0
LINE
  5
42B1
  8
250
  6
CONTINUOUS
 10
35.37166666666667
 20
10.26999999999877
 30
0.0
 11
35.0
 21
12.499999999998771
 31
0.0
  0
LINE
  5
42B2
  8
250
  6
CONTINUOUS
 10
35.0
 20
12.499999999998771
 30
0.0
 11
35.0
 21
10.26999999999877
 31
0.0
  0
LINE
  5
42B3
  8
250
  6
CONTINUOUS
 10
35.37166666666667
 20
2.2300000000000662
 30
0.0
 11
35.0
 21
0.0000000000000673
 31
0.0
  0
LINE
  5
42B4
  8
250
  6
CONTINUOUS
 10
34.62833333333333
 20
2.2300000000000662
 30
0.0
 11
35.0
 21
0.0000000000000673
 31
0.0
  0
LINE
  5
42B5
  8
250
  6
CONTINUOUS
 10
35.0
 20
0.0000000000000673
 30
0.0
 11
35.0
 21
2.2300000000000662
 31
0.0
  0
ARC
  5
48C7
  8
240
  6
CONTINUOUS
 10
0.0000000000065417
 20
39.456952387923572
 30
0.0
 40
30.763923617970349
 50
256.84775993619849
 51
283.1522400638014
  0
VIEWPORT
  5
22
 67
     1
  8
0
 10
261.51769911504419
 20
148.5
 30
0.0
 40
523.0353982300885
 41
297.0
 68
     1
 69
     1
1001
ACAD
1000
MVIEW
1002
{
1070
    16
1010
0.0
1020
0.0
1030
0.0
1010
0.0
1020
0.0
1030
1.0
1040
0.0
1040
297.0
1040
261.51769911504419
1040
148.5
1040
50.0
1040
0.0
1040
0.0
1070
     0
1070
   100
1070
     1
1070
     1
1070
     0
1070
     0
1070
     0
1070
     0
1040
0.0
1040
0.0
1040
0.0
1040
1.0
1040
1.0
1040
10.0
1040
10.0
1070
     0
1002
{
1002
}
1002
}
1001
GENIUS_GENODEF_13
1002
{
1000
HIER
1070
     0
1002
}
1002
{
1000
MANEDIT
1070
     0
1002
}
1002
{
1000
NOSEL
1070
     0
1002
}
1002
{
1000
BEHIND
1070
     0
1002
}
1002
{
1000
OTHER
1070
     0
1002
}
1002
{
1000
REACTOR
1002
}
1001
GENIUS_GENOBJ-N-SDF_13
1002
{
1000
OWNER
1000
GEN
1002
}
1001
GENIUS_GENSCREG_15
1000
PF
1040
1.0
1000
DF
1040
1.0
1000
MIN
1011
0.0
1021
0.0
1031
0.0
1021
0.0
1031
0.0
1000
MAX
1011
523.0353982300885
1021
0.0
1031
0.0
1021
297.0
1031
0.0
1000
FLAGS
1070
     4
  0
ENDSEC
  0
EOF
