  0
SECTION
  2
HEADER
  9
$ACADVER
  1
AC1009
  9
$INSBASE
 10
0.0
 20
0.0
 30
0.0
  9
$EXTMIN
 10
-9.4999999999925517
 20
-0.9673216674936283
 30
0.0
  9
$EXTMAX
 10
35.144519674557159
 20
38.000000000000021
 30
0.0
  9
$LIMMIN
 10
0.0
 20
0.0
  9
$LIMMAX
 10
297.0
 20
210.0
  9
$ORTHOMODE
 70
     1
  9
$REGENMODE
 70
     1
  9
$FILLMODE
 70
     1
  9
$QTEXTMODE
 70
     0
  9
$MIRRTEXT
 70
     1
  9
$DRAGMODE
 70
     2
  9
$LTSCALE
 40
10.0
  9
$OSMODE
 70
    45
  9
$ATTMODE
 70
     1
  9
$TEXTSIZE
 40
3.0
  9
$TRACEWID
 40
1.0
  9
$TEXTSTYLE
  7
YOKO
  9
$CLAYER
  8
240
  9
$CELTYPE
  6
BYLAYER
  9
$CECOLOR
 62
   256
  9
$DIMSCALE
 40
1.0
  9
$DIMASZ
 40
2.2299999999999991
  9
$DIMEXO
 40
0.5
  9
$DIMDLI
 40
7.0
  9
$DIMRND
 40
0.0
  9
$DIMDLE
 40
0.0
  9
$DIMEXE
 40
1.0
  9
$DIMTP
 40
0.0
  9
$DIMTM
 40
0.01
  9
$DIMTXT
 40
2.799999999999998
  9
$DIMCEN
 40
0.0
  9
$DIMTSZ
 40
0.0
  9
$DIMTOL
 70
     0
  9
$DIMLIM
 70
     0
  9
$DIMTIH
 70
     0
  9
$DIMTOH
 70
     0
  9
$DIMSE1
 70
     0
  9
$DIMSE2
 70
     0
  9
$DIMTAD
 70
     3
  9
$DIMZIN
 70
     9
  9
$DIMBLK
  1
OPEN
  9
$DIMASO
 70
     1
  9
$DIMSHO
 70
     1
  9
$DIMPOST
  1

  9
$DIMAPOST
  1

  9
$DIMALT
 70
     0
  9
$DIMALTD
 70
     2
  9
$DIMALTF
 40
25.399999999999999
  9
$DIMLFAC
 40
1.0
  9
$DIMTOFL
 70
     1
  9
$DIMTVP
 40
0.0
  9
$DIMTIX
 70
     1
  9
$DIMSOXD
 70
     0
  9
$DIMSAH
 70
     0
  9
$DIMBLK1
  1

  9
$DIMBLK2
  1

  9
$DIMSTYLE
  2
BIGT
  9
$DIMCLRD
 70
   256
  9
$DIMCLRE
 70
   256
  9
$DIMCLRT
 70
    40
  9
$DIMTFAC
 40
1.0
  9
$DIMGAP
 40
1.0
  9
$LUNITS
 70
     2
  9
$LUPREC
 70
     6
  9
$SKETCHINC
 40
1.0
  9
$FILLETRAD
 40
0.0
  9
$AUNITS
 70
     0
  9
$AUPREC
 70
     6
  9
$MENU
  1
.
  9
$ELEVATION
 40
0.0
  9
$PELEVATION
 40
0.0
  9
$THICKNESS
 40
0.0
  9
$LIMCHECK
 70
     0
  9
$BLIPMODE
 70
     0
  9
$CHAMFERA
 40
0.2
  9
$CHAMFERB
 40
0.2
  9
$SKPOLY
 70
     0
  9
$TDCREATE
 40
2457143.7677676389
  9
$TDUPDATE
 40
2457856.4101165971
  9
$TDINDWG
 40
0.0072470139
  9
$TDUSRTIMER
 40
0.007246956
  9
$USRTIMER
 70
     1
  9
$ANGBASE
 50
0.0
  9
$ANGDIR
 70
     0
  9
$PDMODE
 70
     1
  9
$PDSIZE
 40
0.0
  9
$PLINEWID
 40
0.0
  9
$COORDS
 70
     1
  9
$SPLFRAME
 70
     0
  9
$SPLINETYPE
 70
     6
  9
$SPLINESEGS
 70
     4
  9
$ATTDIA
 70
     1
  9
$ATTREQ
 70
     1
  9
$HANDLING
 70
     1
  9
$HANDSEED
  5
4AA9
  9
$SURFTAB1
 70
     6
  9
$SURFTAB2
 70
     6
  9
$SURFTYPE
 70
     6
  9
$SURFU
 70
     6
  9
$SURFV
 70
     6
  9
$UCSNAME
  2

  9
$UCSORG
 10
0.0
 20
0.0
 30
0.0
  9
$UCSXDIR
 10
1.0
 20
0.0
 30
0.0
  9
$UCSYDIR
 10
0.0
 20
1.0
 30
0.0
  9
$PUCSNAME
  2

  9
$PUCSORG
 10
0.0
 20
0.0
 30
0.0
  9
$PUCSXDIR
 10
1.0
 20
0.0
 30
0.0
  9
$PUCSYDIR
 10
0.0
 20
1.0
 30
0.0
  9
$USERI1
 70
     1
  9
$USERI2
 70
     0
  9
$USERI3
 70
     0
  9
$USERI4
 70
     0
  9
$USERI5
 70
     0
  9
$USERR1
 40
0.0
  9
$USERR2
 40
0.0
  9
$USERR3
 40
0.0
  9
$USERR4
 40
0.0
  9
$USERR5
 40
0.0
  9
$WORLDVIEW
 70
     1
  9
$SHADEDGE
 70
     3
  9
$SHADEDIF
 70
    70
  9
$TILEMODE
 70
     1
  9
$MAXACTVP
 70
    16
  9
$PLIMCHECK
 70
     0
  9
$PEXTMIN
 10
1.0000000000000000E+020
 20
1.0000000000000000E+020
 30
1.0000000000000000E+020
  9
$PEXTMAX
 10
-1.0000000000000000E+020
 20
-1.0000000000000000E+020
 30
-1.0000000000000000E+020
  9
$PLIMMIN
 10
0.0
 20
0.0
  9
$PLIMMAX
 10
420.0
 20
297.0
  9
$UNITMODE
 70
     0
  9
$VISRETAIN
 70
     1
  9
$PLINEGEN
 70
     0
  9
$PSLTSCALE
 70
     1
  0
ENDSEC
  0
SECTION
  2
TABLES
  0
TABLE
  2
VPORT
 70
     1
  0
VPORT
  2
*ACTIVE
 70
     0
 10
0.0
 20
0.0
 11
1.0
 21
1.0
 12
15.025365858087349
 22
21.64165796871217
 13
0.0
 23
0.0
 14
7.0
 24
7.0
 15
7.0
 25
7.0
 16
0.0
 26
0.0
 36
1.0
 17
0.0
 27
0.0
 37
0.0
 40
100.8179082061577
 41
1.496106785317018
 42
50.0
 43
0.0
 44
0.0
 50
0.0
 51
0.0
 71
     0
 72
  2000
 73
     1
 74
     0
 75
     0
 76
     1
 77
     0
 78
     0
  0
ENDTAB
  0
TABLE
  2
LTYPE
 70
    17
  0
LTYPE
  2
CONTINUOUS
 70
     0
  3
Solid line
 72
    65
 73
     0
 40
0.0
  0
LTYPE
  2
CENTER2
 70
     0
  3
___ _ ___ _ ___ _ ___ _ ___ _ ___ _ ___ _ ___ _
 72
    65
 73
     4
 40
1.125
 49
0.75
 49
-0.125
 49
0.125
 49
-0.125
  0
LTYPE
  2
HIDDEN2
 70
     0
  3
_ _ _ _ _ _ _ _ _ _ _ _ _ _ _ _ _ _ _ _ _ _ _ _
 72
    65
 73
     2
 40
0.1875
 49
0.125
 49
-0.0625
  0
LTYPE
  2
PHANTOM2
 70
     0
  3
___ _ _ ___ _ _ ___ _ _ ___ _ _ ___ _ _ ___ _ _
 72
    65
 73
     6
 40
1.25
 49
0.625
 49
-0.125
 49
0.125
 49
-0.125
 49
0.125
 49
-0.125
  0
LTYPE
  2
AMCONSTR
 70
     0
  3
_______________________
 72
    65
 73
     2
 40
9999.0
 49
9999.0
 49
0.0
  0
LTYPE
  2
HIDDEN
 70
     0
  3
Hidden __ __ __ __ __ __ __ __ __ __ __ __ __ _
 72
    65
 73
     2
 40
0.375
 49
0.25
 49
-0.125
  0
LTYPE
  2
CENTER
 70
     0
  3
Center ____ _ ____ _ ____ _ ____ _ ____ _ ____
 72
    65
 73
     4
 40
2.0
 49
1.25
 49
-0.25
 49
0.25
 49
-0.25
  0
LTYPE
  2
AMZIGZAG2
 70
     0
  3
/\/-/\/-/\/-/\/-/\/-/\/
 72
    65
 73
     2
 40
0.4401
 49
0.0001
 49
-0.4400000000000002
  0
LTYPE
  2
ACANSTGB
 70
     0
  3
__ . . __ . .
 72
    65
 73
     6
 40
0.35433070866
 49
0.15748031496
 49
-0.03937007874
 49
0.03937007874
 49
-0.03937007874
 49
0.03937007874
 49
-0.03937007874
  0
LTYPE
  2
ACANSTGL
 70
     0
  3
_ _ _ _ _
 72
    65
 73
     2
 40
0.11811023622
 49
0.07874015748
 49
-0.03937007874
  0
ENDTAB
  0
TABLE
  2
LAYER
 70
     7
  0
LAYER
  2
0
 70
     0
 62
     7
  6
CONTINUOUS
  0
LAYER
  2
245
 70
     0
 62
     2
  6
CENTER2
  0
LAYER
  2
241
 70
     0
 62
   211
  6
CONTINUOUS
  0
LAYER
  2
DEFPOINTS
 70
     0
 62
     7
  6
CONTINUOUS
  0
LAYER
  2
240
 70
     0
 62
     4
  6
CONTINUOUS
  0
LAYER
  2
246
 70
     0
 62
     3
  6
PHANTOM2
  0
LAYER
  2
250
 70
     0
 62
     3
  6
CONTINUOUS
  0
ENDTAB
  0
TABLE
  2
STYLE
 70
     7
  0
STYLE
  2
STANDARD
 70
     0
 40
0.0
 41
1.0
 50
0.0
 71
     0
 42
3.0
  3
romans.shx
  4
extfont.shx
  0
STYLE
  2
YOKO
 70
     0
 40
0.0
 41
1.0
 50
0.0
 71
     0
 42
3.0
  3
romans.shx
  4
extfont.shx
  0
STYLE
  2
ACJISTS
 70
     0
 40
1.0
 41
1.0
 50
0.0
 71
     0
 42
3.0
  3
amgdt.shx
  4
extfont.shx
  0
STYLE
  2
ACANSGDT
 70
     0
 40
0.0
 41
1.0
 50
0.0
 71
     0
 42
3.0
  3
amgdt.shx
  4

  0
ENDTAB
  0
TABLE
  2
VIEW
 70
     0
  0
ENDTAB
  0
TABLE
  2
UCS
 70
     0
  0
ENDTAB
  0
TABLE
  2
APPID
 70
    38
  0
APPID
  2
ACAD
 70
     0
  0
APPID
  2
ACADANNOTATIVE
 70
     0
  0
APPID
  2
GLOBAL
 70
     0
  0
APPID
  2
DETAIL
 70
     0
  0
APPID
  2
GRPNAME
 70
     0
  0
APPID
  2
GPARA
 70
     0
  0
APPID
  2
MCAD_NO_VIS
 70
     0
  0
APPID
  2
ACAD_TEMP_GRAPHIC
 70
     0
  0
APPID
  2
ACATTRIBSERVICES
 70
     0
  0
APPID
  2
GENIUS_GENSCREG_15
 70
     0
  0
APPID
  2
GENIUS_GENODEF_13
 70
     0
  0
APPID
  2
GENIUS_GENOBJ-N-SDF_13
 70
     0
  0
APPID
  2
GENIUS_GENREC_14
 70
     0
  0
APPID
  2
GENIUS_GENOBJ-N-REC_13
 70
     0
  0
APPID
  2
GENIUS_GENDIMSH_14
 70
     0
  0
APPID
  2
GENIUS_GENOBJ-N-DIM_13
 70
     0
  0
APPID
  2
GENIUS_GENDIM_13
 70
     0
  0
APPID
  2
GENIUS_GENDTOL_13
 70
     0
  0
APPID
  2
GENIUS_GENOLIS_13
 70
     0
  0
APPID
  2
GENIUS_GENOENT_13
 70
     0
  0
APPID
  2
GENIUS_GENOBJ-F-FEM_13
 70
     0
  0
APPID
  2
GENIUS_GENOREF_13
 70
     0
  0
APPID
  2
GENIUS_GEFFEM_13
 70
     0
  0
APPID
  2
GENIUS_GEFFEMP_13
 70
     0
  0
APPID
  2
AD_DRAW
 70
     0
  0
APPID
  2
DESIGNERASSEMBLIES
 70
     0
  0
APPID
  2
ACADM_DIM_EDIT
 70
     0
  0
APPID
  2
AMDT_DM_ADJ
 70
     0
  0
APPID
  2
ITEMNAME
 70
     0
  0
APPID
  2
GENIUS_GENOBJ-N-FIL_13
 70
     0
  0
APPID
  2
GENIUS_GENFIL_13
 70
     0
  0
APPID
  2
GENIUS_GENOBJ-N-CHA_13
 70
     0
  0
APPID
  2
ACAD_NAV_VCDISPLAY
 70
     0
  0
APPID
  2
ACAD_DSTYLE_DIMINSPECT
 70
     0
  0
APPID
  2
ACAD_EXEMPT_FROM_CAD_STANDARDS
 70
     0
  0
APPID
  2
ACAD_MLEADERVER
 70
     0
  0
APPID
  2
ACAD_DSTYLE_DIMJAG
 70
     0
  0
APPID
  2
ACAD_DSTYLE_DIMBREAK
 70
     0
  0
ENDTAB
  0
TABLE
  2
DIMSTYLE
 70
    10
  0
DIMSTYLE
  2
STANDARD
 70
     0
  3

  4

  5

  6

  7

 40
1.0
 41
0.18
 42
0.0625
 43
0.38
 44
0.18
 45
0.0
 46
0.0
 47
0.0
 48
0.0
140
0.18
141
0.09
142
0.0
143
25.399999999999999
144
1.0
145
0.0
146
1.0
147
0.09
 71
     0
 72
     0
 73
     1
 74
     1
 75
     0
 76
     0
 77
     0
 78
     0
170
     0
171
     2
172
     0
173
     0
174
     0
175
     0
176
     0
177
     0
178
     0
  0
DIMSTYLE
  2
BIGT
 70
     0
  3

  4

  5

  6

  7

 40
1.0
 41
2.2299999999999991
 42
0.5
 43
7.0
 44
1.0
 45
0.0
 46
0.0
 47
0.0
 48
0.01
140
2.799999999999998
141
0.0
142
0.0
143
25.399999999999999
144
1.0
145
0.0
146
1.0
147
1.0
 71
     0
 72
     0
 73
     0
 74
     0
 75
     0
 76
     0
 77
     3
 78
     9
170
     0
171
     2
172
     1
173
     0
174
     1
175
     0
176
   256
177
   256
178
    40
  0
DIMSTYLE
  2
AM_ANSI
 70
     0
  3

  4
mm
  5

  6

  7

 40
1.0
 41
0.12
 42
0.05
 43
0.5
 44
0.1
 45
0.0
 46
0.0
 47
0.1
 48
0.1
140
0.12
141
0.0
142
0.0
143
25.399999999999999
144
1.0
145
0.0
146
0.71
147
0.06
 71
     0
 72
     0
 73
     1
 74
     1
 75
     0
 76
     0
 77
     0
 78
     7
170
     0
171
     2
172
     0
173
     0
174
     0
175
     0
176
   256
177
   256
178
     2
  0
DIMSTYLE
  2
AM_ANSI$3
 70
     0
  3

  4
mm
  5

  6

  7

 40
1.0
 41
0.12
 42
0.05
 43
0.5
 44
0.1
 45
0.0
 46
0.0
 47
0.1
 48
0.1
140
0.12
141
0.0
142
0.0
143
25.399999999999999
144
1.0
145
0.0
146
0.71
147
0.06
 71
     0
 72
     0
 73
     1
 74
     1
 75
     0
 76
     0
 77
     0
 78
     7
170
     0
171
     2
172
     0
173
     0
174
     0
175
     0
176
   256
177
   256
178
     2
  0
DIMSTYLE
  2
AM_ANSI$4
 70
     0
  3

  4
mm
  5

  6

  7

 40
1.0
 41
0.12
 42
0.05
 43
0.5
 44
0.1
 45
0.0
 46
0.0
 47
0.1
 48
0.1
140
0.12
141
0.0
142
0.0
143
25.399999999999999
144
1.0
145
0.0
146
0.71
147
0.06
 71
     0
 72
     0
 73
     1
 74
     1
 75
     0
 76
     0
 77
     0
 78
     7
170
     0
171
     2
172
     0
173
     0
174
     0
175
     0
176
   256
177
   256
178
     2
  0
DIMSTYLE
  2
AM_ANSI$7
 70
     0
  3

  4
mm
  5

  6

  7

 40
1.0
 41
0.12
 42
0.05
 43
0.5
 44
0.1
 45
0.0
 46
0.0
 47
0.1
 48
0.1
140
0.12
141
0.0
142
0.0
143
25.399999999999999
144
1.0
145
0.0
146
0.71
147
0.06
 71
     0
 72
     0
 73
     1
 74
     1
 75
     0
 76
     0
 77
     0
 78
     7
170
     0
171
     2
172
     0
173
     0
174
     0
175
     0
176
   256
177
   256
178
     2
  0
DIMSTYLE
  2
AM_ANSI$SF
 70
     0
  3

  4
mm
  5

  6

  7

 40
1.0
 41
0.12
 42
0.05
 43
0.5
 44
0.1
 45
0.0
 46
0.0
 47
0.1
 48
0.1
140
0.12
141
0.0
142
0.0
143
25.399999999999999
144
1.0
145
0.0
146
0.71
147
0.06
 71
     0
 72
     0
 73
     1
 74
     1
 75
     1
 76
     1
 77
     0
 78
     7
170
     0
171
     2
172
     0
173
     0
174
     0
175
     0
176
   256
177
   256
178
     2
  0
DIMSTYLE
  2
AM_ANSI$SH
 70
     0
  3

  4
mm
  5

  6

  7

 40
1.0
 41
0.12
 42
0.05
 43
0.5
 44
0.1
 45
0.0
 46
0.0
 47
0.1
 48
0.1
140
0.12
141
0.0
142
0.0
143
25.399999999999999
144
1.0
145
0.0
146
0.71
147
0.06
 71
     0
 72
     0
 73
     1
 74
     1
 75
     1
 76
     1
 77
     0
 78
     7
170
     0
171
     2
172
     0
173
     1
174
     0
175
     0
176
   256
177
   256
178
     2
  0
ENDTAB
  0
ENDSEC
  0
SECTION
  2
BLOCKS
  0
BLOCK
  8
0
  2
$MODEL_SPACE
 70
     0
 10
0.0
 20
0.0
 30
0.0
  3
$MODEL_SPACE
  1

  0
ENDBLK
  5
4986
  8
0
  0
BLOCK
 67
     1
  8
0
  2
$PAPER_SPACE
 70
     0
 10
0.0
 20
0.0
 30
0.0
  3
$PAPER_SPACE
  1

  0
ENDBLK
  5
4982
 67
     1
  8
0
  0
BLOCK
  8
0
  2
_OPEN
 70
     0
 10
0.0
 20
0.0
 30
0.0
  3
_OPEN
  1

  0
LINE
  5
449A
  8
0
  6
BYBLOCK
 62
     0
 10
-1.0
 20
0.1666666666666666
 30
0.0
 11
0.0
 21
0.0
 31
0.0
  0
LINE
  5
449B
  8
0
  6
BYBLOCK
 62
     0
 10
-1.0
 20
-0.1666666666666666
 30
0.0
 11
0.0
 21
0.0
 31
0.0
  0
LINE
  5
449C
  8
0
  6
BYBLOCK
 62
     0
 10
0.0
 20
0.0
 30
0.0
 11
-1.0
 21
0.0
 31
0.0
  0
ENDBLK
  5
449D
  8
0
  0
BLOCK
  8
0
  2
_ACMFILLEDHALF
 70
     0
 10
0.0
 20
0.0
 30
0.0
  3
_ACMFILLEDHALF
  1

  0
TRACE
  5
489C
  8
241
 62
     0
 10
-0.8
 20
0.0
 30
0.0
 11
-1.0
 21
0.166666666
 31
0.0
 12
0.0
 22
0.0
 32
0.0
 13
0.0
 23
0.0
 33
0.0
  0
LINE
  5
489D
  8
241
 62
     0
 10
-1.0
 20
0.0
 30
0.0
 11
-0.8
 21
0.0
 31
0.0
  0
ENDBLK
  5
489B
  8
0
  0
ENDSEC
  0
SECTION
  2
ENTITIES
  0
CIRCLE
  5
41E9
  8
246
  6
PHANTOM2
 10
15.2284970869121
 20
7.2992067375097971
 30
0.0
 40
2.379999999999999
1001
GRPNAME
1000
PASTMD11
  0
LINE
  5
41EA
  8
240
  6
CONTINUOUS
 10
-9.4999999999925517
 20
-0.0000000000000284
 30
0.0
 11
-2.8330629563654801
 21
-0.0000000000000213
 31
0.0
1001
GRPNAME
1000
PASTMD1L
  0
LINE
  5
41EB
  8
240
  6
CONTINUOUS
 10
18.200000000012292
 20
1.2071067811866161
 30
0.0
 11
18.200000000012071
 21
8.0400555310641391
 31
0.0
  0
LINE
  5
41EC
  8
240
  6
CONTINUOUS
 10
18.053553390605561
 20
0.8535533905933332
 30
0.0
 11
17.346446609419068
 21
0.1464466094068157
 31
0.0
  0
LINE
  5
41ED
  8
241
  6
CONTINUOUS
 10
9.5000000000075033
 20
0.0000000000000497
 30
0.0
 11
9.5000000000069917
 21
7.4999999999998499
 31
0.0
1001
GRPNAME
1000
PASTMD1L
  0
LINE
  5
41EE
  8
241
  6
CONTINUOUS
 10
8.2272413359596612
 20
0.0000000000000497
 30
0.0
 11
8.2272413359596612
 21
7.3630942110593081
 31
0.0
1001
GRPNAME
1000
PASTMD1L
  0
LINE
  5
41EF
  8
240
  6
CONTINUOUS
 10
4.5000000000075033
 20
7.5000000000000462
 30
0.0
 11
9.8000000000074579
 21
7.5000000000000462
 31
0.0
1001
GRPNAME
1000
PASTMD1L
  0
LINE
  5
41F0
  8
240
  6
CONTINUOUS
 10
9.8000000000074579
 20
7.5000000000000462
 30
0.0
 11
10.516773576699419
 21
8.2167735766941128
 31
0.0
1001
GRPNAME
1000
PASTMD1L
  0
LINE
  5
41F1
  8
240
  6
CONTINUOUS
 10
10.516773576699419
 20
8.2167735766941128
 30
0.0
 11
11.55266901892672
 21
8.3994298923516961
 31
0.0
  0
ARC
  5
41F2
  8
241
  6
CONTINUOUS
 10
7.5000000000075024
 20
5.5000000000000924
 30
0.0
 40
1.9999999999999849
 50
68.677279065032039
 51
89.999999947349153
1001
GRPNAME
1000
PASTMD1L
  0
LINE
  5
41F4
  8
240
  6
CONTINUOUS
 10
-9.4999999999925517
 20
-0.0000000000000284
 30
0.0
 11
-9.4999999999924967
 21
5.5000000000000471
 31
0.0
1001
GRPNAME
1000
PASTMD1L
  0
LINE
  5
41F5
  8
240
  6
CONTINUOUS
 10
-7.4999999999924949
 20
7.5000000000000462
 30
0.0
 11
-4.499999999992494
 21
7.5000000000000462
 31
0.0
1001
GRPNAME
1000
PASTMD1L
  0
ARC
  5
41F7
  8
240
  6
CONTINUOUS
 10
-7.4999999999924949
 20
5.5000000000000924
 30
0.0
 40
2.0
 50
89.999999992287684
 51
179.99999999228109
1001
GRPNAME
1000
PASTMD1L
  0
LINE
  5
41F8
  8
245
  6
CENTER2
 10
0.0
 20
9.6057384518331812
 30
0.0
 11
0.0
 21
-0.9673216674936283
 31
0.0
1001
GRPNAME
1000
PASTMD1G
  0
LINE
  5
41F9
  8
240
  6
CONTINUOUS
 10
11.25956398688265
 20
9.3410612983178183
 30
0.0
 11
18.782568851462411
 21
9.9992389396184453
 31
0.0
1001
GRPNAME
1000
PASTMD11
  0
LINE
  5
41FC
  8
241
  6
CONTINUOUS
 10
15.78975768269915
 20
2.8712742014814192
 30
0.0
 11
18.200000000012071
 21
8.0400555310641391
 31
0.0
1001
GRPNAME
1000
PASTMD11
  0
LINE
  5
41FE
  8
240
  6
CONTINUOUS
 10
11.113164726574411
 20
9.0271070714292936
 30
0.0
 11
11.552669018926711
 21
8.3994298923516943
 31
0.0
1001
GRPNAME
1000
PASTMD11
  0
ARC
  5
4200
  8
241
  6
CONTINUOUS
 10
15.60849612529181
 20
2.9557978538295582
 30
0.0
 40
0.2000000000000104
 50
214.9999998058544
 51
334.99999980586568
1001
GRPNAME
1000
PASTMD11
  0
ARC
  5
4201
  8
240
  6
CONTINUOUS
 10
11.276995135432159
 20
9.1418223586994785
 30
0.0
 40
0.1999999999999656
 50
95.000000165807094
 51
215.00000016582879
1001
GRPNAME
1000
PASTMD11
  0
ARC
  5
4206
  8
240
  6
CONTINUOUS
 10
18.80000000001192
 20
9.8000000000001144
 30
0.0
 40
0.2000000000000606
 50
335.00000032008938
 51
95.000000320067102
1001
GRPNAME
1000
PASTMD11
  0
LINE
  5
4209
  8
240
  6
CONTINUOUS
 10
-2.2322518254697741
 20
2.1000000000000001
 30
0.0
 11
2.232251825469004
 21
2.0999999999999921
 31
0.0
  0
LINE
  5
420A
  8
240
  6
CONTINUOUS
 10
-2.232251825469759
 20
1.599999999999745
 30
0.0
 11
-2.4330629563674351
 21
0.4000000000000271
 31
0.0
  0
LINE
  5
420B
  8
240
  6
CONTINUOUS
 10
-2.4330629563674351
 20
0.4000000000000271
 30
0.0
 11
-2.833062956367411
 21
-0.0000000000000213
 31
0.0
  0
LINE
  5
420C
  8
240
  6
CONTINUOUS
 10
-2.232251825469759
 20
1.599999999999745
 30
0.0
 11
-2.2322518254697741
 21
2.1000000000000001
 31
0.0
  0
LINE
  5
420D
  8
240
  6
CONTINUOUS
 10
2.232251825469759
 20
1.599999999999745
 30
0.0
 11
2.4330629563674351
 21
0.4000000000000271
 31
0.0
  0
LINE
  5
420E
  8
240
  6
CONTINUOUS
 10
2.4330629563674351
 20
0.4000000000000271
 30
0.0
 11
2.833062956367411
 21
-0.0000000000000213
 31
0.0
  0
LINE
  5
420F
  8
240
  6
CONTINUOUS
 10
2.232251825469759
 20
1.599999999999745
 30
0.0
 11
2.2322518254697741
 21
2.1000000000000001
 31
0.0
  0
LINE
  5
4210
  8
240
  6
CONTINUOUS
 10
2.833062956368932
 20
0.0000000000000142
 30
0.0
 11
16.992893218825799
 21
0.0000000000000853
 31
0.0
1001
GRPNAME
1000
PASTMD1L
  0
ARC
  5
421A
  8
240
  6
CONTINUOUS
 10
17.700000000012292
 20
1.2071067811866021
 30
0.0
 40
0.5
 50
315.00000000000063
 51
0.0000000000020356
  0
ARC
  5
421B
  8
240
  6
CONTINUOUS
 10
16.992893218825799
 20
0.5000000000000853
 30
0.0
 40
0.5
 50
270.0
 51
315.00000000000148
  0
TEXT
  5
428A
  8
241
  6
CONTINUOUS
 10
0.0
 20
35.0
 30
0.0
 40
3.0
  1
ENH5-1J
  7
YOKO
  0
LINE
  5
4293
  8
250
  6
CONTINUOUS
 10
17.492893218825799
 20
0.0000000000000851
 30
0.0
 11
29.0
 21
0.0000000000000819
 31
0.0
  0
LINE
  5
4294
  8
250
  6
CONTINUOUS
 10
19.300000000011931
 20
10.000000000000179
 30
0.0
 11
29.0
 21
10.000000000000171
 31
0.0
  0
LINE
  5
4295
  8
250
  6
CONTINUOUS
 10
28.0
 20
2.2300000000000821
 30
0.0
 11
28.0
 21
7.7700000000001763
 31
0.0
  0
LINE
  5
429A
  8
250
  6
CONTINUOUS
 10
35.144519674557159
 20
17.710700815454341
 30
0.0
 11
22.394131861647448
 21
17.710700815454341
 31
0.0
  0
LINE
  5
429B
  8
250
  6
CONTINUOUS
 10
22.394131861647448
 20
17.710700815454341
 30
0.0
 11
18.029350719065562
 21
11.63105412899154
 31
0.0
  0
LINE
  5
429C
  8
250
  6
CONTINUOUS
 10
18.029350719065562
 20
11.63105412899154
 30
0.0
 11
16.72881795700291
 21
9.8195590186471389
 31
0.0
  0
LINE
  5
429D
  8
250
  6
CONTINUOUS
 10
17.79086286448543
 20
11.802272514547401
 30
0.0
 11
16.72881795700291
 21
9.8195590186471389
 31
0.0
  0
LINE
  5
429E
  8
250
  6
CONTINUOUS
 10
16.72881795700291
 20
9.8195590186471389
 30
0.0
 11
18.26783857364569
 21
11.459835743435679
 31
0.0
  0
LINE
  5
42A0
  8
250
  6
CONTINUOUS
 10
0.0
 20
10.105738451833179
 30
0.0
 11
0.0000000000000008
 21
22.0
 31
0.0
  0
LINE
  5
42A1
  8
250
  6
CONTINUOUS
 10
19.00000000001199
 20
10.30000000000012
 30
0.0
 11
19.00000000001199
 21
22.0
 31
0.0
  0
LINE
  5
42A2
  8
250
  6
CONTINUOUS
 10
2.2299999999999991
 20
21.0
 30
0.0
 11
16.77000000001199
 21
21.0
 31
0.0
  0
TEXT
  5
42A6
  8
250
  6
CONTINUOUS
 10
6.7000000000059972
 20
22.0
 30
0.0
 40
2.799999999999998
  1
19
  0
LINE
  5
42A7
  8
250
  6
CONTINUOUS
 10
16.77000000001199
 20
21.37166666666667
 30
0.0
 11
19.00000000001199
 21
21.0
 31
0.0
  0
LINE
  5
42A8
  8
250
  6
CONTINUOUS
 10
16.77000000001199
 20
20.62833333333333
 30
0.0
 11
19.00000000001199
 21
21.0
 31
0.0
  0
LINE
  5
42A9
  8
250
  6
CONTINUOUS
 10
19.00000000001199
 20
21.0
 30
0.0
 11
16.77000000001199
 21
21.0
 31
0.0
  0
LINE
  5
42AA
  8
250
  6
CONTINUOUS
 10
2.2299999999999991
 20
20.62833333333333
 30
0.0
 11
0.0000000000000007
 21
21.0
 31
0.0
  0
LINE
  5
42AB
  8
250
  6
CONTINUOUS
 10
2.2299999999999991
 20
21.37166666666667
 30
0.0
 11
0.0000000000000007
 21
21.0
 31
0.0
  0
LINE
  5
42AC
  8
250
  6
CONTINUOUS
 10
0.0000000000000007
 20
21.0
 30
0.0
 11
2.2299999999999991
 21
21.0
 31
0.0
  0
TEXT
  5
42AD
  8
250
  6
CONTINUOUS
 10
22.477853007890491
 20
19.11070081545434
 30
0.0
 40
2.799999999999998
  1
TP08
  7
ACJISTS
  0
TEXT
  5
42AE
  8
250
  6
CONTINUOUS
 10
27.000000000000011
 20
2.1333333333334661
 30
0.0
 40
2.799999999999998
  1
10
 50
90.0
  0
LINE
  5
42AF
  8
250
  6
CONTINUOUS
 10
27.628333333333341
 20
7.7700000000001772
 30
0.0
 11
28.000000000000011
 21
10.000000000000171
 31
0.0
  0
LINE
  5
42B0
  8
250
  6
CONTINUOUS
 10
28.37166666666667
 20
7.7700000000001772
 30
0.0
 11
28.000000000000011
 21
10.000000000000171
 31
0.0
  0
LINE
  5
42B1
  8
250
  6
CONTINUOUS
 10
28.000000000000011
 20
10.000000000000171
 30
0.0
 11
28.000000000000011
 21
7.7700000000001772
 31
0.0
  0
LINE
  5
42B2
  8
250
  6
CONTINUOUS
 10
28.371666666666659
 20
2.2300000000000821
 30
0.0
 11
28.0
 21
0.0000000000000821
 31
0.0
  0
LINE
  5
42B3
  8
250
  6
CONTINUOUS
 10
27.62833333333333
 20
2.2300000000000821
 30
0.0
 11
28.0
 21
0.0000000000000821
 31
0.0
  0
LINE
  5
42B4
  8
250
  6
CONTINUOUS
 10
28.0
 20
0.0000000000000821
 30
0.0
 11
28.0
 21
2.2300000000000821
 31
0.0
  0
ARC
  5
4A46
  8
240
  6
CONTINUOUS
 10
0.0000000000036398
 20
30.832058502406841
 30
0.0
 40
23.76204860612334
 50
259.08353546896842
 51
280.91646453103209
  0
LINE
  5
4A47
  8
241
  6
CONTINUOUS
 10
11.55266901892672
 20
8.3994298923516943
 30
0.0
 11
15.44466571643399
 21
2.8410825665594142
 31
0.0
1001
GRPNAME
1000
PASTMD11
  0
LINE
  5
4A4A
  8
240
  6
CONTINUOUS
 10
18.200000000012071
 20
8.0400555310641302
 30
0.0
 11
18.98126155741927
 21
9.7154763476519914
 31
0.0
1001
GRPNAME
1000
PASTMD11
  0
VIEWPORT
  5
22
 67
     1
  8
0
 10
261.51769911504419
 20
148.5
 30
0.0
 40
523.0353982300885
 41
297.0
 68
     1
 69
     1
1001
ACAD
1000
MVIEW
1002
{
1070
    16
1010
0.0
1020
0.0
1030
0.0
1010
0.0
1020
0.0
1030
1.0
1040
0.0
1040
297.0
1040
261.51769911504419
1040
148.5
1040
50.0
1040
0.0
1040
0.0
1070
     0
1070
   100
1070
     1
1070
     1
1070
     0
1070
     0
1070
     0
1070
     0
1040
0.0
1040
0.0
1040
0.0
1040
1.0
1040
1.0
1040
10.0
1040
10.0
1070
     0
1002
{
1002
}
1002
}
1001
GENIUS_GENODEF_13
1002
{
1000
HIER
1070
     0
1002
}
1002
{
1000
MANEDIT
1070
     0
1002
}
1002
{
1000
NOSEL
1070
     0
1002
}
1002
{
1000
BEHIND
1070
     0
1002
}
1002
{
1000
OTHER
1070
     0
1002
}
1002
{
1000
REACTOR
1002
}
1001
GENIUS_GENOBJ-N-SDF_13
1002
{
1000
OWNER
1000
GEN
1002
}
1001
GENIUS_GENSCREG_15
1000
PF
1040
1.0
1000
DF
1040
1.0
1000
MIN
1011
0.0
1021
0.0
1031
0.0
1021
0.0
1031
0.0
1000
MAX
1011
523.0353982300885
1021
0.0
1031
0.0
1021
297.0
1031
0.0
1000
FLAGS
1070
     4
  0
ENDSEC
  0
EOF
