  0
SECTION
  2
HEADER
  9
$ACADVER
  1
AC1009
  9
$INSBASE
 10
0.0
 20
0.0
 30
0.0
  9
$EXTMIN
 10
-7.7000000000000002
 20
-1.0
 30
0.0
  9
$EXTMAX
 10
33.895174475677372
 20
53.600000000000001
 30
0.0
  9
$LIMMIN
 10
0.0
 20
0.0
  9
$LIMMAX
 10
420.0
 20
297.0
  9
$ORTHOMODE
 70
     0
  9
$REGENMODE
 70
     1
  9
$FILLMODE
 70
     1
  9
$QTEXTMODE
 70
     0
  9
$MIRRTEXT
 70
     1
  9
$DRAGMODE
 70
     2
  9
$LTSCALE
 40
10.0
  9
$OSMODE
 70
    45
  9
$ATTMODE
 70
     1
  9
$TEXTSIZE
 40
3.0
  9
$TRACEWID
 40
1.0
  9
$TEXTSTYLE
  7
YOKO
  9
$CLAYER
  8
240
  9
$CELTYPE
  6
BYLAYER
  9
$CECOLOR
 62
   256
  9
$DIMSCALE
 40
1.0
  9
$DIMASZ
 40
2.2299999999999991
  9
$DIMEXO
 40
0.5
  9
$DIMDLI
 40
2.5
  9
$DIMRND
 40
0.0
  9
$DIMDLE
 40
0.0
  9
$DIMEXE
 40
1.0
  9
$DIMTP
 40
0.0
  9
$DIMTM
 40
0.0
  9
$DIMTXT
 40
2.799999999999998
  9
$DIMCEN
 40
0.0
  9
$DIMTSZ
 40
0.0
  9
$DIMTOL
 70
     0
  9
$DIMLIM
 70
     0
  9
$DIMTIH
 70
     0
  9
$DIMTOH
 70
     0
  9
$DIMSE1
 70
     0
  9
$DIMSE2
 70
     0
  9
$DIMTAD
 70
     3
  9
$DIMZIN
 70
     8
  9
$DIMBLK
  1

  9
$DIMASO
 70
     1
  9
$DIMSHO
 70
     1
  9
$DIMPOST
  1
<>
  9
$DIMAPOST
  1

  9
$DIMALT
 70
     0
  9
$DIMALTD
 70
     2
  9
$DIMALTF
 40
25.399999999999999
  9
$DIMLFAC
 40
1.0
  9
$DIMTOFL
 70
     1
  9
$DIMTVP
 40
0.0
  9
$DIMTIX
 70
     1
  9
$DIMSOXD
 70
     0
  9
$DIMSAH
 70
     1
  9
$DIMBLK1
  1
OPEN
  9
$DIMBLK2
  1
OPEN
  9
$DIMSTYLE
  2
BIGT
  9
$DIMCLRD
 70
   256
  9
$DIMCLRE
 70
   256
  9
$DIMCLRT
 70
    40
  9
$DIMTFAC
 40
1.0
  9
$DIMGAP
 40
1.0
  9
$LUNITS
 70
     2
  9
$LUPREC
 70
     3
  9
$SKETCHINC
 40
1.0
  9
$FILLETRAD
 40
0.0
  9
$AUNITS
 70
     0
  9
$AUPREC
 70
     3
  9
$MENU
  1
.
  9
$ELEVATION
 40
0.0
  9
$PELEVATION
 40
0.0
  9
$THICKNESS
 40
0.0
  9
$LIMCHECK
 70
     0
  9
$BLIPMODE
 70
     0
  9
$CHAMFERA
 40
10.0
  9
$CHAMFERB
 40
10.0
  9
$SKPOLY
 70
     0
  9
$TDCREATE
 40
2455449.3984326161
  9
$TDUPDATE
 40
2457855.75306419
  9
$TDINDWG
 40
0.0165170718
  9
$TDUSRTIMER
 40
0.0165170255
  9
$USRTIMER
 70
     1
  9
$ANGBASE
 50
0.0
  9
$ANGDIR
 70
     0
  9
$PDMODE
 70
     1
  9
$PDSIZE
 40
-5.0
  9
$PLINEWID
 40
0.0
  9
$COORDS
 70
     1
  9
$SPLFRAME
 70
     0
  9
$SPLINETYPE
 70
     6
  9
$SPLINESEGS
 70
     8
  9
$ATTDIA
 70
     1
  9
$ATTREQ
 70
     1
  9
$HANDLING
 70
     1
  9
$HANDSEED
  5
103B
  9
$SURFTAB1
 70
     6
  9
$SURFTAB2
 70
     6
  9
$SURFTYPE
 70
     6
  9
$SURFU
 70
     6
  9
$SURFV
 70
     6
  9
$UCSNAME
  2

  9
$UCSORG
 10
0.0
 20
0.0
 30
0.0
  9
$UCSXDIR
 10
1.0
 20
0.0
 30
0.0
  9
$UCSYDIR
 10
0.0
 20
1.0
 30
0.0
  9
$PUCSNAME
  2

  9
$PUCSORG
 10
0.0
 20
0.0
 30
0.0
  9
$PUCSXDIR
 10
1.0
 20
0.0
 30
0.0
  9
$PUCSYDIR
 10
0.0
 20
1.0
 30
0.0
  9
$USERI1
 70
     1
  9
$USERI2
 70
     0
  9
$USERI3
 70
     0
  9
$USERI4
 70
     0
  9
$USERI5
 70
     0
  9
$USERR1
 40
0.0
  9
$USERR2
 40
0.0
  9
$USERR3
 40
0.0
  9
$USERR4
 40
0.0
  9
$USERR5
 40
0.0
  9
$WORLDVIEW
 70
     1
  9
$SHADEDGE
 70
     3
  9
$SHADEDIF
 70
    70
  9
$TILEMODE
 70
     1
  9
$MAXACTVP
 70
    16
  9
$PLIMCHECK
 70
     0
  9
$PEXTMIN
 10
1.0000000000000000E+020
 20
1.0000000000000000E+020
 30
1.0000000000000000E+020
  9
$PEXTMAX
 10
-1.0000000000000000E+020
 20
-1.0000000000000000E+020
 30
-1.0000000000000000E+020
  9
$PLIMMIN
 10
0.0
 20
0.0
  9
$PLIMMAX
 10
420.0
 20
297.0
  9
$UNITMODE
 70
     0
  9
$VISRETAIN
 70
     0
  9
$PLINEGEN
 70
     0
  9
$PSLTSCALE
 70
     1
  0
ENDSEC
  0
SECTION
  2
TABLES
  0
TABLE
  2
VPORT
 70
     1
  0
VPORT
  2
*ACTIVE
 70
     0
 10
0.0
 20
0.0
 11
1.0
 21
1.0
 12
12.651780931753921
 22
21.554718816593489
 13
0.0
 23
0.0
 14
7.0
 24
7.0
 15
7.0
 25
7.0
 16
0.0
 26
0.0
 36
1.0
 17
0.0
 27
0.0
 37
0.0
 40
85.572479794959762
 41
1.496106785317018
 42
50.0
 43
0.0
 44
0.0
 50
0.0
 51
0.0
 71
     0
 72
  2000
 73
     1
 74
     0
 75
     0
 76
     1
 77
     0
 78
     0
  0
ENDTAB
  0
TABLE
  2
LTYPE
 70
    16
  0
LTYPE
  2
CONTINUOUS
 70
     0
  3
Solid line
 72
    65
 73
     0
 40
0.0
  0
LTYPE
  2
CENTER2
 70
     0
  3
___ _ ___ _ ___ _ ___ _ ___ _ ___ _ ___ _ ___ _
 72
    65
 73
     4
 40
1.125
 49
0.75
 49
-0.125
 49
0.125
 49
-0.125
  0
LTYPE
  2
PHANTOM2
 70
     0
  3
___ _ _ ___ _ _ ___ _ _ ___ _ _ ___ _ _ ___ _ _
 72
    65
 73
     6
 40
1.25
 49
0.625
 49
-0.125
 49
0.125
 49
-0.125
 49
0.125
 49
-0.125
  0
LTYPE
  2
HIDDEN2
 70
     0
  3
_ _ _ _ _ _ _ _ _ _ _ _ _ _ _ _ _ _ _ _ _ _ _ _
 72
    65
 73
     2
 40
0.1875
 49
0.125
 49
-0.0625
  0
LTYPE
  2
AMCONSTR
 70
     0
  3
_______________________
 72
    65
 73
     2
 40
9999.0
 49
9999.0
 49
0.0
  0
LTYPE
  2
HIDDEN
 70
     0
  3
Hidden __ __ __ __ __ __ __ __ __ __ __ __ __ _
 72
    65
 73
     2
 40
0.375
 49
0.25
 49
-0.125
  0
LTYPE
  2
CENTER
 70
     0
  3
Center ____ _ ____ _ ____ _ ____ _ ____ _ ____
 72
    65
 73
     4
 40
2.0
 49
1.25
 49
-0.25
 49
0.25
 49
-0.25
  0
LTYPE
  2
AMZIGZAG2
 70
     0
  3
/\/-/\/-/\/-/\/-/\/-/\/
 72
    65
 73
     2
 40
0.4401
 49
0.0001
 49
-0.4400000000000002
  0
LTYPE
  2
ACANSTGB
 70
     0
  3
__ . . __ . .
 72
    65
 73
     6
 40
0.35433070866
 49
0.15748031496
 49
-0.03937007874
 49
0.03937007874
 49
-0.03937007874
 49
0.03937007874
 49
-0.03937007874
  0
LTYPE
  2
ACANSTGL
 70
     0
  3
_ _ _ _ _
 72
    65
 73
     2
 40
0.11811023622
 49
0.07874015748
 49
-0.03937007874
  0
ENDTAB
  0
TABLE
  2
LAYER
 70
     7
  0
LAYER
  2
0
 70
     0
 62
     7
  6
CONTINUOUS
  0
LAYER
  2
245
 70
     0
 62
     2
  6
CENTER2
  0
LAYER
  2
240
 70
     0
 62
     4
  6
CONTINUOUS
  0
LAYER
  2
241
 70
     0
 62
   211
  6
CONTINUOUS
  0
LAYER
  2
250
 70
     0
 62
     3
  6
CONTINUOUS
  0
LAYER
  2
DEFPOINTS
 70
     0
 62
     7
  6
CONTINUOUS
  0
LAYER
  2
246
 70
     0
 62
     3
  6
PHANTOM2
  0
ENDTAB
  0
TABLE
  2
STYLE
 70
     7
  0
STYLE
  2
STANDARD
 70
     0
 40
0.0
 41
1.0
 50
0.0
 71
     0
 42
3.0
  3
romans.shx
  4
BIGFONT.SHX
  0
STYLE
  2
YOKO
 70
     0
 40
0.0
 41
1.0
 50
0.0
 71
     0
 42
3.0
  3
romans.shx
  4
extfont.shx
  0
STYLE
  2
ACJISTS
 70
     0
 40
1.0
 41
1.0
 50
0.0
 71
     0
 42
3.0
  3
amgdt.shx
  4
extfont.shx
  0
STYLE
  2
ACANSGDT
 70
     0
 40
0.0
 41
1.0
 50
0.0
 71
     0
 42
3.0
  3
amgdt.shx
  4

  0
ENDTAB
  0
TABLE
  2
VIEW
 70
     1
  0
VIEW
  2
OLE1
 70
     0
 40
55.031405800000002
 10
3.1313728699999981
 20
19.69617397
 41
77.512907420000005
 11
0.0
 21
0.0
 31
1.0
 12
0.0
 22
0.0
 32
0.0
 42
50.0
 43
0.0
 44
0.0
 50
0.0
 71
     0
  0
ENDTAB
  0
TABLE
  2
UCS
 70
     0
  0
ENDTAB
  0
TABLE
  2
APPID
 70
    43
  0
APPID
  2
ACAD
 70
     0
  0
APPID
  2
ACADANNOTATIVE
 70
     0
  0
APPID
  2
GLOBAL
 70
     0
  0
APPID
  2
DETAIL
 70
     0
  0
APPID
  2
GRPNAME
 70
     0
  0
APPID
  2
GPARA
 70
     0
  0
APPID
  2
DCO15
 70
     0
  0
APPID
  2
ITEMNAME
 70
     0
  0
APPID
  2
GRADE_0
 70
     0
  0
APPID
  2
ACAD_PSEXT
 70
     0
  0
APPID
  2
CONTENTBLOCKICON
 70
     0
  0
APPID
  2
MCAD_NO_VIS
 70
     0
  0
APPID
  2
ACAD_TEMP_GRAPHIC
 70
     0
  0
APPID
  2
ACATTRIBSERVICES
 70
     0
  0
APPID
  2
GENIUS_GENSCREG_15
 70
     0
  0
APPID
  2
GENIUS_GENODEF_13
 70
     0
  0
APPID
  2
GENIUS_GENOBJ-N-SDF_13
 70
     0
  0
APPID
  2
GENIUS_GENREC_14
 70
     0
  0
APPID
  2
GENIUS_GENOBJ-N-REC_13
 70
     0
  0
APPID
  2
GENIUS_GENDIMSH_14
 70
     0
  0
APPID
  2
GENIUS_GENOBJ-N-DIM_13
 70
     0
  0
APPID
  2
GENIUS_GENDIM_13
 70
     0
  0
APPID
  2
GENIUS_GENDTOL_13
 70
     0
  0
APPID
  2
GENIUS_GENOLIS_13
 70
     0
  0
APPID
  2
GENIUS_GENOENT_13
 70
     0
  0
APPID
  2
GENIUS_GENOBJ-F-FEM_13
 70
     0
  0
APPID
  2
GENIUS_GENOREF_13
 70
     0
  0
APPID
  2
GENIUS_GEFFEM_13
 70
     0
  0
APPID
  2
GENIUS_GEFFEMP_13
 70
     0
  0
APPID
  2
AD_DRAW
 70
     0
  0
APPID
  2
DESIGNERASSEMBLIES
 70
     0
  0
APPID
  2
ACADM_DIM_EDIT
 70
     0
  0
APPID
  2
AMDT_DM_ADJ
 70
     0
  0
APPID
  2
GENIUS_GENOBJ-N-FIL_13
 70
     0
  0
APPID
  2
GENIUS_GENFIL_13
 70
     0
  0
APPID
  2
GENIUS_GENOBJ-N-CHA_13
 70
     0
  0
APPID
  2
ACAD_NAV_VCDISPLAY
 70
     0
  0
APPID
  2
ACAECLAYERSTANDARD
 70
     0
  0
APPID
  2
ACAD_MLEADERVER
 70
     0
  0
APPID
  2
ACAD_DSTYLE_DIMJAG
 70
     0
  0
APPID
  2
ACAD_DSTYLE_DIMBREAK
 70
     0
  0
APPID
  2
ACAD_DSTYLE_DIMINSPECT
 70
     0
  0
APPID
  2
ACAD_EXEMPT_FROM_CAD_STANDARDS
 70
     0
  0
ENDTAB
  0
TABLE
  2
DIMSTYLE
 70
     9
  0
DIMSTYLE
  2
STANDARD
 70
     0
  3

  4

  5

  6

  7

 40
1.0
 41
0.18
 42
0.0625
 43
0.38
 44
0.18
 45
0.0
 46
0.0
 47
0.0
 48
0.0
140
0.18
141
0.09
142
0.0
143
25.399999999999999
144
1.0
145
0.0
146
1.0
147
0.09
 71
     0
 72
     0
 73
     1
 74
     1
 75
     0
 76
     0
 77
     0
 78
     0
170
     0
171
     2
172
     0
173
     0
174
     0
175
     0
176
     0
177
     0
178
     0
  0
DIMSTYLE
  2
BIGT
 70
     0
  3

  4

  5

  6

  7

 40
1.0
 41
2.2299999999999991
 42
0.5
 43
7.0
 44
1.0
 45
0.0
 46
0.0
 47
0.0
 48
0.01
140
2.799999999999998
141
0.0
142
0.0
143
25.399999999999999
144
1.0
145
0.0
146
1.0
147
1.0
 71
     0
 72
     0
 73
     0
 74
     0
 75
     0
 76
     0
 77
     3
 78
     9
170
     0
171
     2
172
     1
173
     0
174
     1
175
     0
176
   256
177
   256
178
    40
  0
DIMSTYLE
  2
AM_ANSI
 70
     0
  3

  4
mm
  5

  6

  7

 40
1.0
 41
0.12
 42
0.05
 43
0.5
 44
0.1
 45
0.0
 46
0.0
 47
0.1
 48
0.1
140
0.12
141
0.0
142
0.0
143
25.399999999999999
144
1.0
145
0.0
146
0.71
147
0.06
 71
     0
 72
     0
 73
     1
 74
     1
 75
     0
 76
     0
 77
     0
 78
     7
170
     0
171
     2
172
     0
173
     0
174
     0
175
     0
176
   256
177
   256
178
     2
  0
DIMSTYLE
  2
AM_ANSI$3
 70
     0
  3

  4
mm
  5

  6

  7

 40
1.0
 41
0.12
 42
0.05
 43
0.5
 44
0.1
 45
0.0
 46
0.0
 47
0.1
 48
0.1
140
0.12
141
0.0
142
0.0
143
25.399999999999999
144
1.0
145
0.0
146
0.71
147
0.06
 71
     0
 72
     0
 73
     1
 74
     1
 75
     0
 76
     0
 77
     0
 78
     7
170
     0
171
     2
172
     0
173
     0
174
     0
175
     0
176
   256
177
   256
178
     2
  0
DIMSTYLE
  2
AM_ANSI$4
 70
     0
  3

  4
mm
  5

  6

  7

 40
1.0
 41
0.12
 42
0.05
 43
0.5
 44
0.1
 45
0.0
 46
0.0
 47
0.1
 48
0.1
140
0.12
141
0.0
142
0.0
143
25.399999999999999
144
1.0
145
0.0
146
0.71
147
0.06
 71
     0
 72
     0
 73
     1
 74
     1
 75
     0
 76
     0
 77
     0
 78
     7
170
     0
171
     2
172
     0
173
     0
174
     0
175
     0
176
   256
177
   256
178
     2
  0
DIMSTYLE
  2
AM_ANSI$7
 70
     0
  3

  4
mm
  5

  6

  7

 40
1.0
 41
0.12
 42
0.05
 43
0.5
 44
0.1
 45
0.0
 46
0.0
 47
0.1
 48
0.1
140
0.12
141
0.0
142
0.0
143
25.399999999999999
144
1.0
145
0.0
146
0.71
147
0.06
 71
     0
 72
     0
 73
     1
 74
     1
 75
     0
 76
     0
 77
     0
 78
     7
170
     0
171
     2
172
     0
173
     0
174
     0
175
     0
176
   256
177
   256
178
     2
  0
DIMSTYLE
  2
AM_ANSI$SF
 70
     0
  3

  4
mm
  5

  6

  7

 40
1.0
 41
0.12
 42
0.05
 43
0.5
 44
0.1
 45
0.0
 46
0.0
 47
0.1
 48
0.1
140
0.12
141
0.0
142
0.0
143
25.399999999999999
144
1.0
145
0.0
146
0.71
147
0.06
 71
     0
 72
     0
 73
     1
 74
     1
 75
     1
 76
     1
 77
     0
 78
     7
170
     0
171
     2
172
     0
173
     0
174
     0
175
     0
176
   256
177
   256
178
     2
  0
DIMSTYLE
  2
AM_ANSI$SH
 70
     0
  3

  4
mm
  5

  6

  7

 40
1.0
 41
0.12
 42
0.05
 43
0.5
 44
0.1
 45
0.0
 46
0.0
 47
0.1
 48
0.1
140
0.12
141
0.0
142
0.0
143
25.399999999999999
144
1.0
145
0.0
146
0.71
147
0.06
 71
     0
 72
     0
 73
     1
 74
     1
 75
     1
 76
     1
 77
     0
 78
     7
170
     0
171
     2
172
     0
173
     1
174
     0
175
     0
176
   256
177
   256
178
     2
  0
ENDTAB
  0
ENDSEC
  0
SECTION
  2
BLOCKS
  0
BLOCK
  8
0
  2
$MODEL_SPACE
 70
     0
 10
0.0
 20
0.0
 30
0.0
  3
$MODEL_SPACE
  1

  0
ENDBLK
  5
F1C
  8
0
  0
BLOCK
 67
     1
  8
0
  2
$PAPER_SPACE
 70
     0
 10
0.0
 20
0.0
 30
0.0
  3
$PAPER_SPACE
  1

  0
ENDBLK
  5
F18
 67
     1
  8
0
  0
BLOCK
  8
0
  2
_OPEN
 70
     0
 10
0.0
 20
0.0
 30
0.0
  3
_OPEN
  1

  0
LINE
  5
B12
  8
0
  6
BYBLOCK
 62
     0
 10
-1.0
 20
0.1666666666666666
 30
0.0
 11
0.0
 21
0.0
 31
0.0
  0
LINE
  5
B13
  8
0
  6
BYBLOCK
 62
     0
 10
-1.0
 20
-0.1666666666666666
 30
0.0
 11
0.0
 21
0.0
 31
0.0
  0
LINE
  5
B14
  8
0
  6
BYBLOCK
 62
     0
 10
0.0
 20
0.0
 30
0.0
 11
-1.0
 21
0.0
 31
0.0
  0
ENDBLK
  5
B15
  8
0
  0
BLOCK
  8
0
  2
矢印なし
 70
     0
 10
0.0
 20
0.0
 30
0.0
  3
矢印なし
  1

  0
ENDBLK
  5
6E5
  8
0
  0
BLOCK
  8
0
  2
_ACMFILLEDHALF
 70
     0
 10
0.0
 20
0.0
 30
0.0
  3
_ACMFILLEDHALF
  1

  0
TRACE
  5
DE4
  8
245
 62
     0
 10
-0.8
 20
0.0
 30
0.0
 11
-1.0
 21
0.166666666
 31
0.0
 12
0.0
 22
0.0
 32
0.0
 13
0.0
 23
0.0
 33
0.0
  0
LINE
  5
DE5
  8
245
 62
     0
 10
-1.0
 20
0.0
 30
0.0
 11
-0.8
 21
0.0
 31
0.0
  0
ENDBLK
  5
DE3
  8
0
  0
ENDSEC
  0
SECTION
  2
ENTITIES
  0
INSERT
  5
6E6
  8
245
  2
矢印なし
 10
175.62382697000001
 20
90.551235719999994
 30
0.0
  0
TEXT
  5
84D
  8
241
  6
CONTINUOUS
 10
-7.7000000000000002
 20
48.600000000000001
 30
0.0
 40
5.0
  1
ENH4-3E
  7
YOKO
 11
-7.7000000000000002
 21
48.600000000000001
 31
0.0
 73
     1
  0
ARC
  5
BBB
  8
241
  6
CONTINUOUS
 10
-5.7000000000000002
 20
4.599999999999997
 30
0.0
 40
2.0
 50
90.0
 51
130.62254257999999
  0
ARC
  5
BBC
  8
240
  6
CONTINUOUS
 10
-5.7000000000000002
 20
4.599999999999997
 30
0.0
 40
2.0
 50
130.62254257999999
 51
180.0
  0
LINE
  5
BBD
  8
240
  6
CONTINUOUS
 10
-7.7000000000000002
 20
0.0
 30
0.0
 11
-2.23225183
 21
0.0
 31
0.0
  0
LINE
  5
BBE
  8
240
  6
CONTINUOUS
 10
-7.7000000000000002
 20
0.0
 30
0.0
 11
-7.7000000000000002
 21
4.599999999999997
 31
0.0
  0
LINE
  5
BBF
  8
240
  6
CONTINUOUS
 10
13.81593981
 20
4.7928932199999981
 30
0.0
 11
15.56864008
 21
6.545593489999999
 31
0.0
  0
LINE
  5
BC0
  8
245
  6
CENTER2
 10
0.0
 20
13.12437561
 30
0.0
 11
0.0
 21
-1.0
 31
0.0
  0
ARC
  5
BC1
  8
241
  6
CONTINUOUS
 10
5.7000000000000002
 20
4.599999999999997
 30
0.0
 40
2.0
 50
0.0
 51
90.0
  0
LINE
  5
BC2
  8
240
  6
CONTINUOUS
 10
7.7000000000000002
 20
4.5
 30
0.0
 11
13.10883303
 21
4.5
 31
0.0
  0
LINE
  5
BC3
  8
240
  6
CONTINUOUS
 10
-2.23225183
 20
2.0999999999999992
 30
0.0
 11
2.23225183
 21
2.0999999999999992
 31
0.0
  0
LINE
  5
BC4
  8
240
  6
CONTINUOUS
 10
-2.23225183
 20
0.0
 30
0.0
 11
-2.23225183
 21
2.0999999999999992
 31
0.0
  0
LINE
  5
BC5
  8
240
  6
CONTINUOUS
 10
2.23225183
 20
0.0
 30
0.0
 11
7.7000000000000002
 21
0.0
 31
0.0
  0
LINE
  5
BC6
  8
240
  6
CONTINUOUS
 10
2.23225183
 20
0.0
 30
0.0
 11
2.23225183
 21
2.0999999999999992
 31
0.0
  0
LINE
  5
BC7
  8
241
  6
CONTINUOUS
 10
7.7000000000000002
 20
4.599999999999997
 30
0.0
 11
7.7000000000000002
 21
4.5
 31
0.0
  0
LINE
  5
BC8
  8
240
  6
CONTINUOUS
 10
7.7000000000000002
 20
0.0
 30
0.0
 11
7.7000000000000002
 21
4.5
 31
0.0
  0
ARC
  5
BC9
  8
240
  6
CONTINUOUS
 10
13.10883303
 20
5.5
 30
0.0
 40
1.0
 50
270.0
 51
314.99999999999989
  0
LINE
  5
BCA
  8
241
  6
CONTINUOUS
 10
7.5750000000000002
 20
12.547148849999999
 30
0.0
 11
15.88881934
 21
7.747163009999996
 31
0.0
1001
GRPNAME
1000
PASTMD03
  0
LINE
  5
BCB
  8
241
  6
CONTINUOUS
 10
7.5750000000000002
 20
13.23996917
 30
0.0
 11
15.09093957
 21
17.579298909999999
 31
0.0
1001
GRPNAME
1000
PASTMD03
  0
LINE
  5
BCC
  8
240
  6
CONTINUOUS
 10
4.6392423100000002
 20
15.736382689999999
 30
0.0
 11
15.09093957
 21
17.579298909999999
 31
0.0
1001
GRPNAME
1000
PASTMD03
  0
LINE
  5
BCD
  8
241
  6
CONTINUOUS
 10
5.7000000000000002
 20
6.599999999999997
 30
0.0
 11
-5.7000000000000002
 21
6.599999999999997
 31
0.0
  0
LINE
  5
BCE
  8
240
  6
CONTINUOUS
 10
-7.0021457900000001
 20
6.1180304100000003
 30
0.0
 11
3.6843928799999981
 21
15.28479759
 31
0.0
  0
ARC
  5
BCF
  8
240
  6
CONTINUOUS
 10
4.9865386699999981
 20
13.76676718
 30
0.0
 40
1.9999999999999929
 50
100.0
 51
130.62254257999999
  0
ARC
  5
BD1
  8
241
  6
CONTINUOUS
 10
7.7750000000000004
 20
12.893559010000001
 30
0.0
 40
0.4000000000000039
 50
120.00000008000001
 51
240.00000008000001
1001
GRPNAME
1000
PASTMD03
  0
LINE
  5
BD4
  8
240
  6
CONTINUOUS
 10
16.5
 20
17.699999999999999
 30
0.0
 11
16.5
 21
8.0871180200000001
 31
0.0
1001
GRPNAME
1000
PASTMD03
  0
ARC
  5
BD5
  8
240
  6
CONTINUOUS
 10
16.100000000000001
 20
8.0871180200000001
 30
0.0
 40
0.3999999999999731
 50
238.13492189999999
 51
359.99999994000001
1001
GRPNAME
1000
PASTMD03
  0
LINE
  5
BD6
  8
240
  6
CONTINUOUS
 10
15.860162839999999
 20
7.2003643100000003
 30
0.0
 11
15.88881934
 21
7.747163009999996
 31
0.0
  0
ARC
  5
BD7
  8
240
  6
CONTINUOUS
 10
14.8615333
 20
7.2527002700000001
 30
0.0
 40
0.9999999999999978
 50
314.99999999999989
 51
356.99999999999977
  0
LINE
  5
BD9
  8
240
  6
CONTINUOUS
 10
15.9
 20
18.046410160000001
 30
0.0
 11
15.09093957
 21
17.579298909999999
 31
0.0
1001
GRPNAME
1000
PASTMD03
  0
ARC
  5
BDA
  8
240
  6
CONTINUOUS
 10
16.100000000000001
 20
17.699999999999999
 30
0.0
 40
0.4000000000000057
 50
0.0
 51
120.0
1001
GRPNAME
1000
PASTMD03
  0
LINE
  5
BDC
  8
250
  6
CONTINUOUS
 10
0.0
 20
13.62437561
 30
0.0
 11
0.0
 21
28.600000000000001
 31
0.0
  0
LINE
  5
BDD
  8
250
  6
CONTINUOUS
 10
16.5
 20
18.199999999999999
 30
0.0
 11
16.5
 21
28.600000000000001
 31
0.0
  0
LINE
  5
BDE
  8
250
  6
CONTINUOUS
 10
2.2299999999999991
 20
27.600000000000001
 30
0.0
 11
14.27
 21
27.600000000000001
 31
0.0
  0
TEXT
  5
BE8
  8
250
  6
CONTINUOUS
 10
3.3833333333333311
 20
28.599999999999991
 30
0.0
 40
2.799999999999998
  1
16.5
  0
LINE
  5
BE9
  8
250
  6
CONTINUOUS
 10
14.27
 20
27.971666666666671
 30
0.0
 11
16.5
 21
27.600000000000001
 31
0.0
  0
LINE
  5
BEA
  8
250
  6
CONTINUOUS
 10
14.27
 20
27.228333333333332
 30
0.0
 11
16.5
 21
27.600000000000001
 31
0.0
  0
LINE
  5
BEB
  8
250
  6
CONTINUOUS
 10
16.5
 20
27.600000000000001
 30
0.0
 11
14.27
 21
27.600000000000001
 31
0.0
  0
LINE
  5
BEC
  8
250
  6
CONTINUOUS
 10
2.2299999999999991
 20
27.228333333333332
 30
0.0
 11
0.0
 21
27.600000000000001
 31
0.0
  0
LINE
  5
BED
  8
250
  6
CONTINUOUS
 10
2.2299999999999991
 20
27.971666666666671
 30
0.0
 11
0.0
 21
27.600000000000001
 31
0.0
  0
LINE
  5
BEE
  8
250
  6
CONTINUOUS
 10
0.0
 20
27.600000000000001
 30
0.0
 11
2.2299999999999991
 21
27.600000000000001
 31
0.0
  0
CIRCLE
  5
BFA
  8
246
  6
PHANTOM2
 10
13.324999999031689
 20
12.89355901015832
 30
0.0
 40
3.1750000009683141
  0
LINE
  5
E3A
  8
250
  6
CONTINUOUS
 10
33.895174475677372
 20
25.325293138501529
 30
0.0
 11
21.07610371561946
 21
25.325293138501529
 31
0.0
  0
LINE
  5
E3B
  8
250
  6
CONTINUOUS
 10
21.07610371561946
 20
25.325293138501529
 30
0.0
 11
16.825266972613541
 21
19.602977279343278
 31
0.0
  0
LINE
  5
E3C
  8
250
  6
CONTINUOUS
 10
16.825266972613541
 20
19.602977279343278
 30
0.0
 11
15.495469784999999
 21
17.812854535
 31
0.0
  0
LINE
  5
E3D
  8
250
  6
CONTINUOUS
 10
16.589592843384249
 20
19.77804839959618
 30
0.0
 11
15.495469784999999
 21
17.812854535
 31
0.0
  0
LINE
  5
E3E
  8
250
  6
CONTINUOUS
 10
15.495469784999999
 20
17.812854535
 30
0.0
 11
17.060941101842829
 21
19.42790615909038
 31
0.0
  0
TEXT
  5
E3F
  8
250
  6
CONTINUOUS
 10
21.228507809010701
 20
26.725293138501549
 30
0.0
 40
2.799999999999998
  1
TC11
  7
ACJISTS
  0
LINE
  5
E42
  8
250
  6
CONTINUOUS
 10
8.1999999999999975
 20
-0.0000000000000001
 30
0.0
 11
29.0
 21
-0.000000000000006
 31
0.0
  0
LINE
  5
E43
  8
250
  6
CONTINUOUS
 10
16.600000000000001
 20
18.100000000000001
 30
0.0
 11
29.0
 21
18.100000000000001
 31
0.0
  0
LINE
  5
E44
  8
250
  6
CONTINUOUS
 10
28.0
 20
2.229999999999992
 30
0.0
 11
28.000000000000011
 21
15.869999999999999
 31
0.0
  0
TEXT
  5
E4A
  8
250
  6
CONTINUOUS
 10
27.0
 20
4.5833333333333357
 30
0.0
 40
2.799999999999998
  1
18.1
 50
90.0
  0
LINE
  5
E4B
  8
250
  6
CONTINUOUS
 10
27.628333333333341
 20
15.869999999999999
 30
0.0
 11
28.000000000000011
 21
18.100000000000001
 31
0.0
  0
LINE
  5
E4C
  8
250
  6
CONTINUOUS
 10
28.37166666666667
 20
15.869999999999999
 30
0.0
 11
28.000000000000011
 21
18.100000000000001
 31
0.0
  0
LINE
  5
E4D
  8
250
  6
CONTINUOUS
 10
28.000000000000011
 20
18.100000000000001
 30
0.0
 11
28.000000000000011
 21
15.869999999999999
 31
0.0
  0
LINE
  5
E4E
  8
250
  6
CONTINUOUS
 10
28.371666666666659
 20
2.229999999999992
 30
0.0
 11
28.0
 21
-0.0000000000000058
 31
0.0
  0
LINE
  5
E4F
  8
250
  6
CONTINUOUS
 10
27.62833333333333
 20
2.229999999999992
 30
0.0
 11
28.0
 21
-0.0000000000000058
 31
0.0
  0
LINE
  5
E50
  8
250
  6
CONTINUOUS
 10
28.0
 20
-0.0000000000000058
 30
0.0
 11
28.0
 21
2.229999999999992
 31
0.0
  0
VIEWPORT
  5
22
 67
     1
  8
0
 10
261.51769911999997
 20
148.5
 30
0.0
 40
523.03539823000006
 41
297.0
 68
     1
 69
     1
1001
ACAD
1000
MVIEW
1002
{
1070
    16
1010
0.0
1020
0.0
1030
0.0
1010
0.0
1020
0.0
1030
1.0
1040
0.0
1040
297.0
1040
261.51769911999997
1040
148.5
1040
50.0
1040
0.0
1040
0.0
1070
     0
1070
   100
1070
     1
1070
     1
1070
     0
1070
     0
1070
     0
1070
     0
1040
0.0
1040
0.0
1040
0.0
1040
1.0
1040
1.0
1040
10.0
1040
10.0
1070
     0
1002
{
1002
}
1002
}
1001
GENIUS_GENODEF_13
1002
{
1000
HIER
1070
     0
1002
}
1002
{
1000
MANEDIT
1070
     0
1002
}
1002
{
1000
NOSEL
1070
     0
1002
}
1002
{
1000
BEHIND
1070
     0
1002
}
1002
{
1000
OTHER
1070
     0
1002
}
1002
{
1000
REACTOR
1002
}
1001
GENIUS_GENOBJ-N-SDF_13
1002
{
1000
OWNER
1000
GEN
1002
}
1001
GENIUS_GENSCREG_15
1000
PF
1040
1.0
1000
DF
1040
1.0
1000
MIN
1011
0.0000000049999471
1021
0.0
1031
0.0
1021
0.0
1031
0.0
1000
MAX
1011
523.035398235
1021
0.0
1031
0.0
1021
297.0
1031
0.0
1000
FLAGS
1070
     4
  0
ENDSEC
  0
EOF
