  0
SECTION
  2
HEADER
  9
$ACADVER
  1
AC1009
  9
$INSBASE
 10
0.0
 20
0.0
 30
0.0
  9
$EXTMIN
 10
-7.699999999999986
 20
-2.5999999999998078
 30
0.0
  9
$EXTMAX
 10
33.110861975681118
 20
38.000000000000007
 30
0.0
  9
$LIMMIN
 10
0.0
 20
0.0
  9
$LIMMAX
 10
297.0
 20
210.0
  9
$ORTHOMODE
 70
     1
  9
$REGENMODE
 70
     1
  9
$FILLMODE
 70
     1
  9
$QTEXTMODE
 70
     0
  9
$MIRRTEXT
 70
     1
  9
$DRAGMODE
 70
     2
  9
$LTSCALE
 40
10.0
  9
$OSMODE
 70
    45
  9
$ATTMODE
 70
     1
  9
$TEXTSIZE
 40
3.0
  9
$TRACEWID
 40
1.0
  9
$TEXTSTYLE
  7
YOKO
  9
$CLAYER
  8
240
  9
$CELTYPE
  6
BYLAYER
  9
$CECOLOR
 62
   256
  9
$DIMSCALE
 40
1.0
  9
$DIMASZ
 40
2.2299999999999991
  9
$DIMEXO
 40
0.5
  9
$DIMDLI
 40
7.0
  9
$DIMRND
 40
0.0
  9
$DIMDLE
 40
0.0
  9
$DIMEXE
 40
1.0
  9
$DIMTP
 40
0.0
  9
$DIMTM
 40
0.01
  9
$DIMTXT
 40
2.799999999999998
  9
$DIMCEN
 40
0.0
  9
$DIMTSZ
 40
0.0
  9
$DIMTOL
 70
     0
  9
$DIMLIM
 70
     0
  9
$DIMTIH
 70
     0
  9
$DIMTOH
 70
     0
  9
$DIMSE1
 70
     0
  9
$DIMSE2
 70
     0
  9
$DIMTAD
 70
     3
  9
$DIMZIN
 70
     9
  9
$DIMBLK
  1
OPEN
  9
$DIMASO
 70
     1
  9
$DIMSHO
 70
     1
  9
$DIMPOST
  1

  9
$DIMAPOST
  1

  9
$DIMALT
 70
     0
  9
$DIMALTD
 70
     2
  9
$DIMALTF
 40
25.399999999999999
  9
$DIMLFAC
 40
1.0
  9
$DIMTOFL
 70
     1
  9
$DIMTVP
 40
0.0
  9
$DIMTIX
 70
     1
  9
$DIMSOXD
 70
     0
  9
$DIMSAH
 70
     0
  9
$DIMBLK1
  1

  9
$DIMBLK2
  1

  9
$DIMSTYLE
  2
BIGT
  9
$DIMCLRD
 70
   256
  9
$DIMCLRE
 70
   256
  9
$DIMCLRT
 70
    40
  9
$DIMTFAC
 40
1.0
  9
$DIMGAP
 40
1.0
  9
$LUNITS
 70
     2
  9
$LUPREC
 70
     6
  9
$SKETCHINC
 40
1.0
  9
$FILLETRAD
 40
0.0
  9
$AUNITS
 70
     0
  9
$AUPREC
 70
     6
  9
$MENU
  1
.
  9
$ELEVATION
 40
0.0
  9
$PELEVATION
 40
0.0
  9
$THICKNESS
 40
0.0
  9
$LIMCHECK
 70
     0
  9
$BLIPMODE
 70
     0
  9
$CHAMFERA
 40
0.2
  9
$CHAMFERB
 40
0.2
  9
$SKPOLY
 70
     0
  9
$TDCREATE
 40
2457143.7604453131
  9
$TDUPDATE
 40
2457856.406284526
  9
$TDINDWG
 40
0.0128847106
  9
$TDUSRTIMER
 40
0.0128846528
  9
$USRTIMER
 70
     1
  9
$ANGBASE
 50
0.0
  9
$ANGDIR
 70
     0
  9
$PDMODE
 70
     1
  9
$PDSIZE
 40
0.0
  9
$PLINEWID
 40
0.0
  9
$COORDS
 70
     1
  9
$SPLFRAME
 70
     0
  9
$SPLINETYPE
 70
     6
  9
$SPLINESEGS
 70
     4
  9
$ATTDIA
 70
     1
  9
$ATTREQ
 70
     1
  9
$HANDLING
 70
     1
  9
$HANDSEED
  5
4959
  9
$SURFTAB1
 70
     6
  9
$SURFTAB2
 70
     6
  9
$SURFTYPE
 70
     6
  9
$SURFU
 70
     6
  9
$SURFV
 70
     6
  9
$UCSNAME
  2

  9
$UCSORG
 10
0.0
 20
0.0
 30
0.0
  9
$UCSXDIR
 10
1.0
 20
0.0
 30
0.0
  9
$UCSYDIR
 10
0.0
 20
1.0
 30
0.0
  9
$PUCSNAME
  2

  9
$PUCSORG
 10
0.0
 20
0.0
 30
0.0
  9
$PUCSXDIR
 10
1.0
 20
0.0
 30
0.0
  9
$PUCSYDIR
 10
0.0
 20
1.0
 30
0.0
  9
$USERI1
 70
     1
  9
$USERI2
 70
     0
  9
$USERI3
 70
     0
  9
$USERI4
 70
     0
  9
$USERI5
 70
     0
  9
$USERR1
 40
0.0
  9
$USERR2
 40
0.0
  9
$USERR3
 40
0.0
  9
$USERR4
 40
0.0
  9
$USERR5
 40
0.0
  9
$WORLDVIEW
 70
     1
  9
$SHADEDGE
 70
     3
  9
$SHADEDIF
 70
    70
  9
$TILEMODE
 70
     1
  9
$MAXACTVP
 70
    16
  9
$PLIMCHECK
 70
     0
  9
$PEXTMIN
 10
1.0000000000000000E+020
 20
1.0000000000000000E+020
 30
1.0000000000000000E+020
  9
$PEXTMAX
 10
-1.0000000000000000E+020
 20
-1.0000000000000000E+020
 30
-1.0000000000000000E+020
  9
$PLIMMIN
 10
0.0
 20
0.0
  9
$PLIMMAX
 10
420.0
 20
297.0
  9
$UNITMODE
 70
     0
  9
$VISRETAIN
 70
     1
  9
$PLINEGEN
 70
     0
  9
$PSLTSCALE
 70
     1
  0
ENDSEC
  0
SECTION
  2
TABLES
  0
TABLE
  2
VPORT
 70
     1
  0
VPORT
  2
*ACTIVE
 70
     0
 10
0.0
 20
0.0
 11
1.0
 21
1.0
 12
12.01778772454667
 22
7.3125106739334518
 13
0.0
 23
0.0
 14
7.0
 24
7.0
 15
7.0
 25
7.0
 16
0.0
 26
0.0
 36
1.0
 17
0.0
 27
0.0
 37
0.0
 40
80.213358666436903
 41
1.496106785317018
 42
50.0
 43
0.0
 44
0.0
 50
0.0
 51
0.0
 71
     0
 72
  2000
 73
     1
 74
     0
 75
     0
 76
     1
 77
     0
 78
     0
  0
ENDTAB
  0
TABLE
  2
LTYPE
 70
    22
  0
LTYPE
  2
CONTINUOUS
 70
     0
  3
Solid line
 72
    65
 73
     0
 40
0.0
  0
LTYPE
  2
CENTER2
 70
     0
  3
___ _ ___ _ ___ _ ___ _ ___ _ ___ _ ___ _ ___ _
 72
    65
 73
     4
 40
1.125
 49
0.75
 49
-0.125
 49
0.125
 49
-0.125
  0
LTYPE
  2
HIDDEN2
 70
     0
  3
_ _ _ _ _ _ _ _ _ _ _ _ _ _ _ _ _ _ _ _ _ _ _ _
 72
    65
 73
     2
 40
0.1875
 49
0.125
 49
-0.0625
  0
LTYPE
  2
PHANTOM2
 70
     0
  3
___ _ _ ___ _ _ ___ _ _ ___ _ _ ___ _ _ ___ _ _
 72
    65
 73
     6
 40
1.25
 49
0.625
 49
-0.125
 49
0.125
 49
-0.125
 49
0.125
 49
-0.125
  0
LTYPE
  2
AMCONSTR
 70
     0
  3
_______________________
 72
    65
 73
     2
 40
9999.0
 49
9999.0
 49
0.0
  0
LTYPE
  2
HIDDEN
 70
     0
  3
Hidden __ __ __ __ __ __ __ __ __ __ __ __ __ _
 72
    65
 73
     2
 40
0.375
 49
0.25
 49
-0.125
  0
LTYPE
  2
CENTER
 70
     0
  3
Center ____ _ ____ _ ____ _ ____ _ ____ _ ____
 72
    65
 73
     4
 40
2.0
 49
1.25
 49
-0.25
 49
0.25
 49
-0.25
  0
LTYPE
  2
AMZIGZAG2
 70
     0
  3
/\/-/\/-/\/-/\/-/\/-/\/
 72
    65
 73
     2
 40
0.4401
 49
0.0001
 49
-0.4400000000000001
  0
LTYPE
  2
ACANSTGB
 70
     0
  3
__ . . __ . .
 72
    65
 73
     6
 40
0.35433070866
 49
0.15748031496
 49
-0.03937007874
 49
0.03937007874
 49
-0.03937007874
 49
0.03937007874
 49
-0.03937007874
  0
LTYPE
  2
ACANSTGL
 70
     0
  3
_ _ _ _ _
 72
    65
 73
     2
 40
0.11811023622
 49
0.07874015748
 49
-0.03937007874
  0
ENDTAB
  0
TABLE
  2
LAYER
 70
     7
  0
LAYER
  2
0
 70
     0
 62
     7
  6
CONTINUOUS
  0
LAYER
  2
241
 70
     0
 62
   211
  6
CONTINUOUS
  0
LAYER
  2
DEFPOINTS
 70
     0
 62
     7
  6
CONTINUOUS
  0
LAYER
  2
245
 70
     0
 62
     2
  6
CENTER2
  0
LAYER
  2
240
 70
     0
 62
     4
  6
CONTINUOUS
  0
LAYER
  2
246
 70
     0
 62
     3
  6
PHANTOM2
  0
LAYER
  2
250
 70
     0
 62
     3
  6
CONTINUOUS
  0
ENDTAB
  0
TABLE
  2
STYLE
 70
    10
  0
STYLE
  2
STANDARD
 70
     0
 40
0.0
 41
1.0
 50
0.0
 71
     0
 42
3.0
  3
romans.shx
  4
extfont.shx
  0
STYLE
  2
YOKO
 70
     0
 40
0.0
 41
1.0
 50
0.0
 71
     0
 42
3.0
  3
romans.shx
  4
extfont.shx
  0
STYLE
  2
ACJISTS
 70
     0
 40
1.0
 41
1.0
 50
0.0
 71
     0
 42
3.0
  3
amgdt.shx
  4
extfont.shx
  0
STYLE
  2

 70
     1
 40
0.0
 41
1.0
 50
0.0
 71
     0
 42
3.0
  3
genltshp.shx
  4

  0
STYLE
  2
ACANSGDT
 70
     0
 40
0.0
 41
1.0
 50
0.0
 71
     0
 42
3.0
  3
amgdt.shx
  4

  0
ENDTAB
  0
TABLE
  2
VIEW
 70
     0
  0
ENDTAB
  0
TABLE
  2
UCS
 70
     0
  0
ENDTAB
  0
TABLE
  2
APPID
 70
    38
  0
APPID
  2
ACAD
 70
     0
  0
APPID
  2
ACADANNOTATIVE
 70
     0
  0
APPID
  2
GLOBAL
 70
     0
  0
APPID
  2
DETAIL
 70
     0
  0
APPID
  2
GRPNAME
 70
     0
  0
APPID
  2
GPARA
 70
     0
  0
APPID
  2
MCAD_NO_VIS
 70
     0
  0
APPID
  2
ACAD_TEMP_GRAPHIC
 70
     0
  0
APPID
  2
ACATTRIBSERVICES
 70
     0
  0
APPID
  2
GENIUS_GENSCREG_15
 70
     0
  0
APPID
  2
GENIUS_GENODEF_13
 70
     0
  0
APPID
  2
GENIUS_GENOBJ-N-SDF_13
 70
     0
  0
APPID
  2
GENIUS_GENREC_14
 70
     0
  0
APPID
  2
GENIUS_GENOBJ-N-REC_13
 70
     0
  0
APPID
  2
GENIUS_GENDIMSH_14
 70
     0
  0
APPID
  2
GENIUS_GENOBJ-N-DIM_13
 70
     0
  0
APPID
  2
GENIUS_GENDIM_13
 70
     0
  0
APPID
  2
GENIUS_GENDTOL_13
 70
     0
  0
APPID
  2
GENIUS_GENOLIS_13
 70
     0
  0
APPID
  2
GENIUS_GENOENT_13
 70
     0
  0
APPID
  2
GENIUS_GENOBJ-F-FEM_13
 70
     0
  0
APPID
  2
GENIUS_GENOREF_13
 70
     0
  0
APPID
  2
GENIUS_GEFFEM_13
 70
     0
  0
APPID
  2
GENIUS_GEFFEMP_13
 70
     0
  0
APPID
  2
AD_DRAW
 70
     0
  0
APPID
  2
DESIGNERASSEMBLIES
 70
     0
  0
APPID
  2
ACADM_DIM_EDIT
 70
     0
  0
APPID
  2
AMDT_DM_ADJ
 70
     0
  0
APPID
  2
ITEMNAME
 70
     0
  0
APPID
  2
GENIUS_GENOBJ-N-FIL_13
 70
     0
  0
APPID
  2
GENIUS_GENFIL_13
 70
     0
  0
APPID
  2
GENIUS_GENOBJ-N-CHA_13
 70
     0
  0
APPID
  2
ACAD_NAV_VCDISPLAY
 70
     0
  0
APPID
  2
ACAD_DSTYLE_DIMINSPECT
 70
     0
  0
APPID
  2
ACAD_EXEMPT_FROM_CAD_STANDARDS
 70
     0
  0
APPID
  2
ACAD_MLEADERVER
 70
     0
  0
APPID
  2
ACAD_DSTYLE_DIMJAG
 70
     0
  0
APPID
  2
ACAD_DSTYLE_DIMBREAK
 70
     0
  0
ENDTAB
  0
TABLE
  2
DIMSTYLE
 70
    32
  0
DIMSTYLE
  2
STANDARD
 70
     0
  3

  4

  5

  6

  7

 40
1.0
 41
0.18
 42
0.0625
 43
0.38
 44
0.18
 45
0.0
 46
0.0
 47
0.0
 48
0.0
140
0.18
141
0.09
142
0.0
143
25.399999999999999
144
1.0
145
0.0
146
1.0
147
0.09
 71
     0
 72
     0
 73
     1
 74
     1
 75
     0
 76
     0
 77
     0
 78
     0
170
     0
171
     2
172
     0
173
     0
174
     0
175
     0
176
     0
177
     0
178
     0
  0
DIMSTYLE
  2
BIGT
 70
     0
  3

  4

  5

  6

  7

 40
1.0
 41
2.2299999999999991
 42
0.5
 43
7.0
 44
1.0
 45
0.0
 46
0.0
 47
0.0
 48
0.01
140
2.799999999999998
141
0.0
142
0.0
143
25.399999999999999
144
1.0
145
0.0
146
1.0
147
1.0
 71
     0
 72
     0
 73
     0
 74
     0
 75
     0
 76
     0
 77
     3
 78
     9
170
     0
171
     2
172
     1
173
     0
174
     1
175
     0
176
   256
177
   256
178
    40
  0
DIMSTYLE
  2
AM_ANSI
 70
     0
  3

  4
mm
  5

  6

  7

 40
1.0
 41
0.12
 42
0.05
 43
0.5
 44
0.1
 45
0.0
 46
0.0
 47
0.1
 48
0.1
140
0.12
141
0.0
142
0.0
143
25.399999999999999
144
1.0
145
0.0
146
0.71
147
0.06
 71
     0
 72
     0
 73
     1
 74
     1
 75
     0
 76
     0
 77
     0
 78
     7
170
     0
171
     2
172
     0
173
     0
174
     0
175
     0
176
   256
177
   256
178
     2
  0
DIMSTYLE
  2
AM_ANSI$3
 70
     0
  3

  4
mm
  5

  6

  7

 40
1.0
 41
0.12
 42
0.05
 43
0.5
 44
0.1
 45
0.0
 46
0.0
 47
0.1
 48
0.1
140
0.12
141
0.0
142
0.0
143
25.399999999999999
144
1.0
145
0.0
146
0.71
147
0.06
 71
     0
 72
     0
 73
     1
 74
     1
 75
     0
 76
     0
 77
     0
 78
     7
170
     0
171
     2
172
     0
173
     0
174
     0
175
     0
176
   256
177
   256
178
     2
  0
DIMSTYLE
  2
AM_ANSI$4
 70
     0
  3

  4
mm
  5

  6

  7

 40
1.0
 41
0.12
 42
0.05
 43
0.5
 44
0.1
 45
0.0
 46
0.0
 47
0.1
 48
0.1
140
0.12
141
0.0
142
0.0
143
25.399999999999999
144
1.0
145
0.0
146
0.71
147
0.06
 71
     0
 72
     0
 73
     1
 74
     1
 75
     0
 76
     0
 77
     0
 78
     7
170
     0
171
     2
172
     0
173
     0
174
     0
175
     0
176
   256
177
   256
178
     2
  0
DIMSTYLE
  2
AM_ANSI$7
 70
     0
  3

  4
mm
  5

  6

  7

 40
1.0
 41
0.12
 42
0.05
 43
0.5
 44
0.1
 45
0.0
 46
0.0
 47
0.1
 48
0.1
140
0.12
141
0.0
142
0.0
143
25.399999999999999
144
1.0
145
0.0
146
0.71
147
0.06
 71
     0
 72
     0
 73
     1
 74
     1
 75
     0
 76
     0
 77
     0
 78
     7
170
     0
171
     2
172
     0
173
     0
174
     0
175
     0
176
   256
177
   256
178
     2
  0
DIMSTYLE
  2
AM_ANSI$SF
 70
     0
  3

  4
mm
  5

  6

  7

 40
1.0
 41
0.12
 42
0.05
 43
0.5
 44
0.1
 45
0.0
 46
0.0
 47
0.1
 48
0.1
140
0.12
141
0.0
142
0.0
143
25.399999999999999
144
1.0
145
0.0
146
0.71
147
0.06
 71
     0
 72
     0
 73
     1
 74
     1
 75
     1
 76
     1
 77
     0
 78
     7
170
     0
171
     2
172
     0
173
     0
174
     0
175
     0
176
   256
177
   256
178
     2
  0
DIMSTYLE
  2
AM_ANSI$SH
 70
     0
  3

  4
mm
  5

  6
GENAXEH
  7

 40
1.0
 41
0.12
 42
0.05
 43
0.5
 44
0.1
 45
0.0
 46
0.0
 47
0.1
 48
0.1
140
0.12
141
0.0
142
0.0
143
25.399999999999999
144
1.0
145
0.0
146
0.71
147
0.06
 71
     0
 72
     0
 73
     1
 74
     1
 75
     1
 76
     1
 77
     0
 78
     7
170
     0
171
     2
172
     0
173
     1
174
     0
175
     0
176
   256
177
   256
178
     2
  0
ENDTAB
  0
ENDSEC
  0
SECTION
  2
BLOCKS
  0
BLOCK
  8
0
  2
$MODEL_SPACE
 70
     0
 10
0.0
 20
0.0
 30
0.0
  3
$MODEL_SPACE
  1

  0
ENDBLK
  5
4811
  8
0
  0
BLOCK
 67
     1
  8
0
  2
$PAPER_SPACE
 70
     0
 10
0.0
 20
0.0
 30
0.0
  3
$PAPER_SPACE
  1

  0
ENDBLK
  5
480D
 67
     1
  8
0
  0
BLOCK
  8
0
  2
_OPEN
 70
     0
 10
0.0
 20
0.0
 30
0.0
  3
_OPEN
  1

  0
LINE
  5
44CA
  8
0
  6
BYBLOCK
 62
     0
 10
-1.0
 20
0.1666666666666666
 30
0.0
 11
0.0
 21
0.0
 31
0.0
  0
LINE
  5
44CB
  8
0
  6
BYBLOCK
 62
     0
 10
-1.0
 20
-0.1666666666666666
 30
0.0
 11
0.0
 21
0.0
 31
0.0
  0
LINE
  5
44CC
  8
0
  6
BYBLOCK
 62
     0
 10
0.0
 20
0.0
 30
0.0
 11
-1.0
 21
0.0
 31
0.0
  0
ENDBLK
  5
44CD
  8
0
  0
BLOCK
  8
0
  2
GENAXEH
 70
     0
 10
0.0
 20
0.0
 30
0.0
  3
GENAXEH
  1

  0
LINE
  5
4505
  8
0
 10
-1.0
 20
0.0
 30
0.0
 11
1.0
 21
0.0
 31
0.0
  0
ENDBLK
  5
4506
  8
0
  0
BLOCK
  8
0
  2
*U5
 70
     1
 10
0.0
 20
0.0
 30
0.0
  3
*U5
  1

  0
TEXT
  5
45B8
  8
250
 10
20.444195309014461
 20
17.798144219954811
 30
0.0
 40
2.799999999999998
  1
TP08
  7
ACJISTS
  0
ENDBLK
  5
45BA
  8
0
  0
BLOCK
  8
0
  2
_ACMFILLEDHALF
 70
     0
 10
0.0
 20
0.0
 30
0.0
  3
_ACMFILLEDHALF
  1

  0
TRACE
  5
48D2
  8
241
 62
     0
 10
-0.8
 20
0.0
 30
0.0
 11
-1.0
 21
0.166666666
 31
0.0
 12
0.0
 22
0.0
 32
0.0
 13
0.0
 23
0.0
 33
0.0
  0
LINE
  5
48D3
  8
241
 62
     0
 10
-1.0
 20
0.0
 30
0.0
 11
-0.8
 21
0.0
 31
0.0
  0
ENDBLK
  5
48D1
  8
0
  0
ENDSEC
  0
SECTION
  2
ENTITIES
  0
LINE
  5
41E8
  8
245
  6
CENTER2
 10
0.0000000000000284
 20
7.754757335070658
 30
0.0
 11
0.0
 21
-1.265667305788261
 31
0.0
1001
GRPNAME
1000
PASTMD1D
  0
LINE
  5
41E9
  8
240
  6
CONTINUOUS
 10
4.5000000000000284
 20
6.6000000000003407
 30
0.0
 11
8.5723381690867182
 21
6.6000000000004704
 31
0.0
1001
GRPNAME
1000
PASTMD1C
  0
ARC
  5
41EA
  8
240
  6
CONTINUOUS
 10
15.20045181398735
 20
-2.099999999999532
 30
0.0
 40
0.5
 50
270.0000000000033
 51
0.0000000000016284
  0
LINE
  5
41EB
  8
240
  6
CONTINUOUS
 10
13.003332099679399
 20
-2.5999999999998078
 30
0.0
 11
8.5000000000000284
 21
0.0000000000003624
 31
0.0
1001
GRPNAME
1000
PASTMD1C
  0
LINE
  5
41EC
  8
240
  6
CONTINUOUS
 10
13.003332099679399
 20
-2.5999999999998078
 30
0.0
 11
15.19945181398738
 21
-2.599999999999532
 31
0.0
1001
GRPNAME
1000
PASTMD1C
  0
ARC
  5
41ED
  8
241
  6
CONTINUOUS
 10
13.10894793926688
 20
1.0557978538296511
 30
0.0
 40
0.2000000000000104
 50
214.9999998058544
 51
334.99999980586568
1001
GRPNAME
1000
PASTMD11
  0
CIRCLE
  5
41EE
  8
246
  6
PHANTOM2
 10
12.72894890088717
 20
5.3992067375098909
 30
0.0
 40
2.379999999999999
1001
GRPNAME
1000
PASTMD11
  0
LINE
  5
41EF
  8
240
  6
CONTINUOUS
 10
15.700451813987369
 20
-2.0999999999995169
 30
0.0
 11
15.700451813987019
 21
6.1400555310639531
 31
0.0
  0
ARC
  5
41F0
  8
240
  6
CONTINUOUS
 10
16.30045181398701
 20
7.90000000000021
 30
0.0
 40
0.2000000000000606
 50
335.00000032008938
 51
95.000000320067102
1001
GRPNAME
1000
PASTMD11
  0
LINE
  5
41F1
  8
241
  6
CONTINUOUS
 10
6.6683956091402763
 20
6.349917124951709
 30
0.0
 11
6.6683956091406031
 21
0.0000000000004192
 31
0.0
1001
GRPNAME
1000
PASTMD1C
  0
LINE
  5
41F2
  8
241
  6
CONTINUOUS
 10
7.700000000000073
 20
6.6000000000003407
 30
0.0
 11
7.6999999999998439
 21
0.0000000000004192
 31
0.0
1001
GRPNAME
1000
PASTMD1C
  0
LINE
  5
41F3
  8
240
  6
CONTINUOUS
 10
-7.699999999999986
 20
-0.0000000000003766
 30
0.0
 11
-2.833062956366815
 21
-0.0000000000001279
 31
0.0
1001
GRPNAME
1000
PASTMD1D
  0
ARC
  5
41F4
  8
241
  6
CONTINUOUS
 10
5.700000000000073
 20
4.6000000000003549
 30
0.0
 40
1.999999999999962
 50
61.040071843076831
 51
89.999999952302886
1001
GRPNAME
1000
PASTMD1C
  0
LINE
  5
41F5
  8
240
  6
CONTINUOUS
 10
8.5723381690867182
 20
6.6000000000004704
 30
0.0
 11
8.9376032557592442
 21
6.6644060898916084
 31
0.0
  0
ARC
  5
41F6
  8
240
  6
CONTINUOUS
 10
8.7774469494072331
 20
7.2418223586995714
 30
0.0
 40
0.1999999999999656
 50
95.000000165807094
 51
215.00000016582879
1001
GRPNAME
1000
PASTMD11
  0
LINE
  5
41F9
  8
240
  6
CONTINUOUS
 10
-7.6999999999999016
 20
0.0000000000003624
 30
0.0
 11
-7.6999999999999016
 21
4.6000000000003407
 31
0.0
1001
GRPNAME
1000
PASTMD1C
  0
ARC
  5
41FA
  8
240
  6
CONTINUOUS
 10
-5.6999999999999043
 20
4.6000000000003549
 30
0.0
 40
2.0
 50
89.999999992284415
 51
179.9999999922828
1001
GRPNAME
1000
PASTMD1C
  0
LINE
  5
41FC
  8
240
  6
CONTINUOUS
 10
-5.6999999999999043
 20
6.6000000000003407
 30
0.0
 11
-4.4999999999999698
 21
6.6000000000003407
 31
0.0
1001
GRPNAME
1000
PASTMD1C
  0
LINE
  5
41FF
  8
240
  6
CONTINUOUS
 10
8.6136165405494864
 20
7.1271070714293838
 30
0.0
 11
8.9376032557592477
 21
6.6644060898916084
 31
0.0
1001
GRPNAME
1000
PASTMD11
  0
LINE
  5
4200
  8
241
  6
CONTINUOUS
 10
13.290209496674221
 20
0.9712742014815134
 30
0.0
 11
15.700451813987019
 21
6.1400555310639451
 31
0.0
1001
GRPNAME
1000
PASTMD11
  0
LINE
  5
4208
  8
240
  6
CONTINUOUS
 10
8.7600158008577296
 20
7.4410612983179121
 30
0.0
 11
16.283020665437501
 21
8.0992389396185374
 31
0.0
1001
GRPNAME
1000
PASTMD11
  0
LINE
  5
4209
  8
240
  6
CONTINUOUS
 10
2.2322518254687642
 20
2.100000000000128
 30
0.0
 11
-2.2322518254696591
 21
2.0999999999999219
 31
0.0
  0
LINE
  5
420A
  8
240
  6
CONTINUOUS
 10
-2.2322518254696031
 20
1.600000000000348
 30
0.0
 11
-2.433062956367321
 21
0.3999999999999986
 31
0.0
  0
LINE
  5
420B
  8
240
  6
CONTINUOUS
 10
-2.433062956367321
 20
0.3999999999999986
 30
0.0
 11
-2.8330629563672991
 21
-0.0000000000001208
 31
0.0
  0
LINE
  5
420C
  8
240
  6
CONTINUOUS
 10
-2.2322518254696031
 20
1.600000000000348
 30
0.0
 11
-2.2322518254696591
 21
2.0999999999999219
 31
0.0
  0
LINE
  5
420D
  8
240
  6
CONTINUOUS
 10
2.433062956367336
 20
0.3999999999999844
 30
0.0
 11
2.8330629563672991
 21
-0.0000000000001421
 31
0.0
  0
LINE
  5
420E
  8
240
  6
CONTINUOUS
 10
2.232251825469616
 20
1.600000000000334
 30
0.0
 11
2.2322518254687642
 21
2.100000000000128
 31
0.0
  0
LINE
  5
420F
  8
240
  6
CONTINUOUS
 10
2.232251825469616
 20
1.600000000000334
 30
0.0
 11
2.433062956367336
 21
0.3999999999999844
 31
0.0
  0
LINE
  5
4210
  8
240
  6
CONTINUOUS
 10
2.8330629563676961
 20
0.0000000000001208
 30
0.0
 11
8.5000000000000284
 21
0.0000000000003624
 31
0.0
1001
GRPNAME
1000
PASTMD1D
  0
TEXT
  5
42A9
  8
241
  6
CONTINUOUS
 10
0.0
 20
35.0
 30
0.0
 40
3.0
  1
ENH4-1J
  7
YOKO
  0
LINE
  5
42C4
  8
250
  6
CONTINUOUS
 10
9.0000000000001634
 20
0.0000000000002841
 30
0.0
 11
29.0
 21
0.0000000000002784
 31
0.0
  0
LINE
  5
42C5
  8
250
  6
CONTINUOUS
 10
16.80045181398701
 20
8.1000000000002732
 30
0.0
 11
29.0
 21
8.1000000000002697
 31
0.0
  0
LINE
  5
42C6
  8
250
  6
CONTINUOUS
 10
28.0
 20
2.230000000000278
 30
0.0
 11
28.0
 21
5.8700000000002701
 31
0.0
  0
LINE
  5
42CB
  8
250
  6
CONTINUOUS
 10
33.110861975681118
 20
16.398144219954808
 30
0.0
 11
19.940259869551578
 21
16.398144219954808
 31
0.0
  0
LINE
  5
42CC
  8
250
  6
CONTINUOUS
 10
19.940259869551578
 20
16.398144219954808
 30
0.0
 11
15.999936063034781
 21
9.8817772659504008
 31
0.0
  0
LINE
  5
42CD
  8
250
  6
CONTINUOUS
 10
15.999936063034781
 20
9.8817772659504008
 30
0.0
 11
14.846049132232761
 21
7.9735202206537492
 31
0.0
  0
LINE
  5
42CE
  8
250
  6
CONTINUOUS
 10
15.748709258103631
 20
10.03368936164615
 30
0.0
 11
14.846049132232761
 21
7.9735202206537492
 31
0.0
  0
LINE
  5
42CF
  8
250
  6
CONTINUOUS
 10
14.846049132232761
 20
7.9735202206537492
 30
0.0
 11
16.25116286796592
 21
9.7298651702546461
 31
0.0
  0
INSERT
  5
42D0
  8
250
  6
CONTINUOUS
  2
*U5
 10
0.0
 20
0.0
 30
0.0
  0
LINE
  5
42D1
  8
250
  6
CONTINUOUS
 10
0.0000000000000285
 20
8.2547573350706571
 30
0.0
 11
0.0000000000000293
 21
22.0
 31
0.0
  0
LINE
  5
42D2
  8
250
  6
CONTINUOUS
 10
16.50045181398707
 20
8.4000000000002117
 30
0.0
 11
16.50045181398707
 21
22.0
 31
0.0
  0
LINE
  5
42D3
  8
250
  6
CONTINUOUS
 10
2.230000000000028
 20
21.0
 30
0.0
 11
14.270451813987069
 21
21.0
 31
0.0
  0
TEXT
  5
42D7
  8
250
  6
CONTINUOUS
 10
3.383559240326881
 20
22.0
 30
0.0
 40
2.799999999999998
  1
16.5
  0
LINE
  5
42D8
  8
250
  6
CONTINUOUS
 10
14.270451813987069
 20
21.37166666666667
 30
0.0
 11
16.50045181398707
 21
21.0
 31
0.0
  0
LINE
  5
42D9
  8
250
  6
CONTINUOUS
 10
14.270451813987069
 20
20.62833333333333
 30
0.0
 11
16.50045181398707
 21
21.0
 31
0.0
  0
LINE
  5
42DA
  8
250
  6
CONTINUOUS
 10
16.50045181398707
 20
21.0
 30
0.0
 11
14.270451813987069
 21
21.0
 31
0.0
  0
LINE
  5
42DB
  8
250
  6
CONTINUOUS
 10
2.230000000000028
 20
20.62833333333333
 30
0.0
 11
0.0000000000000292
 21
21.0
 31
0.0
  0
LINE
  5
42DC
  8
250
  6
CONTINUOUS
 10
2.230000000000028
 20
21.37166666666667
 30
0.0
 11
0.0000000000000292
 21
21.0
 31
0.0
  0
LINE
  5
42DD
  8
250
  6
CONTINUOUS
 10
0.0000000000000292
 20
21.0
 30
0.0
 11
2.230000000000028
 21
21.0
 31
0.0
  0
TEXT
  5
42DE
  8
250
  6
CONTINUOUS
 10
27.000000000000011
 20
1.116666666666944
 30
0.0
 40
2.799999999999998
  1
8.1
 50
90.0
  0
LINE
  5
42DF
  8
250
  6
CONTINUOUS
 10
27.628333333333341
 20
5.870000000000271
 30
0.0
 11
28.000000000000011
 21
8.1000000000002697
 31
0.0
  0
LINE
  5
42E0
  8
250
  6
CONTINUOUS
 10
28.37166666666667
 20
5.870000000000271
 30
0.0
 11
28.000000000000011
 21
8.1000000000002697
 31
0.0
  0
LINE
  5
42E1
  8
250
  6
CONTINUOUS
 10
28.000000000000011
 20
8.1000000000002697
 30
0.0
 11
28.000000000000011
 21
5.870000000000271
 31
0.0
  0
LINE
  5
42E2
  8
250
  6
CONTINUOUS
 10
28.371666666666659
 20
2.230000000000278
 30
0.0
 11
28.0
 21
0.0000000000002787
 31
0.0
  0
LINE
  5
42E3
  8
250
  6
CONTINUOUS
 10
27.62833333333333
 20
2.230000000000278
 30
0.0
 11
28.0
 21
0.0000000000002787
 31
0.0
  0
LINE
  5
42E4
  8
250
  6
CONTINUOUS
 10
28.0
 20
0.0000000000002787
 30
0.0
 11
28.0
 21
2.230000000000278
 31
0.0
  0
ARC
  5
48F6
  8
240
  6
CONTINUOUS
 10
0.0000000000007153
 20
25.04513015355889
 30
0.0
 40
18.986121941610961
 50
256.2895566679241
 51
283.71044333207141
  0
LINE
  5
48F7
  8
241
  6
CONTINUOUS
 10
8.9376032557592442
 20
6.6644060898916102
 30
0.0
 11
12.94511753040906
 21
0.9410825665595083
 31
0.0
1001
GRPNAME
1000
PASTMD11
  0
LINE
  5
48FA
  8
240
  6
CONTINUOUS
 10
15.700451813987019
 20
6.1400555310639486
 30
0.0
 11
16.481713371394349
 21
7.8154763476520861
 31
0.0
1001
GRPNAME
1000
PASTMD11
  0
VIEWPORT
  5
22
 67
     1
  8
0
 10
261.51769911504419
 20
148.5
 30
0.0
 40
523.0353982300885
 41
297.0
 68
     1
 69
     1
1001
ACAD
1000
MVIEW
1002
{
1070
    16
1010
0.0
1020
0.0
1030
0.0
1010
0.0
1020
0.0
1030
1.0
1040
0.0
1040
297.0
1040
261.51769911504419
1040
148.5
1040
50.0
1040
0.0
1040
0.0
1070
     0
1070
   100
1070
     1
1070
     1
1070
     0
1070
     0
1070
     0
1070
     0
1040
0.0
1040
0.0
1040
0.0
1040
1.0
1040
1.0
1040
10.0
1040
10.0
1070
     0
1002
{
1002
}
1002
}
1001
GENIUS_GENODEF_13
1002
{
1000
HIER
1070
     0
1002
}
1002
{
1000
MANEDIT
1070
     0
1002
}
1002
{
1000
NOSEL
1070
     0
1002
}
1002
{
1000
BEHIND
1070
     0
1002
}
1002
{
1000
OTHER
1070
     0
1002
}
1002
{
1000
REACTOR
1002
}
1001
GENIUS_GENOBJ-N-SDF_13
1002
{
1000
OWNER
1000
GEN
1002
}
1001
GENIUS_GENSCREG_15
1000
PF
1040
1.0
1000
DF
1040
1.0
1000
MIN
1011
0.0
1021
0.0
1031
0.0
1021
0.0
1031
0.0
1000
MAX
1011
523.0353982300885
1021
0.0
1031
0.0
1021
297.0
1031
0.0
1000
FLAGS
1070
     4
  0
ENDSEC
  0
EOF
