  0
SECTION
  2
HEADER
  9
$ACADVER
  1
AC1009
  9
$INSBASE
 10
0.0
 20
0.0
 30
0.0
  9
$EXTMIN
 10
-7.7000000000000002
 20
-2.5999999999999992
 30
0.0
  9
$EXTMAX
 10
33.895174475677372
 20
42.600000000000001
 30
0.0
  9
$LIMMIN
 10
0.0
 20
0.0
  9
$LIMMAX
 10
420.0
 20
297.0
  9
$ORTHOMODE
 70
     0
  9
$REGENMODE
 70
     1
  9
$FILLMODE
 70
     1
  9
$QTEXTMODE
 70
     0
  9
$MIRRTEXT
 70
     1
  9
$DRAGMODE
 70
     2
  9
$LTSCALE
 40
10.0
  9
$OSMODE
 70
    45
  9
$ATTMODE
 70
     1
  9
$TEXTSIZE
 40
3.0
  9
$TRACEWID
 40
1.0
  9
$TEXTSTYLE
  7
YOKO
  9
$CLAYER
  8
240
  9
$CELTYPE
  6
BYLAYER
  9
$CECOLOR
 62
   256
  9
$DIMSCALE
 40
1.0
  9
$DIMASZ
 40
2.2299999999999991
  9
$DIMEXO
 40
0.5
  9
$DIMDLI
 40
2.5
  9
$DIMRND
 40
0.0
  9
$DIMDLE
 40
0.0
  9
$DIMEXE
 40
1.0
  9
$DIMTP
 40
0.0
  9
$DIMTM
 40
0.0
  9
$DIMTXT
 40
2.799999999999998
  9
$DIMCEN
 40
0.0
  9
$DIMTSZ
 40
0.0
  9
$DIMTOL
 70
     0
  9
$DIMLIM
 70
     0
  9
$DIMTIH
 70
     0
  9
$DIMTOH
 70
     0
  9
$DIMSE1
 70
     0
  9
$DIMSE2
 70
     0
  9
$DIMTAD
 70
     3
  9
$DIMZIN
 70
     8
  9
$DIMBLK
  1

  9
$DIMASO
 70
     1
  9
$DIMSHO
 70
     1
  9
$DIMPOST
  1
<>
  9
$DIMAPOST
  1

  9
$DIMALT
 70
     0
  9
$DIMALTD
 70
     2
  9
$DIMALTF
 40
25.399999999999999
  9
$DIMLFAC
 40
1.0
  9
$DIMTOFL
 70
     1
  9
$DIMTVP
 40
0.0
  9
$DIMTIX
 70
     1
  9
$DIMSOXD
 70
     0
  9
$DIMSAH
 70
     1
  9
$DIMBLK1
  1
OPEN
  9
$DIMBLK2
  1
OPEN
  9
$DIMSTYLE
  2
BIGT
  9
$DIMCLRD
 70
   256
  9
$DIMCLRE
 70
   256
  9
$DIMCLRT
 70
    40
  9
$DIMTFAC
 40
1.0
  9
$DIMGAP
 40
1.0
  9
$LUNITS
 70
     2
  9
$LUPREC
 70
     3
  9
$SKETCHINC
 40
1.0
  9
$FILLETRAD
 40
0.0
  9
$AUNITS
 70
     0
  9
$AUPREC
 70
     3
  9
$MENU
  1
.
  9
$ELEVATION
 40
0.0
  9
$PELEVATION
 40
0.0
  9
$THICKNESS
 40
0.0
  9
$LIMCHECK
 70
     0
  9
$BLIPMODE
 70
     0
  9
$CHAMFERA
 40
10.0
  9
$CHAMFERB
 40
10.0
  9
$SKPOLY
 70
     0
  9
$TDCREATE
 40
2455449.3908671411
  9
$TDUPDATE
 40
2457855.7477524891
  9
$TDINDWG
 40
0.0237548611
  9
$TDUSRTIMER
 40
0.0237547917
  9
$USRTIMER
 70
     1
  9
$ANGBASE
 50
0.0
  9
$ANGDIR
 70
     0
  9
$PDMODE
 70
     1
  9
$PDSIZE
 40
-5.0
  9
$PLINEWID
 40
0.0
  9
$COORDS
 70
     1
  9
$SPLFRAME
 70
     0
  9
$SPLINETYPE
 70
     6
  9
$SPLINESEGS
 70
     8
  9
$ATTDIA
 70
     1
  9
$ATTREQ
 70
     1
  9
$HANDLING
 70
     1
  9
$HANDSEED
  5
1082
  9
$SURFTAB1
 70
     6
  9
$SURFTAB2
 70
     6
  9
$SURFTYPE
 70
     6
  9
$SURFU
 70
     6
  9
$SURFV
 70
     6
  9
$UCSNAME
  2

  9
$UCSORG
 10
0.0
 20
0.0
 30
0.0
  9
$UCSXDIR
 10
1.0
 20
0.0
 30
0.0
  9
$UCSYDIR
 10
0.0
 20
1.0
 30
0.0
  9
$PUCSNAME
  2

  9
$PUCSORG
 10
0.0
 20
0.0
 30
0.0
  9
$PUCSXDIR
 10
1.0
 20
0.0
 30
0.0
  9
$PUCSYDIR
 10
0.0
 20
1.0
 30
0.0
  9
$USERI1
 70
     1
  9
$USERI2
 70
     0
  9
$USERI3
 70
     0
  9
$USERI4
 70
     0
  9
$USERI5
 70
     0
  9
$USERR1
 40
0.0
  9
$USERR2
 40
0.0
  9
$USERR3
 40
0.0
  9
$USERR4
 40
0.0
  9
$USERR5
 40
0.0
  9
$WORLDVIEW
 70
     1
  9
$SHADEDGE
 70
     3
  9
$SHADEDIF
 70
    70
  9
$TILEMODE
 70
     1
  9
$MAXACTVP
 70
    16
  9
$PLIMCHECK
 70
     0
  9
$PEXTMIN
 10
1.0000000000000000E+020
 20
1.0000000000000000E+020
 30
1.0000000000000000E+020
  9
$PEXTMAX
 10
-1.0000000000000000E+020
 20
-1.0000000000000000E+020
 30
-1.0000000000000000E+020
  9
$PLIMMIN
 10
0.0
 20
0.0
  9
$PLIMMAX
 10
420.0
 20
297.0
  9
$UNITMODE
 70
     0
  9
$VISRETAIN
 70
     0
  9
$PLINEGEN
 70
     0
  9
$PSLTSCALE
 70
     1
  0
ENDSEC
  0
SECTION
  2
TABLES
  0
TABLE
  2
VPORT
 70
     1
  0
VPORT
  2
*ACTIVE
 70
     0
 10
0.0
 20
0.0
 11
1.0
 21
1.0
 12
8.6170069390305954
 22
10.688249795807319
 13
0.0
 23
0.0
 14
7.0
 24
7.0
 15
7.0
 25
7.0
 16
0.0
 26
0.0
 36
1.0
 17
0.0
 27
0.0
 37
0.0
 40
72.611486812978995
 41
1.496106785317018
 42
50.0
 43
0.0
 44
0.0
 50
0.0
 51
0.0
 71
     0
 72
  2000
 73
     1
 74
     0
 75
     0
 76
     1
 77
     0
 78
     0
  0
ENDTAB
  0
TABLE
  2
LTYPE
 70
    17
  0
LTYPE
  2
CONTINUOUS
 70
     0
  3
Solid line
 72
    65
 73
     0
 40
0.0
  0
LTYPE
  2
CENTER2
 70
     0
  3
___ _ ___ _ ___ _ ___ _ ___ _ ___ _ ___ _ ___ _
 72
    65
 73
     4
 40
1.125
 49
0.75
 49
-0.125
 49
0.125
 49
-0.125
  0
LTYPE
  2
PHANTOM2
 70
     0
  3
___ _ _ ___ _ _ ___ _ _ ___ _ _ ___ _ _ ___ _ _
 72
    65
 73
     6
 40
1.25
 49
0.625
 49
-0.125
 49
0.125
 49
-0.125
 49
0.125
 49
-0.125
  0
LTYPE
  2
HIDDEN2
 70
     0
  3
_ _ _ _ _ _ _ _ _ _ _ _ _ _ _ _ _ _ _ _ _ _ _ _
 72
    65
 73
     2
 40
0.1875
 49
0.125
 49
-0.0625
  0
LTYPE
  2
AMCONSTR
 70
     0
  3
_______________________
 72
    65
 73
     2
 40
9999.0
 49
9999.0
 49
0.0
  0
LTYPE
  2
HIDDEN
 70
     0
  3
Hidden __ __ __ __ __ __ __ __ __ __ __ __ __ _
 72
    65
 73
     2
 40
0.375
 49
0.25
 49
-0.125
  0
LTYPE
  2
CENTER
 70
     0
  3
Center ____ _ ____ _ ____ _ ____ _ ____ _ ____
 72
    65
 73
     4
 40
2.0
 49
1.25
 49
-0.25
 49
0.25
 49
-0.25
  0
LTYPE
  2
AMZIGZAG2
 70
     0
  3
/\/-/\/-/\/-/\/-/\/-/\/
 72
    65
 73
     2
 40
0.4401
 49
0.0001
 49
-0.4400000000000002
  0
LTYPE
  2
ACANSTGB
 70
     0
  3
__ . . __ . .
 72
    65
 73
     6
 40
0.35433070866
 49
0.15748031496
 49
-0.03937007874
 49
0.03937007874
 49
-0.03937007874
 49
0.03937007874
 49
-0.03937007874
  0
LTYPE
  2
ACANSTGL
 70
     0
  3
_ _ _ _ _
 72
    65
 73
     2
 40
0.11811023622
 49
0.07874015748
 49
-0.03937007874
  0
ENDTAB
  0
TABLE
  2
LAYER
 70
     7
  0
LAYER
  2
0
 70
     0
 62
     7
  6
CONTINUOUS
  0
LAYER
  2
245
 70
     0
 62
     2
  6
CENTER2
  0
LAYER
  2
240
 70
     0
 62
     4
  6
CONTINUOUS
  0
LAYER
  2
241
 70
     0
 62
   211
  6
CONTINUOUS
  0
LAYER
  2
250
 70
     0
 62
     3
  6
CONTINUOUS
  0
LAYER
  2
DEFPOINTS
 70
     0
 62
     7
  6
CONTINUOUS
  0
LAYER
  2
246
 70
     0
 62
     3
  6
PHANTOM2
  0
ENDTAB
  0
TABLE
  2
STYLE
 70
     7
  0
STYLE
  2
STANDARD
 70
     0
 40
0.0
 41
1.0
 50
0.0
 71
     0
 42
3.0
  3
romans.shx
  4
BIGFONT.SHX
  0
STYLE
  2
YOKO
 70
     0
 40
0.0
 41
1.0
 50
0.0
 71
     0
 42
3.0
  3
romans.shx
  4
extfont.shx
  0
STYLE
  2
ACJISTS
 70
     0
 40
1.0
 41
1.0
 50
0.0
 71
     0
 42
3.0
  3
amgdt.shx
  4
extfont.shx
  0
STYLE
  2
ACANSGDT
 70
     0
 40
0.0
 41
1.0
 50
0.0
 71
     0
 42
3.0
  3
amgdt.shx
  4

  0
ENDTAB
  0
TABLE
  2
VIEW
 70
     1
  0
VIEW
  2
OLE1
 70
     0
 40
45.55956308999999
 10
3.1313728699999981
 20
13.39733974
 41
64.171615180000003
 11
0.0
 21
0.0
 31
1.0
 12
0.0
 22
0.0
 32
0.0
 42
50.0
 43
0.0
 44
0.0
 50
0.0
 71
     0
  0
ENDTAB
  0
TABLE
  2
UCS
 70
     0
  0
ENDTAB
  0
TABLE
  2
APPID
 70
    43
  0
APPID
  2
ACAD
 70
     0
  0
APPID
  2
ACADANNOTATIVE
 70
     0
  0
APPID
  2
GLOBAL
 70
     0
  0
APPID
  2
DETAIL
 70
     0
  0
APPID
  2
GRPNAME
 70
     0
  0
APPID
  2
GPARA
 70
     0
  0
APPID
  2
DCO15
 70
     0
  0
APPID
  2
ITEMNAME
 70
     0
  0
APPID
  2
GRADE_0
 70
     0
  0
APPID
  2
ACAD_PSEXT
 70
     0
  0
APPID
  2
CONTENTBLOCKICON
 70
     0
  0
APPID
  2
MCAD_NO_VIS
 70
     0
  0
APPID
  2
ACAD_TEMP_GRAPHIC
 70
     0
  0
APPID
  2
ACATTRIBSERVICES
 70
     0
  0
APPID
  2
GENIUS_GENSCREG_15
 70
     0
  0
APPID
  2
GENIUS_GENODEF_13
 70
     0
  0
APPID
  2
GENIUS_GENOBJ-N-SDF_13
 70
     0
  0
APPID
  2
GENIUS_GENREC_14
 70
     0
  0
APPID
  2
GENIUS_GENOBJ-N-REC_13
 70
     0
  0
APPID
  2
GENIUS_GENDIMSH_14
 70
     0
  0
APPID
  2
GENIUS_GENOBJ-N-DIM_13
 70
     0
  0
APPID
  2
GENIUS_GENDIM_13
 70
     0
  0
APPID
  2
GENIUS_GENDTOL_13
 70
     0
  0
APPID
  2
GENIUS_GENOLIS_13
 70
     0
  0
APPID
  2
GENIUS_GENOENT_13
 70
     0
  0
APPID
  2
GENIUS_GENOBJ-F-FEM_13
 70
     0
  0
APPID
  2
GENIUS_GENOREF_13
 70
     0
  0
APPID
  2
GENIUS_GEFFEM_13
 70
     0
  0
APPID
  2
GENIUS_GEFFEMP_13
 70
     0
  0
APPID
  2
AD_DRAW
 70
     0
  0
APPID
  2
DESIGNERASSEMBLIES
 70
     0
  0
APPID
  2
ACADM_DIM_EDIT
 70
     0
  0
APPID
  2
AMDT_DM_ADJ
 70
     0
  0
APPID
  2
GENIUS_GENOBJ-N-FIL_13
 70
     0
  0
APPID
  2
GENIUS_GENFIL_13
 70
     0
  0
APPID
  2
GENIUS_GENOBJ-N-CHA_13
 70
     0
  0
APPID
  2
ACAD_NAV_VCDISPLAY
 70
     0
  0
APPID
  2
ACAECLAYERSTANDARD
 70
     0
  0
APPID
  2
ACAD_MLEADERVER
 70
     0
  0
APPID
  2
ACAD_DSTYLE_DIMJAG
 70
     0
  0
APPID
  2
ACAD_DSTYLE_DIMBREAK
 70
     0
  0
APPID
  2
ACAD_DSTYLE_DIMINSPECT
 70
     0
  0
APPID
  2
ACAD_EXEMPT_FROM_CAD_STANDARDS
 70
     0
  0
ENDTAB
  0
TABLE
  2
DIMSTYLE
 70
    10
  0
DIMSTYLE
  2
STANDARD
 70
     0
  3

  4

  5

  6

  7

 40
1.0
 41
0.18
 42
0.0625
 43
0.38
 44
0.18
 45
0.0
 46
0.0
 47
0.0
 48
0.0
140
0.18
141
0.09
142
0.0
143
25.399999999999999
144
1.0
145
0.0
146
1.0
147
0.09
 71
     0
 72
     0
 73
     1
 74
     1
 75
     0
 76
     0
 77
     0
 78
     0
170
     0
171
     2
172
     0
173
     0
174
     0
175
     0
176
     0
177
     0
178
     0
  0
DIMSTYLE
  2
BIGT
 70
     0
  3

  4

  5

  6

  7

 40
1.0
 41
2.2299999999999991
 42
0.5
 43
7.0
 44
1.0
 45
0.0
 46
0.0
 47
0.0
 48
0.01
140
2.799999999999998
141
0.0
142
0.0
143
25.399999999999999
144
1.0
145
0.0
146
1.0
147
1.0
 71
     0
 72
     0
 73
     0
 74
     0
 75
     0
 76
     0
 77
     3
 78
     9
170
     0
171
     2
172
     1
173
     0
174
     1
175
     0
176
   256
177
   256
178
    40
  0
DIMSTYLE
  2
AM_ANSI
 70
     0
  3

  4
mm
  5

  6

  7

 40
1.0
 41
0.12
 42
0.05
 43
0.5
 44
0.1
 45
0.0
 46
0.0
 47
0.1
 48
0.1
140
0.12
141
0.0
142
0.0
143
25.399999999999999
144
1.0
145
0.0
146
0.71
147
0.06
 71
     0
 72
     0
 73
     1
 74
     1
 75
     0
 76
     0
 77
     0
 78
     7
170
     0
171
     2
172
     0
173
     0
174
     0
175
     0
176
   256
177
   256
178
     2
  0
DIMSTYLE
  2
AM_ANSI$3
 70
     0
  3

  4
mm
  5

  6

  7

 40
1.0
 41
0.12
 42
0.05
 43
0.5
 44
0.1
 45
0.0
 46
0.0
 47
0.1
 48
0.1
140
0.12
141
0.0
142
0.0
143
25.399999999999999
144
1.0
145
0.0
146
0.71
147
0.06
 71
     0
 72
     0
 73
     1
 74
     1
 75
     0
 76
     0
 77
     0
 78
     7
170
     0
171
     2
172
     0
173
     0
174
     0
175
     0
176
   256
177
   256
178
     2
  0
DIMSTYLE
  2
AM_ANSI$4
 70
     0
  3

  4
mm
  5

  6

  7

 40
1.0
 41
0.12
 42
0.05
 43
0.5
 44
0.1
 45
0.0
 46
0.0
 47
0.1
 48
0.1
140
0.12
141
0.0
142
0.0
143
25.399999999999999
144
1.0
145
0.0
146
0.71
147
0.06
 71
     0
 72
     0
 73
     1
 74
     1
 75
     0
 76
     0
 77
     0
 78
     7
170
     0
171
     2
172
     0
173
     0
174
     0
175
     0
176
   256
177
   256
178
     2
  0
DIMSTYLE
  2
AM_ANSI$7
 70
     0
  3

  4
mm
  5

  6

  7

 40
1.0
 41
0.12
 42
0.05
 43
0.5
 44
0.1
 45
0.0
 46
0.0
 47
0.1
 48
0.1
140
0.12
141
0.0
142
0.0
143
25.399999999999999
144
1.0
145
0.0
146
0.71
147
0.06
 71
     0
 72
     0
 73
     1
 74
     1
 75
     0
 76
     0
 77
     0
 78
     7
170
     0
171
     2
172
     0
173
     0
174
     0
175
     0
176
   256
177
   256
178
     2
  0
DIMSTYLE
  2
AM_ANSI$SF
 70
     0
  3

  4
mm
  5

  6

  7

 40
1.0
 41
0.12
 42
0.05
 43
0.5
 44
0.1
 45
0.0
 46
0.0
 47
0.1
 48
0.1
140
0.12
141
0.0
142
0.0
143
25.399999999999999
144
1.0
145
0.0
146
0.71
147
0.06
 71
     0
 72
     0
 73
     1
 74
     1
 75
     1
 76
     1
 77
     0
 78
     7
170
     0
171
     2
172
     0
173
     0
174
     0
175
     0
176
   256
177
   256
178
     2
  0
DIMSTYLE
  2
AM_ANSI$SH
 70
     0
  3

  4
mm
  5

  6

  7

 40
1.0
 41
0.12
 42
0.05
 43
0.5
 44
0.1
 45
0.0
 46
0.0
 47
0.1
 48
0.1
140
0.12
141
0.0
142
0.0
143
25.399999999999999
144
1.0
145
0.0
146
0.71
147
0.06
 71
     0
 72
     0
 73
     1
 74
     1
 75
     1
 76
     1
 77
     0
 78
     7
170
     0
171
     2
172
     0
173
     1
174
     0
175
     0
176
   256
177
   256
178
     2
  0
ENDTAB
  0
ENDSEC
  0
SECTION
  2
BLOCKS
  0
BLOCK
  8
0
  2
$MODEL_SPACE
 70
     0
 10
0.0
 20
0.0
 30
0.0
  3
$MODEL_SPACE
  1

  0
ENDBLK
  5
F59
  8
0
  0
BLOCK
 67
     1
  8
0
  2
$PAPER_SPACE
 70
     0
 10
0.0
 20
0.0
 30
0.0
  3
$PAPER_SPACE
  1

  0
ENDBLK
  5
F55
 67
     1
  8
0
  0
BLOCK
  8
0
  2
_OPEN
 70
     0
 10
0.0
 20
0.0
 30
0.0
  3
_OPEN
  1

  0
LINE
  5
A98
  8
0
  6
BYBLOCK
 62
     0
 10
-1.0
 20
0.1666666666666666
 30
0.0
 11
0.0
 21
0.0
 31
0.0
  0
LINE
  5
A99
  8
0
  6
BYBLOCK
 62
     0
 10
-1.0
 20
-0.1666666666666666
 30
0.0
 11
0.0
 21
0.0
 31
0.0
  0
LINE
  5
A9A
  8
0
  6
BYBLOCK
 62
     0
 10
0.0
 20
0.0
 30
0.0
 11
-1.0
 21
0.0
 31
0.0
  0
ENDBLK
  5
A9B
  8
0
  0
BLOCK
  8
0
  2
矢印なし
 70
     0
 10
0.0
 20
0.0
 30
0.0
  3
矢印なし
  1

  0
ENDBLK
  5
6E5
  8
0
  0
BLOCK
  8
0
  2
_ACMFILLEDHALF
 70
     0
 10
0.0
 20
0.0
 30
0.0
  3
_ACMFILLEDHALF
  1

  0
TRACE
  5
E15
  8
245
 62
     0
 10
-0.8
 20
0.0
 30
0.0
 11
-1.0
 21
0.166666666
 31
0.0
 12
0.0
 22
0.0
 32
0.0
 13
0.0
 23
0.0
 33
0.0
  0
LINE
  5
E16
  8
245
 62
     0
 10
-1.0
 20
0.0
 30
0.0
 11
-0.8
 21
0.0
 31
0.0
  0
ENDBLK
  5
E14
  8
0
  0
ENDSEC
  0
SECTION
  2
ENTITIES
  0
INSERT
  5
6E6
  8
245
  2
矢印なし
 10
175.62382697000001
 20
90.551235719999994
 30
0.0
  0
TEXT
  5
865
  8
241
  6
CONTINUOUS
 10
-7.7000000000000002
 20
37.600000000000001
 30
0.0
 40
5.0
  1
ENH4-1E
  7
YOKO
 11
-7.7000000000000002
 21
37.600000000000001
 31
0.0
 73
     1
  0
LINE
  5
B49
  8
240
  6
CONTINUOUS
 10
13.0033321
 20
-2.5999999999999992
 30
0.0
 11
8.5
 21
0.0
 31
0.0
  0
LINE
  5
B4A
  8
241
  6
CONTINUOUS
 10
7.5750000000000002
 20
2.547148849999997
 30
0.0
 11
15.88881934
 21
-2.25283699
 31
0.0
1001
GRPNAME
1000
PASTMD03
  0
LINE
  5
B4B
  8
240
  6
CONTINUOUS
 10
4.5
 20
6.599999999999997
 30
0.0
 11
9.5370594900000007
 21
6.599999999999997
 31
0.0
  0
LINE
  5
B4C
  8
241
  6
CONTINUOUS
 10
7.5750000000000002
 20
3.239969169999998
 30
0.0
 11
15.09093957
 21
7.5792989099999959
 31
0.0
1001
GRPNAME
1000
PASTMD03
  0
LINE
  5
B4E
  8
240
  6
CONTINUOUS
 10
-7.7000000000000002
 20
0.0
 30
0.0
 11
-2.23225183
 21
0.0
 31
0.0
  0
ARC
  5
B4F
  8
240
  6
CONTINUOUS
 10
-5.7000000000000002
 20
4.599999999999997
 30
0.0
 40
2.0
 50
90.0
 51
180.0
  0
LINE
  5
B50
  8
240
  6
CONTINUOUS
 10
-7.7000000000000002
 20
0.0
 30
0.0
 11
-7.7000000000000002
 21
4.599999999999997
 31
0.0
  0
LINE
  5
B51
  8
240
  6
CONTINUOUS
 10
-5.7000000000000002
 20
6.599999999999997
 30
0.0
 11
-4.5
 21
6.599999999999997
 31
0.0
  0
LINE
  5
B52
  8
241
  6
CONTINUOUS
 10
7.7000000000000011
 20
3.312137953749279
 30
0.0
 11
7.7000000000000002
 21
6.599999999999997
 31
0.0
  0
LINE
  5
B53
  8
241
  6
CONTINUOUS
 10
6.6683956100000001
 20
2.893559009999997
 30
0.0
 11
6.6683956100000001
 21
6.3499171199999971
 31
0.0
  0
LINE
  5
B54
  8
245
  6
CENTER2
 10
0.0
 20
7.5999999999999988
 30
0.0
 11
0.0
 21
-1.0
 31
0.0
  0
LINE
  5
B55
  8
240
  6
CONTINUOUS
 10
2.23225183
 20
0.0
 30
0.0
 11
8.5
 21
0.0
 31
0.0
  0
LINE
  5
B56
  8
240
  6
CONTINUOUS
 10
2.23225183
 20
0.0
 30
0.0
 11
2.23225183
 21
2.0999999999999992
 31
0.0
  0
LINE
  5
B57
  8
240
  6
CONTINUOUS
 10
-2.23225183
 20
0.0
 30
0.0
 11
-2.23225183
 21
2.0999999999999992
 31
0.0
  0
LINE
  5
B58
  8
240
  6
CONTINUOUS
 10
-2.23225183
 20
2.0999999999999992
 30
0.0
 11
2.23225183
 21
2.0999999999999992
 31
0.0
  0
LINE
  5
B59
  8
241
  6
CONTINUOUS
 10
7.7000000000000002
 20
0.0
 30
0.0
 11
7.7000000000000011
 21
2.4749800662602262
 31
0.0
  0
LINE
  5
B5A
  8
241
  6
CONTINUOUS
 10
6.6683956100000001
 20
0.0
 30
0.0
 11
6.6683956100000001
 21
2.893559009999997
 31
0.0
  0
ARC
  5
B5C
  8
241
  6
CONTINUOUS
 10
7.7750000000000004
 20
2.893559009999997
 30
0.0
 40
0.3999999999999835
 50
120.00000008000001
 51
240.00000008000001
1001
GRPNAME
1000
PASTMD03
  0
ARC
  5
B5D
  8
241
  6
CONTINUOUS
 10
5.7000000000000002
 20
4.599999999999997
 30
0.0
 40
2.0000000000000031
 50
61.040071889999979
 51
90.0
  0
LINE
  5
B5E
  8
240
  6
CONTINUOUS
 10
16.5
 20
7.6999999999999984
 30
0.0
 11
16.5
 21
-1.912881979999999
 31
0.0
1001
GRPNAME
1000
PASTMD03
  0
LINE
  5
B5F
  8
240
  6
CONTINUOUS
 10
13.0033321
 20
-2.5999999999999992
 30
0.0
 11
15.8706253
 21
-2.5999999999999992
 31
0.0
  0
LINE
  5
B61
  8
240
  6
CONTINUOUS
 10
15.8706253
 20
-2.5999999999999992
 30
0.0
 11
15.88881934
 21
-2.25283699
 31
0.0
  0
ARC
  5
B62
  8
240
  6
CONTINUOUS
 10
16.100000000000001
 20
-1.912881979999999
 30
0.0
 40
0.3999999999999916
 50
238.13492189999999
 51
359.99999994000001
1001
GRPNAME
1000
PASTMD03
  0
LINE
  5
B63
  8
240
  6
CONTINUOUS
 10
9.5370594900000007
 20
6.599999999999997
 30
0.0
 11
15.09093957
 21
7.5792989099999959
 31
0.0
1001
GRPNAME
1000
PASTMD03
  0
ARC
  5
B64
  8
240
  6
CONTINUOUS
 10
16.100000000000001
 20
7.6999999999999984
 30
0.0
 40
0.4000000000000057
 50
0.0
 51
120.0
1001
GRPNAME
1000
PASTMD03
  0
LINE
  5
B65
  8
240
  6
CONTINUOUS
 10
15.9
 20
8.0464101600000006
 30
0.0
 11
15.09093957
 21
7.5792989099999959
 31
0.0
1001
GRPNAME
1000
PASTMD03
  0
LINE
  5
B67
  8
250
  6
CONTINUOUS
 10
0.0
 20
8.0999999999999979
 30
0.0
 11
0.0
 21
17.600000000000001
 31
0.0
  0
LINE
  5
B68
  8
250
  6
CONTINUOUS
 10
16.5
 20
8.1999999999999975
 30
0.0
 11
16.5
 21
17.600000000000001
 31
0.0
  0
LINE
  5
B69
  8
250
  6
CONTINUOUS
 10
2.2299999999999991
 20
16.600000000000001
 30
0.0
 11
14.27
 21
16.600000000000001
 31
0.0
  0
TEXT
  5
B73
  8
250
  6
CONTINUOUS
 10
3.3833333333333311
 20
17.600000000000001
 30
0.0
 40
2.799999999999998
  1
16.5
  0
LINE
  5
B74
  8
250
  6
CONTINUOUS
 10
14.27
 20
16.97166666666666
 30
0.0
 11
16.5
 21
16.600000000000001
 31
0.0
  0
LINE
  5
B75
  8
250
  6
CONTINUOUS
 10
14.27
 20
16.228333333333332
 30
0.0
 11
16.5
 21
16.600000000000001
 31
0.0
  0
LINE
  5
B76
  8
250
  6
CONTINUOUS
 10
16.5
 20
16.600000000000001
 30
0.0
 11
14.27
 21
16.600000000000001
 31
0.0
  0
LINE
  5
B77
  8
250
  6
CONTINUOUS
 10
2.2299999999999991
 20
16.228333333333332
 30
0.0
 11
0.0
 21
16.600000000000001
 31
0.0
  0
LINE
  5
B78
  8
250
  6
CONTINUOUS
 10
2.2299999999999991
 20
16.97166666666666
 30
0.0
 11
0.0
 21
16.600000000000001
 31
0.0
  0
LINE
  5
B79
  8
250
  6
CONTINUOUS
 10
0.0
 20
16.600000000000001
 30
0.0
 11
2.2299999999999991
 21
16.600000000000001
 31
0.0
  0
CIRCLE
  5
B8C
  8
246
  6
PHANTOM2
 10
13.324999999031689
 20
2.8935590101583211
 30
0.0
 40
3.175000000968315
  0
LINE
  5
E77
  8
250
  6
CONTINUOUS
 10
33.895174475677372
 20
15.325293138501531
 30
0.0
 11
21.07610371561946
 21
15.325293138501531
 31
0.0
  0
LINE
  5
E78
  8
250
  6
CONTINUOUS
 10
21.07610371561946
 20
15.325293138501531
 30
0.0
 11
16.825266972613541
 21
9.6029772793432802
 31
0.0
  0
LINE
  5
E79
  8
250
  6
CONTINUOUS
 10
16.825266972613541
 20
9.6029772793432802
 30
0.0
 11
15.495469784999999
 21
7.812854534999996
 31
0.0
  0
LINE
  5
E7A
  8
250
  6
CONTINUOUS
 10
16.589592843384249
 20
9.7780483995961784
 30
0.0
 11
15.495469784999999
 21
7.812854534999996
 31
0.0
  0
LINE
  5
E7B
  8
250
  6
CONTINUOUS
 10
15.495469784999999
 20
7.812854534999996
 30
0.0
 11
17.060941101842829
 21
9.4279061590903801
 31
0.0
  0
TEXT
  5
E7C
  8
250
  6
CONTINUOUS
 10
21.228507809010701
 20
16.725293138501542
 30
0.0
 40
2.799999999999998
  1
TC11
  7
ACJISTS
  0
LINE
  5
E7F
  8
250
  6
CONTINUOUS
 10
9.0
 20
-0.0000000000000001
 30
0.0
 11
29.0
 21
-0.0000000000000058
 31
0.0
  0
LINE
  5
E80
  8
250
  6
CONTINUOUS
 10
16.600000000000001
 20
8.1000000000000032
 30
0.0
 11
29.0
 21
8.1000000000000014
 31
0.0
  0
LINE
  5
E81
  8
250
  6
CONTINUOUS
 10
28.0
 20
2.229999999999992
 30
0.0
 11
28.0
 21
5.8700000000000019
 31
0.0
  0
TEXT
  5
E87
  8
250
  6
CONTINUOUS
 10
27.0
 20
1.11666666666667
 30
0.0
 40
2.799999999999998
  1
8.1
 50
90.0
  0
LINE
  5
E88
  8
250
  6
CONTINUOUS
 10
27.628333333333341
 20
5.870000000000001
 30
0.0
 11
28.000000000000011
 21
8.1000000000000014
 31
0.0
  0
LINE
  5
E89
  8
250
  6
CONTINUOUS
 10
28.37166666666667
 20
5.870000000000001
 30
0.0
 11
28.000000000000011
 21
8.1000000000000014
 31
0.0
  0
LINE
  5
E8A
  8
250
  6
CONTINUOUS
 10
28.000000000000011
 20
8.1000000000000014
 30
0.0
 11
28.000000000000011
 21
5.870000000000001
 31
0.0
  0
LINE
  5
E8B
  8
250
  6
CONTINUOUS
 10
28.371666666666659
 20
2.229999999999992
 30
0.0
 11
28.0
 21
-0.0000000000000055
 31
0.0
  0
LINE
  5
E8C
  8
250
  6
CONTINUOUS
 10
27.62833333333333
 20
2.229999999999992
 30
0.0
 11
28.0
 21
-0.0000000000000055
 31
0.0
  0
LINE
  5
E8D
  8
250
  6
CONTINUOUS
 10
28.0
 20
-0.0000000000000055
 30
0.0
 11
28.0
 21
2.229999999999992
 31
0.0
  0
ARC
  5
1022
  8
240
  6
CONTINUOUS
 10
0.0
 20
25.04515450168811
 30
0.0
 40
18.98614559596405
 50
256.28957408309452
 51
283.71042591690548
  0
VIEWPORT
  5
22
 67
     1
  8
0
 10
261.51769911999997
 20
148.5
 30
0.0
 40
523.03539823000006
 41
297.0
 68
     1
 69
     1
1001
ACAD
1000
MVIEW
1002
{
1070
    16
1010
0.0
1020
0.0
1030
0.0
1010
0.0
1020
0.0
1030
1.0
1040
0.0
1040
297.0
1040
261.51769911999997
1040
148.5
1040
50.0
1040
0.0
1040
0.0
1070
     0
1070
   100
1070
     1
1070
     1
1070
     0
1070
     0
1070
     0
1070
     0
1040
0.0
1040
0.0
1040
0.0
1040
1.0
1040
1.0
1040
10.0
1040
10.0
1070
     0
1002
{
1002
}
1002
}
1001
GENIUS_GENOBJ-N-SDF_13
1002
{
1000
OWNER
1000
GEN
1002
}
1001
GENIUS_GENODEF_13
1002
{
1000
HIER
1070
     0
1002
}
1002
{
1000
MANEDIT
1070
     0
1002
}
1002
{
1000
NOSEL
1070
     0
1002
}
1002
{
1000
BEHIND
1070
     0
1002
}
1002
{
1000
OTHER
1070
     0
1002
}
1002
{
1000
REACTOR
1002
}
1001
GENIUS_GENSCREG_15
1000
PF
1040
1.0
1000
DF
1040
1.0
1000
MIN
1011
0.0000000049999471
1021
0.0
1031
0.0
1021
0.0
1031
0.0
1000
MAX
1011
523.035398235
1021
0.0
1031
0.0
1021
297.0
1031
0.0
1000
FLAGS
1070
     4
  0
ENDSEC
  0
EOF
