  0
SECTION
  2
HEADER
  9
$ACADVER
  1
AC1009
  9
$INSBASE
 10
0.0
 20
0.0
 30
0.0
  9
$EXTMIN
 10
-5.6999999999999869
 20
-4.4600000000017763
 30
0.0
  9
$EXTMAX
 10
31.305094508022648
 20
38.0
 30
0.0
  9
$LIMMIN
 10
0.0
 20
0.0
  9
$LIMMAX
 10
297.0
 20
210.0
  9
$ORTHOMODE
 70
     0
  9
$REGENMODE
 70
     1
  9
$FILLMODE
 70
     1
  9
$QTEXTMODE
 70
     0
  9
$MIRRTEXT
 70
     1
  9
$DRAGMODE
 70
     2
  9
$LTSCALE
 40
10.0
  9
$OSMODE
 70
    45
  9
$ATTMODE
 70
     1
  9
$TEXTSIZE
 40
3.0
  9
$TRACEWID
 40
1.0
  9
$TEXTSTYLE
  7
YOKO
  9
$CLAYER
  8
240
  9
$CELTYPE
  6
BYLAYER
  9
$CECOLOR
 62
   256
  9
$DIMSCALE
 40
1.0
  9
$DIMASZ
 40
2.2299999999999991
  9
$DIMEXO
 40
0.5
  9
$DIMDLI
 40
7.0
  9
$DIMRND
 40
0.0
  9
$DIMDLE
 40
0.0
  9
$DIMEXE
 40
1.0
  9
$DIMTP
 40
0.0
  9
$DIMTM
 40
0.01
  9
$DIMTXT
 40
2.799999999999998
  9
$DIMCEN
 40
0.0
  9
$DIMTSZ
 40
0.0
  9
$DIMTOL
 70
     0
  9
$DIMLIM
 70
     0
  9
$DIMTIH
 70
     0
  9
$DIMTOH
 70
     0
  9
$DIMSE1
 70
     0
  9
$DIMSE2
 70
     0
  9
$DIMTAD
 70
     3
  9
$DIMZIN
 70
     9
  9
$DIMBLK
  1
OPEN
  9
$DIMASO
 70
     1
  9
$DIMSHO
 70
     1
  9
$DIMPOST
  1

  9
$DIMAPOST
  1

  9
$DIMALT
 70
     0
  9
$DIMALTD
 70
     2
  9
$DIMALTF
 40
25.399999999999999
  9
$DIMLFAC
 40
1.0
  9
$DIMTOFL
 70
     1
  9
$DIMTVP
 40
0.0
  9
$DIMTIX
 70
     1
  9
$DIMSOXD
 70
     0
  9
$DIMSAH
 70
     0
  9
$DIMBLK1
  1

  9
$DIMBLK2
  1

  9
$DIMSTYLE
  2
BIGT
  9
$DIMCLRD
 70
   256
  9
$DIMCLRE
 70
   256
  9
$DIMCLRT
 70
    40
  9
$DIMTFAC
 40
1.0
  9
$DIMGAP
 40
1.0
  9
$LUNITS
 70
     2
  9
$LUPREC
 70
     6
  9
$SKETCHINC
 40
1.0
  9
$FILLETRAD
 40
0.0
  9
$AUNITS
 70
     0
  9
$AUPREC
 70
     6
  9
$MENU
  1
.
  9
$ELEVATION
 40
0.0
  9
$PELEVATION
 40
0.0
  9
$THICKNESS
 40
0.0
  9
$LIMCHECK
 70
     0
  9
$BLIPMODE
 70
     0
  9
$CHAMFERA
 40
0.2
  9
$CHAMFERB
 40
0.2
  9
$SKPOLY
 70
     0
  9
$TDCREATE
 40
2457143.7556859842
  9
$TDUPDATE
 40
2457856.400893264
  9
$TDINDWG
 40
0.0079304977
  9
$TDUSRTIMER
 40
0.0079304514
  9
$USRTIMER
 70
     1
  9
$ANGBASE
 50
0.0
  9
$ANGDIR
 70
     0
  9
$PDMODE
 70
     1
  9
$PDSIZE
 40
0.0
  9
$PLINEWID
 40
0.0
  9
$COORDS
 70
     1
  9
$SPLFRAME
 70
     0
  9
$SPLINETYPE
 70
     6
  9
$SPLINESEGS
 70
     4
  9
$ATTDIA
 70
     1
  9
$ATTREQ
 70
     1
  9
$HANDLING
 70
     1
  9
$HANDSEED
  5
4941
  9
$SURFTAB1
 70
     6
  9
$SURFTAB2
 70
     6
  9
$SURFTYPE
 70
     6
  9
$SURFU
 70
     6
  9
$SURFV
 70
     6
  9
$UCSNAME
  2

  9
$UCSORG
 10
0.0
 20
0.0
 30
0.0
  9
$UCSXDIR
 10
1.0
 20
0.0
 30
0.0
  9
$UCSYDIR
 10
0.0
 20
1.0
 30
0.0
  9
$PUCSNAME
  2

  9
$PUCSORG
 10
0.0
 20
0.0
 30
0.0
  9
$PUCSXDIR
 10
1.0
 20
0.0
 30
0.0
  9
$PUCSYDIR
 10
0.0
 20
1.0
 30
0.0
  9
$USERI1
 70
     1
  9
$USERI2
 70
     0
  9
$USERI3
 70
     0
  9
$USERI4
 70
     0
  9
$USERI5
 70
     0
  9
$USERR1
 40
0.0
  9
$USERR2
 40
0.0
  9
$USERR3
 40
0.0
  9
$USERR4
 40
0.0
  9
$USERR5
 40
0.0
  9
$WORLDVIEW
 70
     1
  9
$SHADEDGE
 70
     3
  9
$SHADEDIF
 70
    70
  9
$TILEMODE
 70
     1
  9
$MAXACTVP
 70
    16
  9
$PLIMCHECK
 70
     0
  9
$PEXTMIN
 10
1.0000000000000000E+020
 20
1.0000000000000000E+020
 30
1.0000000000000000E+020
  9
$PEXTMAX
 10
-1.0000000000000000E+020
 20
-1.0000000000000000E+020
 30
-1.0000000000000000E+020
  9
$PLIMMIN
 10
0.0
 20
0.0
  9
$PLIMMAX
 10
420.0
 20
297.0
  9
$UNITMODE
 70
     0
  9
$VISRETAIN
 70
     1
  9
$PLINEGEN
 70
     0
  9
$PSLTSCALE
 70
     1
  0
ENDSEC
  0
SECTION
  2
TABLES
  0
TABLE
  2
VPORT
 70
     1
  0
VPORT
  2
*ACTIVE
 70
     0
 10
0.0
 20
0.0
 11
1.0
 21
1.0
 12
11.957092956870699
 22
8.4599400335074009
 13
0.0
 23
0.0
 14
7.0
 24
7.0
 15
7.0
 25
7.0
 16
0.0
 26
0.0
 36
1.0
 17
0.0
 27
0.0
 37
0.0
 40
81.344706378639174
 41
1.496106785317018
 42
50.0
 43
0.0
 44
0.0
 50
0.0
 51
0.0
 71
     0
 72
  2000
 73
     1
 74
     0
 75
     0
 76
     1
 77
     0
 78
     0
  0
ENDTAB
  0
TABLE
  2
LTYPE
 70
    22
  0
LTYPE
  2
CONTINUOUS
 70
     0
  3
Solid line
 72
    65
 73
     0
 40
0.0
  0
LTYPE
  2
CENTER2
 70
     0
  3
___ _ ___ _ ___ _ ___ _ ___ _ ___ _ ___ _ ___ _
 72
    65
 73
     4
 40
1.125
 49
0.75
 49
-0.125
 49
0.125
 49
-0.125
  0
LTYPE
  2
HIDDEN2
 70
     0
  3
_ _ _ _ _ _ _ _ _ _ _ _ _ _ _ _ _ _ _ _ _ _ _ _
 72
    65
 73
     2
 40
0.1875
 49
0.125
 49
-0.0625
  0
LTYPE
  2
PHANTOM2
 70
     0
  3
___ _ _ ___ _ _ ___ _ _ ___ _ _ ___ _ _ ___ _ _
 72
    65
 73
     6
 40
1.25
 49
0.625
 49
-0.125
 49
0.125
 49
-0.125
 49
0.125
 49
-0.125
  0
LTYPE
  2
AMCONSTR
 70
     0
  3
_______________________
 72
    65
 73
     2
 40
9999.0
 49
9999.0
 49
0.0
  0
LTYPE
  2
HIDDEN
 70
     0
  3
Hidden __ __ __ __ __ __ __ __ __ __ __ __ __ _
 72
    65
 73
     2
 40
0.375
 49
0.25
 49
-0.125
  0
LTYPE
  2
CENTER
 70
     0
  3
Center ____ _ ____ _ ____ _ ____ _ ____ _ ____
 72
    65
 73
     4
 40
2.0
 49
1.25
 49
-0.25
 49
0.25
 49
-0.25
  0
LTYPE
  2
AMZIGZAG2
 70
     0
  3
/\/-/\/-/\/-/\/-/\/-/\/
 72
    65
 73
     2
 40
0.4401
 49
0.0001
 49
-0.4400000000000001
  0
LTYPE
  2
ACANSTGB
 70
     0
  3
__ . . __ . .
 72
    65
 73
     6
 40
0.35433070866
 49
0.15748031496
 49
-0.03937007874
 49
0.03937007874
 49
-0.03937007874
 49
0.03937007874
 49
-0.03937007874
  0
LTYPE
  2
ACANSTGL
 70
     0
  3
_ _ _ _ _
 72
    65
 73
     2
 40
0.11811023622
 49
0.07874015748
 49
-0.03937007874
  0
ENDTAB
  0
TABLE
  2
LAYER
 70
     7
  0
LAYER
  2
0
 70
     0
 62
     7
  6
CONTINUOUS
  0
LAYER
  2
241
 70
     0
 62
   211
  6
CONTINUOUS
  0
LAYER
  2
DEFPOINTS
 70
     0
 62
     7
  6
CONTINUOUS
  0
LAYER
  2
245
 70
     0
 62
     2
  6
CENTER2
  0
LAYER
  2
240
 70
     0
 62
     4
  6
CONTINUOUS
  0
LAYER
  2
246
 70
     0
 62
     3
  6
PHANTOM2
  0
LAYER
  2
250
 70
     0
 62
     3
  6
CONTINUOUS
  0
ENDTAB
  0
TABLE
  2
STYLE
 70
    10
  0
STYLE
  2
STANDARD
 70
     0
 40
0.0
 41
1.0
 50
0.0
 71
     0
 42
3.0
  3
romans.shx
  4
extfont.shx
  0
STYLE
  2
YOKO
 70
     0
 40
0.0
 41
1.0
 50
0.0
 71
     0
 42
3.0
  3
romans.shx
  4
extfont.shx
  0
STYLE
  2
ACJISTS
 70
     0
 40
1.0
 41
1.0
 50
0.0
 71
     0
 42
3.0
  3
amgdt.shx
  4
extfont.shx
  0
STYLE
  2

 70
     1
 40
0.0
 41
1.0
 50
0.0
 71
     0
 42
3.0
  3
genltshp.shx
  4

  0
STYLE
  2
ACANSGDT
 70
     0
 40
0.0
 41
1.0
 50
0.0
 71
     0
 42
3.0
  3
amgdt.shx
  4

  0
ENDTAB
  0
TABLE
  2
VIEW
 70
     0
  0
ENDTAB
  0
TABLE
  2
UCS
 70
     0
  0
ENDTAB
  0
TABLE
  2
APPID
 70
    38
  0
APPID
  2
ACAD
 70
     0
  0
APPID
  2
ACADANNOTATIVE
 70
     0
  0
APPID
  2
GLOBAL
 70
     0
  0
APPID
  2
DETAIL
 70
     0
  0
APPID
  2
GRPNAME
 70
     0
  0
APPID
  2
GPARA
 70
     0
  0
APPID
  2
MCAD_NO_VIS
 70
     0
  0
APPID
  2
ACAD_TEMP_GRAPHIC
 70
     0
  0
APPID
  2
ACATTRIBSERVICES
 70
     0
  0
APPID
  2
GENIUS_GENSCREG_15
 70
     0
  0
APPID
  2
GENIUS_GENODEF_13
 70
     0
  0
APPID
  2
GENIUS_GENOBJ-N-SDF_13
 70
     0
  0
APPID
  2
GENIUS_GENREC_14
 70
     0
  0
APPID
  2
GENIUS_GENOBJ-N-REC_13
 70
     0
  0
APPID
  2
GENIUS_GENDIMSH_14
 70
     0
  0
APPID
  2
GENIUS_GENOBJ-N-DIM_13
 70
     0
  0
APPID
  2
GENIUS_GENDIM_13
 70
     0
  0
APPID
  2
GENIUS_GENDTOL_13
 70
     0
  0
APPID
  2
GENIUS_GENOLIS_13
 70
     0
  0
APPID
  2
GENIUS_GENOENT_13
 70
     0
  0
APPID
  2
GENIUS_GENOBJ-F-FEM_13
 70
     0
  0
APPID
  2
GENIUS_GENOREF_13
 70
     0
  0
APPID
  2
GENIUS_GEFFEM_13
 70
     0
  0
APPID
  2
GENIUS_GEFFEMP_13
 70
     0
  0
APPID
  2
AD_DRAW
 70
     0
  0
APPID
  2
DESIGNERASSEMBLIES
 70
     0
  0
APPID
  2
ACADM_DIM_EDIT
 70
     0
  0
APPID
  2
AMDT_DM_ADJ
 70
     0
  0
APPID
  2
ITEMNAME
 70
     0
  0
APPID
  2
GENIUS_GENOBJ-N-FIL_13
 70
     0
  0
APPID
  2
GENIUS_GENFIL_13
 70
     0
  0
APPID
  2
GENIUS_GENOBJ-N-CHA_13
 70
     0
  0
APPID
  2
ACAD_NAV_VCDISPLAY
 70
     0
  0
APPID
  2
ACAD_DSTYLE_DIMINSPECT
 70
     0
  0
APPID
  2
ACAD_EXEMPT_FROM_CAD_STANDARDS
 70
     0
  0
APPID
  2
ACAD_MLEADERVER
 70
     0
  0
APPID
  2
ACAD_DSTYLE_DIMJAG
 70
     0
  0
APPID
  2
ACAD_DSTYLE_DIMBREAK
 70
     0
  0
ENDTAB
  0
TABLE
  2
DIMSTYLE
 70
    32
  0
DIMSTYLE
  2
STANDARD
 70
     0
  3

  4

  5

  6

  7

 40
1.0
 41
0.18
 42
0.0625
 43
0.38
 44
0.18
 45
0.0
 46
0.0
 47
0.0
 48
0.0
140
0.18
141
0.09
142
0.0
143
25.399999999999999
144
1.0
145
0.0
146
1.0
147
0.09
 71
     0
 72
     0
 73
     1
 74
     1
 75
     0
 76
     0
 77
     0
 78
     0
170
     0
171
     2
172
     0
173
     0
174
     0
175
     0
176
     0
177
     0
178
     0
  0
DIMSTYLE
  2
BIGT
 70
     0
  3

  4

  5

  6

  7

 40
1.0
 41
2.2299999999999991
 42
0.5
 43
7.0
 44
1.0
 45
0.0
 46
0.0
 47
0.0
 48
0.01
140
2.799999999999998
141
0.0
142
0.0
143
25.399999999999999
144
1.0
145
0.0
146
1.0
147
1.0
 71
     0
 72
     0
 73
     0
 74
     0
 75
     0
 76
     0
 77
     3
 78
     9
170
     0
171
     2
172
     1
173
     0
174
     1
175
     0
176
   256
177
   256
178
    40
  0
DIMSTYLE
  2
AM_ANSI
 70
     0
  3

  4
mm
  5

  6

  7

 40
1.0
 41
0.12
 42
0.05
 43
0.5
 44
0.1
 45
0.0
 46
0.0
 47
0.1
 48
0.1
140
0.12
141
0.0
142
0.0
143
25.399999999999999
144
1.0
145
0.0
146
0.71
147
0.06
 71
     0
 72
     0
 73
     1
 74
     1
 75
     0
 76
     0
 77
     0
 78
     7
170
     0
171
     2
172
     0
173
     0
174
     0
175
     0
176
   256
177
   256
178
     2
  0
DIMSTYLE
  2
AM_ANSI$3
 70
     0
  3

  4
mm
  5

  6

  7

 40
1.0
 41
0.12
 42
0.05
 43
0.5
 44
0.1
 45
0.0
 46
0.0
 47
0.1
 48
0.1
140
0.12
141
0.0
142
0.0
143
25.399999999999999
144
1.0
145
0.0
146
0.71
147
0.06
 71
     0
 72
     0
 73
     1
 74
     1
 75
     0
 76
     0
 77
     0
 78
     7
170
     0
171
     2
172
     0
173
     0
174
     0
175
     0
176
   256
177
   256
178
     2
  0
DIMSTYLE
  2
AM_ANSI$4
 70
     0
  3

  4
mm
  5

  6

  7

 40
1.0
 41
0.12
 42
0.05
 43
0.5
 44
0.1
 45
0.0
 46
0.0
 47
0.1
 48
0.1
140
0.12
141
0.0
142
0.0
143
25.399999999999999
144
1.0
145
0.0
146
0.71
147
0.06
 71
     0
 72
     0
 73
     1
 74
     1
 75
     0
 76
     0
 77
     0
 78
     7
170
     0
171
     2
172
     0
173
     0
174
     0
175
     0
176
   256
177
   256
178
     2
  0
DIMSTYLE
  2
AM_ANSI$7
 70
     0
  3

  4
mm
  5

  6

  7

 40
1.0
 41
0.12
 42
0.05
 43
0.5
 44
0.1
 45
0.0
 46
0.0
 47
0.1
 48
0.1
140
0.12
141
0.0
142
0.0
143
25.399999999999999
144
1.0
145
0.0
146
0.71
147
0.06
 71
     0
 72
     0
 73
     1
 74
     1
 75
     0
 76
     0
 77
     0
 78
     7
170
     0
171
     2
172
     0
173
     0
174
     0
175
     0
176
   256
177
   256
178
     2
  0
DIMSTYLE
  2
AM_ANSI$SF
 70
     0
  3

  4
mm
  5

  6

  7

 40
1.0
 41
0.12
 42
0.05
 43
0.5
 44
0.1
 45
0.0
 46
0.0
 47
0.1
 48
0.1
140
0.12
141
0.0
142
0.0
143
25.399999999999999
144
1.0
145
0.0
146
0.71
147
0.06
 71
     0
 72
     0
 73
     1
 74
     1
 75
     1
 76
     1
 77
     0
 78
     7
170
     0
171
     2
172
     0
173
     0
174
     0
175
     0
176
   256
177
   256
178
     2
  0
DIMSTYLE
  2
AM_ANSI$SH
 70
     0
  3

  4
mm
  5

  6
GENAXEH
  7

 40
1.0
 41
0.12
 42
0.05
 43
0.5
 44
0.1
 45
0.0
 46
0.0
 47
0.1
 48
0.1
140
0.12
141
0.0
142
0.0
143
25.399999999999999
144
1.0
145
0.0
146
0.71
147
0.06
 71
     0
 72
     0
 73
     1
 74
     1
 75
     1
 76
     1
 77
     0
 78
     7
170
     0
171
     2
172
     0
173
     1
174
     0
175
     0
176
   256
177
   256
178
     2
  0
ENDTAB
  0
ENDSEC
  0
SECTION
  2
BLOCKS
  0
BLOCK
  8
0
  2
$MODEL_SPACE
 70
     0
 10
0.0
 20
0.0
 30
0.0
  3
$MODEL_SPACE
  1

  0
ENDBLK
  5
47FB
  8
0
  0
BLOCK
 67
     1
  8
0
  2
$PAPER_SPACE
 70
     0
 10
0.0
 20
0.0
 30
0.0
  3
$PAPER_SPACE
  1

  0
ENDBLK
  5
47F7
 67
     1
  8
0
  0
BLOCK
  8
0
  2
_OPEN
 70
     0
 10
0.0
 20
0.0
 30
0.0
  3
_OPEN
  1

  0
LINE
  5
44B8
  8
0
  6
BYBLOCK
 62
     0
 10
-1.0
 20
0.1666666666666666
 30
0.0
 11
0.0
 21
0.0
 31
0.0
  0
LINE
  5
44B9
  8
0
  6
BYBLOCK
 62
     0
 10
-1.0
 20
-0.1666666666666666
 30
0.0
 11
0.0
 21
0.0
 31
0.0
  0
LINE
  5
44BA
  8
0
  6
BYBLOCK
 62
     0
 10
0.0
 20
0.0
 30
0.0
 11
-1.0
 21
0.0
 31
0.0
  0
ENDBLK
  5
44BB
  8
0
  0
BLOCK
  8
0
  2
GENAXEH
 70
     0
 10
0.0
 20
0.0
 30
0.0
  3
GENAXEH
  1

  0
LINE
  5
44F3
  8
0
 10
-1.0
 20
0.0
 30
0.0
 11
1.0
 21
0.0
 31
0.0
  0
ENDBLK
  5
44F4
  8
0
  0
BLOCK
  8
0
  2
_ACMFILLEDHALF
 70
     0
 10
0.0
 20
0.0
 30
0.0
  3
_ACMFILLEDHALF
  1

  0
TRACE
  5
48BA
  8
241
 62
     0
 10
-0.8
 20
0.0
 30
0.0
 11
-1.0
 21
0.166666666
 31
0.0
 12
0.0
 22
0.0
 32
0.0
 13
0.0
 23
0.0
 33
0.0
  0
LINE
  5
48BB
  8
241
 62
     0
 10
-1.0
 20
0.0
 30
0.0
 11
-0.8
 21
0.0
 31
0.0
  0
ENDBLK
  5
48B9
  8
0
  0
ENDSEC
  0
SECTION
  2
ENTITIES
  0
LINE
  5
41EB
  8
240
  6
CONTINUOUS
 10
2.433062956367392
 20
-0.0000000000017693
 30
0.0
 11
2.0330629563673579
 21
0.3999999999982648
 31
0.0
1001
GRPNAME
1000
PASTMD0O
  0
LINE
  5
41EC
  8
245
  6
CENTER2
 10
0.0
 20
6.8036859053050227
 30
0.0
 11
0.0
 21
-2.506367819996917
 31
0.0
1001
GRPNAME
1000
PASTMD13
  0
LINE
  5
41ED
  8
240
  6
CONTINUOUS
 10
1.899188869102316
 20
1.199999999998218
 30
0.0
 11
1.899188869102316
 21
1.599999999998253
 31
0.0
1001
GRPNAME
1000
PASTMD0O
  0
LINE
  5
41EE
  8
240
  6
CONTINUOUS
 10
-1.8991888691022589
 20
1.199999999998218
 30
0.0
 11
-1.8991888691022589
 21
1.599999999998253
 31
0.0
1001
GRPNAME
1000
PASTMD0O
  0
LINE
  5
41F1
  8
240
  6
CONTINUOUS
 10
-5.6999999999999869
 20
-0.0000000000017693
 30
0.0
 11
-5.6999999999999869
 21
4.0999999999982517
 31
0.0
1001
GRPNAME
1000
PASTMD10
  0
LINE
  5
41F2
  8
240
  6
CONTINUOUS
 10
-5.6999999999999869
 20
-0.0000000000017693
 30
0.0
 11
-2.4330629563692399
 21
-0.0000000000017693
 31
0.0
1001
GRPNAME
1000
PASTMD10
  0
LINE
  5
41F3
  8
240
  6
CONTINUOUS
 10
-2.433062956367336
 20
-0.0000000000017693
 30
0.0
 11
-2.0330629563673579
 21
0.3999999999982648
 31
0.0
1001
GRPNAME
1000
PASTMD0O
  0
LINE
  5
41F4
  8
240
  6
CONTINUOUS
 10
-2.0330629563674161
 20
0.3999999999982079
 30
0.0
 11
-1.8991888691022589
 21
1.199999999998218
 31
0.0
1001
GRPNAME
1000
PASTMD0O
  0
LINE
  5
41F5
  8
240
  6
CONTINUOUS
 10
2.0330629563674161
 20
0.3999999999982079
 30
0.0
 11
1.899188869102316
 21
1.199999999998218
 31
0.0
1001
GRPNAME
1000
PASTMD0O
  0
ARC
  5
41F8
  8
240
  6
CONTINUOUS
 10
-4.1999999999999869
 20
4.0999999999982517
 30
0.0
 40
1.5
 50
89.999999989709835
 51
179.99999998971069
1001
GRPNAME
1000
PASTMD10
  0
LINE
  5
41F9
  8
240
  6
CONTINUOUS
 10
-4.1999999999999869
 20
5.5999999999982517
 30
0.0
 11
-4.0
 21
5.5999999999982517
 31
0.0
1001
GRPNAME
1000
PASTMD10
  0
LINE
  5
41FA
  8
240
  6
CONTINUOUS
 10
-1.8991888691022589
 20
1.599999999998253
 30
0.0
 11
1.899188869102316
 21
1.599999999998253
 31
0.0
1001
GRPNAME
1000
PASTMD0O
  0
LINE
  5
41FE
  8
240
  6
CONTINUOUS
 10
7.259563986870659
 20
6.7410612983148237
 30
0.0
 11
14.78256885145043
 21
7.3992389396154499
 31
0.0
1001
GRPNAME
1000
PASTMD11
  0
LINE
  5
41FF
  8
241
  6
CONTINUOUS
 10
11.789757682687149
 20
0.2712742014784268
 30
0.0
 11
14.200000000000021
 21
5.4400555310610237
 31
0.0
1001
GRPNAME
1000
PASTMD11
  0
LINE
  5
4200
  8
240
  6
CONTINUOUS
 10
7.5436963802222197
 20
5.8122441484126171
 30
0.0
 11
6.3400000000006838
 21
5.5999999999984382
 31
0.0
  0
LINE
  5
4201
  8
240
  6
CONTINUOUS
 10
7.1131647265624149
 20
6.427107071426299
 30
0.0
 11
7.5436963802222223
 21
5.8122441484126171
 31
0.0
1001
GRPNAME
1000
PASTMD11
  0
LINE
  5
4203
  8
241
  6
CONTINUOUS
 10
5.6999999999999869
 20
-0.0000000000017693
 30
0.0
 11
5.6999999999999869
 21
4.0999999999982517
 31
0.0
1001
GRPNAME
1000
PASTMD10
  0
LINE
  5
4204
  8
240
  6
CONTINUOUS
 10
12.296362508303901
 20
-3.490869021789031
 30
0.0
 11
6.25
 21
-0.0000000000017693
 31
0.0
1001
GRPNAME
1000
PASTMD10
  0
LINE
  5
4205
  8
240
  6
CONTINUOUS
 10
6.25
 20
-0.0000000000017693
 30
0.0
 11
2.4330629563669941
 21
-0.0000000000006892
 31
0.0
1001
GRPNAME
1000
PASTMD10
  0
LINE
  5
4206
  8
240
  6
CONTINUOUS
 10
12.296362508303901
 20
-3.490869021789031
 30
0.0
 11
13.700000000000101
 21
-3.490869021789031
 31
0.0
  0
ARC
  5
4207
  8
241
  6
CONTINUOUS
 10
11.60849612527983
 20
0.3557978538265942
 30
0.0
 40
0.2000000000000104
 50
214.99999980585409
 51
334.99999980586603
1001
GRPNAME
1000
PASTMD11
  0
ARC
  5
4209
  8
241
  6
CONTINUOUS
 10
4.1999999999999869
 20
4.0999999999982517
 30
0.0
 40
1.5
 50
359.99999998713679
 51
89.999999987136903
1001
GRPNAME
1000
PASTMD10
  0
LINE
  5
420B
  8
240
  6
CONTINUOUS
 10
4.0
 20
5.5999999999982517
 30
0.0
 11
6.3400000000006838
 21
5.5999999999984382
 31
0.0
1001
GRPNAME
1000
PASTMD10
  0
LINE
  5
420C
  8
241
  6
CONTINUOUS
 10
4.0
 20
5.5999999999982517
 30
0.0
 11
4.1999999999999869
 21
5.5999999999982517
 31
0.0
1001
GRPNAME
1000
PASTMD0O
  0
ARC
  5
420D
  8
240
  6
CONTINUOUS
 10
7.2769951354201909
 20
6.5418223586964839
 30
0.0
 40
0.1999999999999656
 50
95.000000165807933
 51
215.00000016582879
1001
GRPNAME
1000
PASTMD11
  0
CIRCLE
  5
420E
  8
246
  6
PHANTOM2
 10
11.2284970869001
 20
4.6992067375068061
 30
0.0
 40
2.379999999999999
1001
GRPNAME
1000
PASTMD11
  0
LINE
  5
420F
  8
240
  6
CONTINUOUS
 10
14.200000000000021
 20
5.4400555310610272
 30
0.0
 11
14.200000000000109
 21
-2.9908690217890221
 31
0.0
  0
ARC
  5
4211
  8
240
  6
CONTINUOUS
 10
14.799999999999949
 20
7.1999999999971394
 30
0.0
 40
0.2000000000000606
 50
335.00000032008938
 51
95.000000320066263
1001
GRPNAME
1000
PASTMD11
  0
ARC
  5
4220
  8
240
  6
CONTINUOUS
 10
13.700000000000101
 20
-2.990869021789031
 30
0.0
 40
0.5
 50
270.0
 51
0.0000000000004071
  0
TEXT
  5
429D
  8
241
  6
CONTINUOUS
 10
0.0
 20
35.0
 30
0.0
 40
3.0
  1
ENH3-1J
  7
YOKO
  0
LINE
  5
42AF
  8
250
  6
CONTINUOUS
 10
6.75
 20
-0.0000000000017694
 30
0.0
 11
29.0
 21
-0.0000000000017757
 31
0.0
  0
LINE
  5
42B0
  8
250
  6
CONTINUOUS
 10
15.299999999999949
 20
7.399999999997199
 30
0.0
 11
29.0
 21
7.3999999999971964
 31
0.0
  0
LINE
  5
42B1
  8
250
  6
CONTINUOUS
 10
28.0
 20
-2.230000000001775
 30
0.0
 11
28.0
 21
-4.4600000000017763
 31
0.0
  0
LINE
  5
42B2
  8
250
  6
CONTINUOUS
 10
28.000000000000011
 20
9.6299999999971941
 30
0.0
 11
28.000000000000011
 21
11.859999999997189
 31
0.0
  0
LINE
  5
42B3
  8
250
  6
CONTINUOUS
 10
28.0
 20
-0.0000000000017754
 30
0.0
 11
28.0
 21
7.3999999999971964
 31
0.0
  0
LINE
  5
42B8
  8
250
  6
CONTINUOUS
 10
31.305094508022648
 20
14.747445658224359
 30
0.0
 11
18.48602374796474
 21
14.747445658224359
 31
0.0
  0
LINE
  5
42B9
  8
250
  6
CONTINUOUS
 10
18.48602374796474
 20
14.747445658224359
 30
0.0
 11
14.235187004958821
 21
9.0251297990661072
 31
0.0
  0
LINE
  5
42BA
  8
250
  6
CONTINUOUS
 10
14.235187004958821
 20
9.025129799066109
 30
0.0
 11
12.905389817345281
 21
7.2350070547228249
 31
0.0
  0
LINE
  5
42BB
  8
250
  6
CONTINUOUS
 10
13.999512875729531
 20
9.2002009193190073
 30
0.0
 11
12.905389817345281
 21
7.2350070547228249
 31
0.0
  0
LINE
  5
42BC
  8
250
  6
CONTINUOUS
 10
12.905389817345281
 20
7.2350070547228249
 30
0.0
 11
14.470861134188111
 21
8.8500586788132072
 31
0.0
  0
LINE
  5
42BE
  8
250
  6
CONTINUOUS
 10
0.0
 20
7.3036859053050218
 30
0.0
 11
0.0000000000000009
 21
22.0
 31
0.0
  0
LINE
  5
42BF
  8
250
  6
CONTINUOUS
 10
15.000000000000011
 20
7.6999999999971394
 30
0.0
 11
15.000000000000011
 21
22.0
 31
0.0
  0
LINE
  5
42C0
  8
250
  6
CONTINUOUS
 10
2.2299999999999991
 20
21.0
 30
0.0
 11
12.77000000000001
 21
21.0
 31
0.0
  0
TEXT
  5
42C4
  8
250
  6
CONTINUOUS
 10
4.6333333333333391
 20
22.0
 30
0.0
 40
2.799999999999998
  1
15
  0
LINE
  5
42C5
  8
250
  6
CONTINUOUS
 10
12.77000000000001
 20
21.37166666666667
 30
0.0
 11
15.000000000000011
 21
21.0
 31
0.0
  0
LINE
  5
42C6
  8
250
  6
CONTINUOUS
 10
12.77000000000001
 20
20.62833333333333
 30
0.0
 11
15.000000000000011
 21
21.0
 31
0.0
  0
LINE
  5
42C7
  8
250
  6
CONTINUOUS
 10
15.000000000000011
 20
21.0
 30
0.0
 11
12.77000000000001
 21
21.0
 31
0.0
  0
LINE
  5
42C8
  8
250
  6
CONTINUOUS
 10
2.2299999999999991
 20
20.62833333333333
 30
0.0
 11
0.0000000000000009
 21
21.0
 31
0.0
  0
LINE
  5
42C9
  8
250
  6
CONTINUOUS
 10
2.2299999999999991
 20
21.37166666666667
 30
0.0
 11
0.0000000000000009
 21
21.0
 31
0.0
  0
LINE
  5
42CA
  8
250
  6
CONTINUOUS
 10
0.0000000000000009
 20
21.0
 30
0.0
 11
2.2299999999999991
 21
21.0
 31
0.0
  0
TEXT
  5
42CB
  8
250
  6
CONTINUOUS
 10
18.638427841355981
 20
16.14744565822437
 30
0.0
 40
2.799999999999998
  1
TP08
  7
ACJISTS
  0
TEXT
  5
42CC
  8
250
  6
CONTINUOUS
 10
27.000000000000011
 20
0.2999999999977154
 30
0.0
 40
2.799999999999998
  1
7.4
 50
90.0
  0
LINE
  5
42CD
  8
250
  6
CONTINUOUS
 10
28.371666666666659
 20
9.6299999999971941
 30
0.0
 11
28.0
 21
7.3999999999971964
 31
0.0
  0
LINE
  5
42CE
  8
250
  6
CONTINUOUS
 10
27.62833333333333
 20
9.6299999999971941
 30
0.0
 11
28.0
 21
7.3999999999971964
 31
0.0
  0
LINE
  5
42CF
  8
250
  6
CONTINUOUS
 10
28.0
 20
7.3999999999971964
 30
0.0
 11
28.0
 21
9.6299999999971941
 31
0.0
  0
LINE
  5
42D0
  8
250
  6
CONTINUOUS
 10
27.62833333333333
 20
-2.230000000001775
 30
0.0
 11
28.0
 21
-0.0000000000017754
 31
0.0
  0
LINE
  5
42D1
  8
250
  6
CONTINUOUS
 10
28.371666666666659
 20
-2.230000000001775
 30
0.0
 11
28.0
 21
-0.0000000000017754
 31
0.0
  0
LINE
  5
42D2
  8
250
  6
CONTINUOUS
 10
28.0
 20
-0.0000000000017754
 30
0.0
 11
28.0
 21
-2.230000000001775
 31
0.0
  0
ARC
  5
48DE
  8
240
  6
CONTINUOUS
 10
0.0
 20
19.008122090064461
 30
0.0
 40
13.992059819130329
 50
253.3887563328127
 51
286.6112436671873
  0
LINE
  5
48DF
  8
241
  6
CONTINUOUS
 10
7.5436963802222214
 20
5.8122441484126179
 30
0.0
 11
11.444665716421991
 21
0.2410825665564218
 31
0.0
1001
GRPNAME
1000
PASTMD11
  0
LINE
  5
48E2
  8
240
  6
CONTINUOUS
 10
14.200000000000029
 20
5.4400555310610343
 30
0.0
 11
14.981261557407279
 21
7.1154763476490004
 31
0.0
1001
GRPNAME
1000
PASTMD11
  0
VIEWPORT
  5
22
 67
     1
  8
0
 10
261.51769911504419
 20
148.5
 30
0.0
 40
523.0353982300885
 41
297.0
 68
     1
 69
     1
1001
ACAD
1000
MVIEW
1002
{
1070
    16
1010
0.0
1020
0.0
1030
0.0
1010
0.0
1020
0.0
1030
1.0
1040
0.0
1040
297.0
1040
261.51769911504419
1040
148.5
1040
50.0
1040
0.0
1040
0.0
1070
     0
1070
   100
1070
     1
1070
     1
1070
     0
1070
     0
1070
     0
1070
     0
1040
0.0
1040
0.0
1040
0.0
1040
1.0
1040
1.0
1040
10.0
1040
10.0
1070
     0
1002
{
1002
}
1002
}
1001
GENIUS_GENODEF_13
1002
{
1000
HIER
1070
     0
1002
}
1002
{
1000
MANEDIT
1070
     0
1002
}
1002
{
1000
NOSEL
1070
     0
1002
}
1002
{
1000
BEHIND
1070
     0
1002
}
1002
{
1000
OTHER
1070
     0
1002
}
1002
{
1000
REACTOR
1002
}
1001
GENIUS_GENOBJ-N-SDF_13
1002
{
1000
OWNER
1000
GEN
1002
}
1001
GENIUS_GENSCREG_15
1000
PF
1040
1.0
1000
DF
1040
1.0
1000
MIN
1011
0.0
1021
0.0
1031
0.0
1021
0.0
1031
0.0
1000
MAX
1011
523.0353982300885
1021
0.0
1031
0.0
1021
297.0
1031
0.0
1000
FLAGS
1070
     4
  0
ENDSEC
  0
EOF
