  0
SECTION
  2
HEADER
  9
$ACADVER
  1
AC1009
  9
$INSBASE
 10
0.0
 20
0.0
 30
0.0
  9
$EXTMIN
 10
-4.2000000000000002
 20
-4.4600000000000009
 30
0.0
  9
$EXTMAX
 10
28.753841065677371
 20
43.899999999999991
 30
0.0
  9
$LIMMIN
 10
0.0
 20
0.0
  9
$LIMMAX
 10
420.0
 20
297.0
  9
$ORTHOMODE
 70
     1
  9
$REGENMODE
 70
     1
  9
$FILLMODE
 70
     1
  9
$QTEXTMODE
 70
     0
  9
$MIRRTEXT
 70
     1
  9
$DRAGMODE
 70
     2
  9
$LTSCALE
 40
10.0
  9
$OSMODE
 70
    45
  9
$ATTMODE
 70
     1
  9
$TEXTSIZE
 40
3.0
  9
$TRACEWID
 40
1.0
  9
$TEXTSTYLE
  7
YOKO
  9
$CLAYER
  8
240
  9
$CELTYPE
  6
BYLAYER
  9
$CECOLOR
 62
   256
  9
$DIMSCALE
 40
1.0
  9
$DIMASZ
 40
2.2299999999999991
  9
$DIMEXO
 40
0.5
  9
$DIMDLI
 40
2.5
  9
$DIMRND
 40
0.0
  9
$DIMDLE
 40
0.0
  9
$DIMEXE
 40
1.0
  9
$DIMTP
 40
0.0
  9
$DIMTM
 40
0.0
  9
$DIMTXT
 40
2.799999999999998
  9
$DIMCEN
 40
0.0
  9
$DIMTSZ
 40
0.0
  9
$DIMTOL
 70
     0
  9
$DIMLIM
 70
     0
  9
$DIMTIH
 70
     0
  9
$DIMTOH
 70
     0
  9
$DIMSE1
 70
     0
  9
$DIMSE2
 70
     0
  9
$DIMTAD
 70
     3
  9
$DIMZIN
 70
     8
  9
$DIMBLK
  1

  9
$DIMASO
 70
     1
  9
$DIMSHO
 70
     1
  9
$DIMPOST
  1

  9
$DIMAPOST
  1

  9
$DIMALT
 70
     0
  9
$DIMALTD
 70
     2
  9
$DIMALTF
 40
25.399999999999999
  9
$DIMLFAC
 40
1.0
  9
$DIMTOFL
 70
     1
  9
$DIMTVP
 40
0.0
  9
$DIMTIX
 70
     1
  9
$DIMSOXD
 70
     0
  9
$DIMSAH
 70
     1
  9
$DIMBLK1
  1
OPEN
  9
$DIMBLK2
  1
OPEN
  9
$DIMSTYLE
  2
BIGT
  9
$DIMCLRD
 70
   256
  9
$DIMCLRE
 70
   256
  9
$DIMCLRT
 70
    40
  9
$DIMTFAC
 40
1.0
  9
$DIMGAP
 40
1.0
  9
$LUNITS
 70
     2
  9
$LUPREC
 70
     3
  9
$SKETCHINC
 40
1.0
  9
$FILLETRAD
 40
0.0
  9
$AUNITS
 70
     0
  9
$AUPREC
 70
     3
  9
$MENU
  1
.
  9
$ELEVATION
 40
0.0
  9
$PELEVATION
 40
0.0
  9
$THICKNESS
 40
0.0
  9
$LIMCHECK
 70
     0
  9
$BLIPMODE
 70
     0
  9
$CHAMFERA
 40
10.0
  9
$CHAMFERB
 40
10.0
  9
$SKPOLY
 70
     0
  9
$TDCREATE
 40
2455448.6739834612
  9
$TDUPDATE
 40
2457855.712550058
  9
$TDINDWG
 40
0.0135916088
  9
$TDUSRTIMER
 40
0.0135915509
  9
$USRTIMER
 70
     1
  9
$ANGBASE
 50
0.0
  9
$ANGDIR
 70
     0
  9
$PDMODE
 70
     1
  9
$PDSIZE
 40
-5.0
  9
$PLINEWID
 40
0.0
  9
$COORDS
 70
     1
  9
$SPLFRAME
 70
     0
  9
$SPLINETYPE
 70
     6
  9
$SPLINESEGS
 70
     8
  9
$ATTDIA
 70
     1
  9
$ATTREQ
 70
     1
  9
$HANDLING
 70
     1
  9
$HANDSEED
  5
F41
  9
$SURFTAB1
 70
     6
  9
$SURFTAB2
 70
     6
  9
$SURFTYPE
 70
     6
  9
$SURFU
 70
     6
  9
$SURFV
 70
     6
  9
$UCSNAME
  2

  9
$UCSORG
 10
0.0
 20
0.0
 30
0.0
  9
$UCSXDIR
 10
1.0
 20
0.0
 30
0.0
  9
$UCSYDIR
 10
0.0
 20
1.0
 30
0.0
  9
$PUCSNAME
  2

  9
$PUCSORG
 10
0.0
 20
0.0
 30
0.0
  9
$PUCSXDIR
 10
1.0
 20
0.0
 30
0.0
  9
$PUCSYDIR
 10
0.0
 20
1.0
 30
0.0
  9
$USERI1
 70
     1
  9
$USERI2
 70
     0
  9
$USERI3
 70
     0
  9
$USERI4
 70
     0
  9
$USERI5
 70
     0
  9
$USERR1
 40
0.0
  9
$USERR2
 40
0.0
  9
$USERR3
 40
0.0
  9
$USERR4
 40
0.0
  9
$USERR5
 40
0.0
  9
$WORLDVIEW
 70
     1
  9
$SHADEDGE
 70
     3
  9
$SHADEDIF
 70
    70
  9
$TILEMODE
 70
     1
  9
$MAXACTVP
 70
    16
  9
$PLIMCHECK
 70
     0
  9
$PEXTMIN
 10
1.0000000000000000E+020
 20
1.0000000000000000E+020
 30
1.0000000000000000E+020
  9
$PEXTMAX
 10
-1.0000000000000000E+020
 20
-1.0000000000000000E+020
 30
-1.0000000000000000E+020
  9
$PLIMMIN
 10
0.0
 20
0.0
  9
$PLIMMAX
 10
420.0
 20
297.0
  9
$UNITMODE
 70
     0
  9
$VISRETAIN
 70
     0
  9
$PLINEGEN
 70
     0
  9
$PSLTSCALE
 70
     1
  0
ENDSEC
  0
SECTION
  2
TABLES
  0
TABLE
  2
VPORT
 70
     1
  0
VPORT
  2
*ACTIVE
 70
     0
 10
0.0
 20
0.0
 11
1.0
 21
1.0
 12
8.3920084722648838
 22
11.269513505426319
 13
0.0
 23
0.0
 14
7.0
 24
7.0
 15
7.0
 25
7.0
 16
0.0
 26
0.0
 36
1.0
 17
0.0
 27
0.0
 37
0.0
 40
76.337943802436101
 41
1.496106785317018
 42
50.0
 43
0.0
 44
0.0
 50
0.0
 51
0.0
 71
     0
 72
  2000
 73
     1
 74
     0
 75
     0
 76
     1
 77
     0
 78
     0
  0
ENDTAB
  0
TABLE
  2
LTYPE
 70
    17
  0
LTYPE
  2
CONTINUOUS
 70
     0
  3
Solid line
 72
    65
 73
     0
 40
0.0
  0
LTYPE
  2
CENTER2
 70
     0
  3
___ _ ___ _ ___ _ ___ _ ___ _ ___ _ ___ _ ___ _
 72
    65
 73
     4
 40
1.125
 49
0.75
 49
-0.125
 49
0.125
 49
-0.125
  0
LTYPE
  2
PHANTOM2
 70
     0
  3
___ _ _ ___ _ _ ___ _ _ ___ _ _ ___ _ _ ___ _ _
 72
    65
 73
     6
 40
1.25
 49
0.625
 49
-0.125
 49
0.125
 49
-0.125
 49
0.125
 49
-0.125
  0
LTYPE
  2
HIDDEN2
 70
     0
  3
_ _ _ _ _ _ _ _ _ _ _ _ _ _ _ _ _ _ _ _ _ _ _ _
 72
    65
 73
     2
 40
0.1875
 49
0.125
 49
-0.0625
  0
LTYPE
  2
AMCONSTR
 70
     0
  3
_______________________
 72
    65
 73
     2
 40
9999.0
 49
9999.0
 49
0.0
  0
LTYPE
  2
HIDDEN
 70
     0
  3
Hidden __ __ __ __ __ __ __ __ __ __ __ __ __ _
 72
    65
 73
     2
 40
0.375
 49
0.25
 49
-0.125
  0
LTYPE
  2
CENTER
 70
     0
  3
Center ____ _ ____ _ ____ _ ____ _ ____ _ ____
 72
    65
 73
     4
 40
2.0
 49
1.25
 49
-0.25
 49
0.25
 49
-0.25
  0
LTYPE
  2
AMZIGZAG2
 70
     0
  3
/\/-/\/-/\/-/\/-/\/-/\/
 72
    65
 73
     2
 40
0.4401
 49
0.0001
 49
-0.4400000000000002
  0
LTYPE
  2
ACANSTGB
 70
     0
  3
__ . . __ . .
 72
    65
 73
     6
 40
0.35433070866
 49
0.15748031496
 49
-0.03937007874
 49
0.03937007874
 49
-0.03937007874
 49
0.03937007874
 49
-0.03937007874
  0
LTYPE
  2
ACANSTGL
 70
     0
  3
_ _ _ _ _
 72
    65
 73
     2
 40
0.11811023622
 49
0.07874015748
 49
-0.03937007874
  0
ENDTAB
  0
TABLE
  2
LAYER
 70
     7
  0
LAYER
  2
0
 70
     0
 62
     7
  6
CONTINUOUS
  0
LAYER
  2
245
 70
     0
 62
     2
  6
CENTER2
  0
LAYER
  2
240
 70
     0
 62
     4
  6
CONTINUOUS
  0
LAYER
  2
241
 70
     0
 62
   211
  6
CONTINUOUS
  0
LAYER
  2
250
 70
     0
 62
     3
  6
CONTINUOUS
  0
LAYER
  2
DEFPOINTS
 70
     0
 62
     7
  6
CONTINUOUS
  0
LAYER
  2
246
 70
     0
 62
     3
  6
PHANTOM2
  0
ENDTAB
  0
TABLE
  2
STYLE
 70
     7
  0
STYLE
  2
STANDARD
 70
     0
 40
0.0
 41
1.0
 50
0.0
 71
     0
 42
3.0
  3
romans.shx
  4
BIGFONT.SHX
  0
STYLE
  2
YOKO
 70
     0
 40
0.0
 41
1.0
 50
0.0
 71
     0
 42
3.0
  3
romans.shx
  4
extfont.shx
  0
STYLE
  2
ACJISTS
 70
     0
 40
1.0
 41
1.0
 50
0.0
 71
     0
 42
3.0
  3
amgdt.shx
  4
extfont.shx
  0
STYLE
  2
ACANSGDT
 70
     0
 40
0.0
 41
1.0
 50
0.0
 71
     0
 42
3.0
  3
amgdt.shx
  4

  0
ENDTAB
  0
TABLE
  2
VIEW
 70
     0
  0
ENDTAB
  0
TABLE
  2
UCS
 70
     0
  0
ENDTAB
  0
TABLE
  2
APPID
 70
    42
  0
APPID
  2
ACAD
 70
     0
  0
APPID
  2
ACADANNOTATIVE
 70
     0
  0
APPID
  2
GLOBAL
 70
     0
  0
APPID
  2
DETAIL
 70
     0
  0
APPID
  2
GRPNAME
 70
     0
  0
APPID
  2
GPARA
 70
     0
  0
APPID
  2
DCO15
 70
     0
  0
APPID
  2
ITEMNAME
 70
     0
  0
APPID
  2
GRADE_0
 70
     0
  0
APPID
  2
CONTENTBLOCKICON
 70
     0
  0
APPID
  2
MCAD_NO_VIS
 70
     0
  0
APPID
  2
ACAD_TEMP_GRAPHIC
 70
     0
  0
APPID
  2
ACATTRIBSERVICES
 70
     0
  0
APPID
  2
GENIUS_GENSCREG_15
 70
     0
  0
APPID
  2
GENIUS_GENODEF_13
 70
     0
  0
APPID
  2
GENIUS_GENOBJ-N-SDF_13
 70
     0
  0
APPID
  2
GENIUS_GENREC_14
 70
     0
  0
APPID
  2
GENIUS_GENOBJ-N-REC_13
 70
     0
  0
APPID
  2
GENIUS_GENDIMSH_14
 70
     0
  0
APPID
  2
GENIUS_GENOBJ-N-DIM_13
 70
     0
  0
APPID
  2
GENIUS_GENDIM_13
 70
     0
  0
APPID
  2
GENIUS_GENDTOL_13
 70
     0
  0
APPID
  2
GENIUS_GENOLIS_13
 70
     0
  0
APPID
  2
GENIUS_GENOENT_13
 70
     0
  0
APPID
  2
GENIUS_GENOBJ-F-FEM_13
 70
     0
  0
APPID
  2
GENIUS_GENOREF_13
 70
     0
  0
APPID
  2
GENIUS_GEFFEM_13
 70
     0
  0
APPID
  2
GENIUS_GEFFEMP_13
 70
     0
  0
APPID
  2
AD_DRAW
 70
     0
  0
APPID
  2
DESIGNERASSEMBLIES
 70
     0
  0
APPID
  2
ACADM_DIM_EDIT
 70
     0
  0
APPID
  2
AMDT_DM_ADJ
 70
     0
  0
APPID
  2
GENIUS_GENOBJ-N-FIL_13
 70
     0
  0
APPID
  2
GENIUS_GENFIL_13
 70
     0
  0
APPID
  2
GENIUS_GENOBJ-N-CHA_13
 70
     0
  0
APPID
  2
ACAD_NAV_VCDISPLAY
 70
     0
  0
APPID
  2
ACAECLAYERSTANDARD
 70
     0
  0
APPID
  2
ACAD_MLEADERVER
 70
     0
  0
APPID
  2
ACAD_DSTYLE_DIMJAG
 70
     0
  0
APPID
  2
ACAD_DSTYLE_DIMBREAK
 70
     0
  0
APPID
  2
ACAD_DSTYLE_DIMINSPECT
 70
     0
  0
APPID
  2
ACAD_EXEMPT_FROM_CAD_STANDARDS
 70
     0
  0
ENDTAB
  0
TABLE
  2
DIMSTYLE
 70
    10
  0
DIMSTYLE
  2
STANDARD
 70
     0
  3

  4

  5

  6

  7

 40
1.0
 41
0.18
 42
0.0625
 43
0.38
 44
0.18
 45
0.0
 46
0.0
 47
0.0
 48
0.0
140
0.18
141
0.09
142
0.0
143
25.399999999999999
144
1.0
145
0.0
146
1.0
147
0.09
 71
     0
 72
     0
 73
     1
 74
     1
 75
     0
 76
     0
 77
     0
 78
     0
170
     0
171
     2
172
     0
173
     0
174
     0
175
     0
176
     0
177
     0
178
     0
  0
DIMSTYLE
  2
BIGT
 70
     0
  3

  4

  5

  6

  7

 40
1.0
 41
2.2299999999999991
 42
0.5
 43
7.0
 44
1.0
 45
0.0
 46
0.0
 47
0.0
 48
0.01
140
2.799999999999998
141
0.0
142
0.0
143
25.399999999999999
144
1.0
145
0.0
146
1.0
147
1.0
 71
     0
 72
     0
 73
     0
 74
     0
 75
     0
 76
     0
 77
     3
 78
     9
170
     0
171
     2
172
     1
173
     0
174
     1
175
     0
176
   256
177
   256
178
    40
  0
DIMSTYLE
  2
AM_ANSI
 70
     0
  3

  4
mm
  5

  6

  7

 40
1.0
 41
0.12
 42
0.05
 43
0.5
 44
0.1
 45
0.0
 46
0.0
 47
0.1
 48
0.1
140
0.12
141
0.0
142
0.0
143
25.399999999999999
144
1.0
145
0.0
146
0.71
147
0.06
 71
     0
 72
     0
 73
     1
 74
     1
 75
     0
 76
     0
 77
     0
 78
     7
170
     0
171
     2
172
     0
173
     0
174
     0
175
     0
176
   256
177
   256
178
     2
  0
DIMSTYLE
  2
AM_ANSI$3
 70
     0
  3

  4
mm
  5

  6

  7

 40
1.0
 41
0.12
 42
0.05
 43
0.5
 44
0.1
 45
0.0
 46
0.0
 47
0.1
 48
0.1
140
0.12
141
0.0
142
0.0
143
25.399999999999999
144
1.0
145
0.0
146
0.71
147
0.06
 71
     0
 72
     0
 73
     1
 74
     1
 75
     0
 76
     0
 77
     0
 78
     7
170
     0
171
     2
172
     0
173
     0
174
     0
175
     0
176
   256
177
   256
178
     2
  0
DIMSTYLE
  2
AM_ANSI$4
 70
     0
  3

  4
mm
  5

  6

  7

 40
1.0
 41
0.12
 42
0.05
 43
0.5
 44
0.1
 45
0.0
 46
0.0
 47
0.1
 48
0.1
140
0.12
141
0.0
142
0.0
143
25.399999999999999
144
1.0
145
0.0
146
0.71
147
0.06
 71
     0
 72
     0
 73
     1
 74
     1
 75
     0
 76
     0
 77
     0
 78
     7
170
     0
171
     2
172
     0
173
     0
174
     0
175
     0
176
   256
177
   256
178
     2
  0
DIMSTYLE
  2
AM_ANSI$7
 70
     0
  3

  4
mm
  5

  6

  7

 40
1.0
 41
0.12
 42
0.05
 43
0.5
 44
0.1
 45
0.0
 46
0.0
 47
0.1
 48
0.1
140
0.12
141
0.0
142
0.0
143
25.399999999999999
144
1.0
145
0.0
146
0.71
147
0.06
 71
     0
 72
     0
 73
     1
 74
     1
 75
     0
 76
     0
 77
     0
 78
     7
170
     0
171
     2
172
     0
173
     0
174
     0
175
     0
176
   256
177
   256
178
     2
  0
DIMSTYLE
  2
AM_ANSI$SF
 70
     0
  3

  4
mm
  5

  6

  7

 40
1.0
 41
0.12
 42
0.05
 43
0.5
 44
0.1
 45
0.0
 46
0.0
 47
0.1
 48
0.1
140
0.12
141
0.0
142
0.0
143
25.399999999999999
144
1.0
145
0.0
146
0.71
147
0.06
 71
     0
 72
     0
 73
     1
 74
     1
 75
     1
 76
     1
 77
     0
 78
     7
170
     0
171
     2
172
     0
173
     0
174
     0
175
     0
176
   256
177
   256
178
     2
  0
DIMSTYLE
  2
AM_ANSI$SH
 70
     0
  3

  4
mm
  5

  6

  7

 40
1.0
 41
0.12
 42
0.05
 43
0.5
 44
0.1
 45
0.0
 46
0.0
 47
0.1
 48
0.1
140
0.12
141
0.0
142
0.0
143
25.399999999999999
144
1.0
145
0.0
146
0.71
147
0.06
 71
     0
 72
     0
 73
     1
 74
     1
 75
     1
 76
     1
 77
     0
 78
     7
170
     0
171
     2
172
     0
173
     1
174
     0
175
     0
176
   256
177
   256
178
     2
  0
ENDTAB
  0
ENDSEC
  0
SECTION
  2
BLOCKS
  0
BLOCK
  8
0
  2
$MODEL_SPACE
 70
     0
 10
0.0
 20
0.0
 30
0.0
  3
$MODEL_SPACE
  1

  0
ENDBLK
  5
E1A
  8
0
  0
BLOCK
 67
     1
  8
0
  2
$PAPER_SPACE
 70
     0
 10
0.0
 20
0.0
 30
0.0
  3
$PAPER_SPACE
  1

  0
ENDBLK
  5
E16
 67
     1
  8
0
  0
BLOCK
  8
0
  2
_OPEN
 70
     0
 10
0.0
 20
0.0
 30
0.0
  3
_OPEN
  1

  0
LINE
  5
988
  8
0
  6
BYBLOCK
 62
     0
 10
-1.0
 20
0.1666666666666666
 30
0.0
 11
0.0
 21
0.0
 31
0.0
  0
LINE
  5
989
  8
0
  6
BYBLOCK
 62
     0
 10
-1.0
 20
-0.1666666666666666
 30
0.0
 11
0.0
 21
0.0
 31
0.0
  0
LINE
  5
98A
  8
0
  6
BYBLOCK
 62
     0
 10
0.0
 20
0.0
 30
0.0
 11
-1.0
 21
0.0
 31
0.0
  0
ENDBLK
  5
98B
  8
0
  0
BLOCK
  8
0
  2
矢印なし
 70
     0
 10
0.0
 20
0.0
 30
0.0
  3
矢印なし
  1

  0
ENDBLK
  5
6E5
  8
0
  0
BLOCK
  8
0
  2
_ACMFILLEDHALF
 70
     0
 10
0.0
 20
0.0
 30
0.0
  3
_ACMFILLEDHALF
  1

  0
TRACE
  5
CD9
  8
245
 62
     0
 10
-0.8
 20
0.0
 30
0.0
 11
-1.0
 21
0.166666666
 31
0.0
 12
0.0
 22
0.0
 32
0.0
 13
0.0
 23
0.0
 33
0.0
  0
LINE
  5
CDA
  8
245
 62
     0
 10
-1.0
 20
0.0
 30
0.0
 11
-0.8
 21
0.0
 31
0.0
  0
ENDBLK
  5
CD8
  8
0
  0
ENDSEC
  0
SECTION
  2
ENTITIES
  0
INSERT
  5
6E6
  8
245
  2
矢印なし
 10
175.62382697000001
 20
90.551235719999994
 30
0.0
  0
TEXT
  5
83C
  8
241
 10
-4.2000000000000002
 20
38.899999999999999
 30
0.0
 40
5.0
  1
ENH1-3
  7
YOKO
 11
-4.2000000000000002
 21
38.899999999999999
 31
0.0
 73
     1
  0
LINE
  5
A31
  8
240
  6
CONTINUOUS
 10
5.9700488800000002
 20
9.2663714600000002
 30
0.0
 11
9.9990708500000007
 21
9.2663714600000002
 31
0.0
1001
GRPNAME
1000
PASTMD01
  0
LINE
  5
A33
  8
241
  6
CONTINUOUS
 10
3.9624212299999981
 20
5.8538469800000001
 30
0.0
 11
10.061683049999999
 21
1.89294004
 31
0.0
1001
GRPNAME
1000
PASTMD01
  0
LINE
  5
A34
  8
241
  6
CONTINUOUS
 10
3.9805509400000001
 20
6.1997824000000001
 30
0.0
 11
9.9990708500000007
 21
9.2663714600000002
 31
0.0
1001
GRPNAME
1000
PASTMD01
  0
LINE
  5
A35
  8
240
  6
CONTINUOUS
 10
9.77133465
 20
1.7999999999999969
 30
0.0
 11
4.2000000000000002
 21
1.7999999999999969
 31
0.0
  0
LINE
  5
A36
  8
241
  6
CONTINUOUS
 10
-3.2000000000000002
 20
3.8999999999999999
 30
0.0
 11
-2.7499999999999991
 21
3.8999999999999999
 31
0.0
  0
LINE
  5
A37
  8
240
  6
CONTINUOUS
 10
-3.5420201399999991
 20
3.8396926200000001
 30
0.0
 11
1.605025479999999
 21
5.71306402
 31
0.0
  0
LINE
  5
A38
  8
240
  6
CONTINUOUS
 10
-4.2000000000000002
 20
0.0
 30
0.0
 11
-1.449391649999999
 21
0.0
 31
0.0
  0
LINE
  5
A39
  8
240
  6
CONTINUOUS
 10
-4.2000000000000002
 20
0.0
 30
0.0
 11
-4.2000000000000002
 21
2.8999999999999999
 31
0.0
  0
ARC
  5
A3A
  8
241
  6
CONTINUOUS
 10
-3.2000000000000002
 20
2.8999999999999999
 30
0.0
 40
1.0
 50
90.0
 51
110.0
  0
ARC
  5
A3B
  8
240
  6
CONTINUOUS
 10
-3.2000000000000002
 20
2.8999999999999999
 30
0.0
 40
1.0
 50
110.0
 51
180.0
  0
LINE
  5
A3C
  8
241
  6
CONTINUOUS
 10
4.2000000000000002
 20
2.8999999999999999
 30
0.0
 11
4.2000000000000002
 21
1.7999999999999969
 31
0.0
  0
LINE
  5
A3D
  8
245
  6
CENTER2
 10
0.0
 20
6.1288825199999986
 30
0.0
 11
0.0
 21
-1.0
 31
0.0
  0
LINE
  5
A3E
  8
240
  6
CONTINUOUS
 10
4.2000000000000002
 20
0.0
 30
0.0
 11
1.449391649999999
 21
0.0
 31
0.0
  0
LINE
  5
A3F
  8
240
  6
CONTINUOUS
 10
-1.449391649999999
 20
1.25
 30
0.0
 11
1.449391649999999
 21
1.25
 31
0.0
  0
LINE
  5
A40
  8
240
  6
CONTINUOUS
 10
-1.449391649999999
 20
0.0
 30
0.0
 11
-1.449391649999999
 21
1.25
 31
0.0
  0
LINE
  5
A41
  8
240
  6
CONTINUOUS
 10
1.449391649999999
 20
0.0
 30
0.0
 11
1.449391649999999
 21
1.25
 31
0.0
  0
LINE
  5
A42
  8
240
  6
CONTINUOUS
 10
4.2000000000000002
 20
0.0
 30
0.0
 11
4.2000000000000002
 21
1.7999999999999969
 31
0.0
  0
LINE
  5
A44
  8
240
  6
CONTINUOUS
 10
2.7002853999999981
 20
6.410821539999997
 30
0.0
 11
5.2629420999999992
 21
8.9734782400000004
 31
0.0
  0
ARC
  5
A45
  8
241
  6
CONTINUOUS
 10
3.2000000000000002
 20
2.8999999999999999
 30
0.0
 40
1.0
 50
0.0
 51
90.0
  0
ARC
  5
A46
  8
240
  6
CONTINUOUS
 10
0.57896505
 20
8.5321418900000001
 30
0.0
 40
2.999999999999996
 50
290.0
 51
315.0
  0
ARC
  5
A47
  8
241
  6
CONTINUOUS
 10
4.0713490400000003
 20
6.0215810899999971
 30
0.0
 40
0.1999999999999927
 50
117.00000006
 51
237.00000005999999
1001
GRPNAME
1000
PASTMD01
  0
ARC
  5
A4A
  8
240
  6
CONTINUOUS
 10
5.9700488800000002
 20
8.2663714600000002
 30
0.0
 40
1.0
 50
90.0
 51
135.0
  0
LINE
  5
A4B
  8
240
  6
CONTINUOUS
 10
10.99972591
 20
9.4395328099999993
 30
0.0
 11
10.60449829
 21
1.8981406899999991
 31
0.0
1001
GRPNAME
1000
PASTMD01
  0
ARC
  5
A4C
  8
240
  6
CONTINUOUS
 10
10.40477239
 20
1.908607879999999
 30
0.0
 40
0.1999999999999987
 50
236.99999998000001
 51
356.99999997999998
1001
GRPNAME
1000
PASTMD01
  0
LINE
  5
A4D
  8
240
  6
CONTINUOUS
 10
10.295844580000001
 20
1.740873759999999
 30
0.0
 11
10.061683049999999
 21
1.89294004
 31
0.0
1001
GRPNAME
1000
PASTMD01
  0
ARC
  5
A4E
  8
240
  6
CONTINUOUS
 10
9.77133465
 20
2.299999999999998
 30
0.0
 40
0.5
 50
270.0
 51
305.49954838000002
  0
ARC
  5
A4F
  8
240
  6
CONTINUOUS
 10
10.800000000000001
 20
9.4499999999999993
 30
0.0
 40
0.1999999999999948
 50
356.99999991999982
 51
116.99999991999999
1001
GRPNAME
1000
PASTMD01
  0
LINE
  5
A50
  8
240
  6
CONTINUOUS
 10
9.9990708500000007
 20
9.2663714600000002
 30
0.0
 11
10.7092019
 21
9.6282013000000006
 31
0.0
1001
GRPNAME
1000
PASTMD01
  0
LINE
  5
A68
  8
250
  6
CONTINUOUS
 10
0.0
 20
6.6288825199999986
 30
0.0
 11
0.0000000000000008
 21
18.899999999999999
 31
0.0
  0
LINE
  5
A69
  8
250
  6
CONTINUOUS
 10
11.0
 20
9.9499999999999993
 30
0.0
 11
11.0
 21
18.899999999999999
 31
0.0
  0
LINE
  5
A6A
  8
250
  6
CONTINUOUS
 10
2.2299999999999991
 20
17.899999999999999
 30
0.0
 11
8.769999999999996
 21
17.899999999999999
 31
0.0
  0
TEXT
  5
A74
  8
250
  6
CONTINUOUS
 10
3.033333333333331
 20
18.899999999999991
 30
0.0
 40
2.799999999999998
  1
11
  0
LINE
  5
A75
  8
250
  6
CONTINUOUS
 10
8.769999999999996
 20
18.271666666666661
 30
0.0
 11
11.0
 21
17.899999999999999
 31
0.0
  0
LINE
  5
A76
  8
250
  6
CONTINUOUS
 10
8.769999999999996
 20
17.528333333333329
 30
0.0
 11
11.0
 21
17.899999999999999
 31
0.0
  0
LINE
  5
A77
  8
250
  6
CONTINUOUS
 10
11.0
 20
17.899999999999999
 30
0.0
 11
8.769999999999996
 21
17.899999999999999
 31
0.0
  0
LINE
  5
A78
  8
250
  6
CONTINUOUS
 10
2.2299999999999991
 20
17.528333333333329
 30
0.0
 11
0.0000000000000007
 21
17.899999999999999
 31
0.0
  0
LINE
  5
A79
  8
250
  6
CONTINUOUS
 10
2.2299999999999991
 20
18.271666666666661
 30
0.0
 11
0.0000000000000007
 21
17.899999999999999
 31
0.0
  0
LINE
  5
A7A
  8
250
  6
CONTINUOUS
 10
0.0000000000000007
 20
17.899999999999999
 30
0.0
 11
2.2299999999999991
 21
17.899999999999999
 31
0.0
  0
CIRCLE
  5
A82
  8
246
  6
PHANTOM2
 10
8.4253738078095868
 20
5.7933963234442123
 30
0.0
 40
2.3799999993489021
  0
LINE
  5
A8E
  8
241
  6
CONTINUOUS
 10
2.7499999999999991
 20
3.8999999999999999
 30
0.0
 11
3.2000000000000002
 21
3.8999999999999999
 31
0.0
  0
LINE
  5
D38
  8
250
  6
CONTINUOUS
 10
28.753841065677371
 20
16.95972498350153
 30
0.0
 11
15.93477030561945
 21
16.95972498350153
 31
0.0
  0
LINE
  5
D39
  8
250
  6
CONTINUOUS
 10
15.93477030561945
 20
16.95972498350153
 30
0.0
 11
11.683933562613539
 21
11.23740912434328
 31
0.0
  0
LINE
  5
D3A
  8
250
  6
CONTINUOUS
 10
11.683933562613539
 20
11.23740912434328
 30
0.0
 11
10.354136375
 21
9.4472863799999995
 31
0.0
  0
LINE
  5
D3B
  8
250
  6
CONTINUOUS
 10
11.44825943338425
 20
11.41248024459618
 30
0.0
 11
10.354136375
 21
9.4472863799999995
 31
0.0
  0
LINE
  5
D3C
  8
250
  6
CONTINUOUS
 10
10.354136375
 20
9.4472863799999995
 30
0.0
 11
11.919607691842829
 21
11.06233800409038
 31
0.0
  0
TEXT
  5
D3D
  8
250
  6
CONTINUOUS
 10
16.087174399010699
 20
18.35972498350154
 30
0.0
 40
2.799999999999998
  1
TP08
  7
ACJISTS
  0
LINE
  5
D3E
  8
250
  6
CONTINUOUS
 10
4.7000000000000002
 20
-0.0000000000000001
 30
0.0
 11
22.0
 21
-0.000000000000005
 31
0.0
  0
LINE
  5
D3F
  8
250
  6
CONTINUOUS
 10
11.300000000000001
 20
9.6499999999999915
 30
0.0
 11
22.000000000000011
 21
9.6499999999999861
 31
0.0
  0
LINE
  5
D40
  8
250
  6
CONTINUOUS
 10
21.0
 20
-2.2300000000000031
 30
0.0
 11
21.0
 21
-4.4600000000000009
 31
0.0
  0
LINE
  5
D41
  8
250
  6
CONTINUOUS
 10
21.0
 20
11.87999999999999
 30
0.0
 11
21.0
 21
14.10999999999998
 31
0.0
  0
LINE
  5
D42
  8
250
  6
CONTINUOUS
 10
21.0
 20
-0.0000000000000048
 30
0.0
 11
21.0
 21
9.6499999999999861
 31
0.0
  0
TEXT
  5
D48
  8
250
  6
CONTINUOUS
 10
20.0
 20
0.1583333333333319
 30
0.0
 40
2.799999999999998
  1
9.65
 50
90.0
  0
LINE
  5
D49
  8
250
  6
CONTINUOUS
 10
21.37166666666667
 20
11.87999999999999
 30
0.0
 11
21.0
 21
9.6499999999999861
 31
0.0
  0
LINE
  5
D4A
  8
250
  6
CONTINUOUS
 10
20.628333333333341
 20
11.87999999999999
 30
0.0
 11
21.0
 21
9.6499999999999861
 31
0.0
  0
LINE
  5
D4B
  8
250
  6
CONTINUOUS
 10
21.0
 20
9.6499999999999861
 30
0.0
 11
21.0
 21
11.87999999999999
 31
0.0
  0
LINE
  5
D4C
  8
250
  6
CONTINUOUS
 10
20.62833333333333
 20
-2.2300000000000031
 30
0.0
 11
21.0
 21
-0.0000000000000048
 31
0.0
  0
LINE
  5
D4D
  8
250
  6
CONTINUOUS
 10
21.37166666666667
 20
-2.2300000000000031
 30
0.0
 11
21.0
 21
-0.0000000000000048
 31
0.0
  0
LINE
  5
D4E
  8
250
  6
CONTINUOUS
 10
21.0
 20
-0.0000000000000048
 30
0.0
 11
21.0
 21
-2.2300000000000031
 31
0.0
  0
ARC
  5
EE1
  8
241
  6
CONTINUOUS
 10
-0.0000000000000004
 20
12.478885342373459
 30
0.0
 40
9.0088719447881083
 50
252.22651543833879
 51
287.77348456166112
  0
VIEWPORT
  5
22
 67
     1
  8
0
 10
261.51769911999997
 20
148.5
 30
0.0
 40
523.03539823000006
 41
297.0
 68
     1
 69
     1
1001
ACAD
1000
MVIEW
1002
{
1070
    16
1010
0.0
1020
0.0
1030
0.0
1010
0.0
1020
0.0
1030
1.0
1040
0.0
1040
297.0
1040
261.51769911999997
1040
148.5
1040
50.0
1040
0.0
1040
0.0
1070
     0
1070
   100
1070
     1
1070
     1
1070
     0
1070
     0
1070
     0
1070
     0
1040
0.0
1040
0.0
1040
0.0
1040
1.0
1040
1.0
1040
10.0
1040
10.0
1070
     0
1002
{
1002
}
1002
}
1001
GENIUS_GENODEF_13
1002
{
1000
HIER
1070
     0
1002
}
1002
{
1000
MANEDIT
1070
     0
1002
}
1002
{
1000
NOSEL
1070
     0
1002
}
1002
{
1000
BEHIND
1070
     0
1002
}
1002
{
1000
OTHER
1070
     0
1002
}
1002
{
1000
REACTOR
1002
}
1001
GENIUS_GENOBJ-N-SDF_13
1002
{
1000
OWNER
1000
GEN
1002
}
1001
GENIUS_GENSCREG_15
1000
PF
1040
1.0
1000
DF
1040
1.0
1000
MIN
1011
0.0000000049999471
1021
0.0
1031
0.0
1021
0.0
1031
0.0
1000
MAX
1011
523.035398235
1021
0.0
1031
0.0
1021
297.0
1031
0.0
1000
FLAGS
1070
     4
  0
ENDSEC
  0
EOF
