  0
SECTION
  2
HEADER
  9
$ACADVER
  1
AC1009
  9
$INSBASE
 10
0.0
 20
0.0
 30
0.0
  9
$EXTMIN
 10
-4.2000000000000002
 20
-4.4600000000000009
 30
0.0
  9
$EXTMAX
 10
29.053841065677371
 20
36.900000000000013
 30
0.0
  9
$LIMMIN
 10
0.0
 20
0.0
  9
$LIMMAX
 10
420.0
 20
297.0
  9
$ORTHOMODE
 70
     1
  9
$REGENMODE
 70
     1
  9
$FILLMODE
 70
     1
  9
$QTEXTMODE
 70
     0
  9
$MIRRTEXT
 70
     1
  9
$DRAGMODE
 70
     2
  9
$LTSCALE
 40
10.0
  9
$OSMODE
 70
    45
  9
$ATTMODE
 70
     1
  9
$TEXTSIZE
 40
3.0
  9
$TRACEWID
 40
1.0
  9
$TEXTSTYLE
  7
YOKO
  9
$CLAYER
  8
240
  9
$CELTYPE
  6
BYLAYER
  9
$CECOLOR
 62
   256
  9
$DIMSCALE
 40
1.0
  9
$DIMASZ
 40
2.2299999999999991
  9
$DIMEXO
 40
0.5
  9
$DIMDLI
 40
2.5
  9
$DIMRND
 40
0.0
  9
$DIMDLE
 40
0.0
  9
$DIMEXE
 40
1.0
  9
$DIMTP
 40
0.0
  9
$DIMTM
 40
0.0
  9
$DIMTXT
 40
2.799999999999998
  9
$DIMCEN
 40
0.0
  9
$DIMTSZ
 40
0.0
  9
$DIMTOL
 70
     0
  9
$DIMLIM
 70
     0
  9
$DIMTIH
 70
     0
  9
$DIMTOH
 70
     0
  9
$DIMSE1
 70
     0
  9
$DIMSE2
 70
     0
  9
$DIMTAD
 70
     3
  9
$DIMZIN
 70
     8
  9
$DIMBLK
  1

  9
$DIMASO
 70
     1
  9
$DIMSHO
 70
     1
  9
$DIMPOST
  1

  9
$DIMAPOST
  1

  9
$DIMALT
 70
     0
  9
$DIMALTD
 70
     2
  9
$DIMALTF
 40
25.399999999999999
  9
$DIMLFAC
 40
1.0
  9
$DIMTOFL
 70
     1
  9
$DIMTVP
 40
0.0
  9
$DIMTIX
 70
     1
  9
$DIMSOXD
 70
     0
  9
$DIMSAH
 70
     1
  9
$DIMBLK1
  1
OPEN
  9
$DIMBLK2
  1
OPEN
  9
$DIMSTYLE
  2
BIGT
  9
$DIMCLRD
 70
   256
  9
$DIMCLRE
 70
   256
  9
$DIMCLRT
 70
    40
  9
$DIMTFAC
 40
1.0
  9
$DIMGAP
 40
1.0
  9
$LUNITS
 70
     2
  9
$LUPREC
 70
     3
  9
$SKETCHINC
 40
1.0
  9
$FILLETRAD
 40
0.0
  9
$AUNITS
 70
     0
  9
$AUPREC
 70
     3
  9
$MENU
  1
.
  9
$ELEVATION
 40
0.0
  9
$PELEVATION
 40
0.0
  9
$THICKNESS
 40
0.0
  9
$LIMCHECK
 70
     0
  9
$BLIPMODE
 70
     0
  9
$CHAMFERA
 40
10.0
  9
$CHAMFERB
 40
10.0
  9
$SKPOLY
 70
     0
  9
$TDCREATE
 40
2455448.6636179751
  9
$TDUPDATE
 40
2457855.706948461
  9
$TDINDWG
 40
0.0319747106
  9
$TDUSRTIMER
 40
0.0319746644
  9
$USRTIMER
 70
     1
  9
$ANGBASE
 50
0.0
  9
$ANGDIR
 70
     0
  9
$PDMODE
 70
     1
  9
$PDSIZE
 40
-5.0
  9
$PLINEWID
 40
0.0
  9
$COORDS
 70
     1
  9
$SPLFRAME
 70
     0
  9
$SPLINETYPE
 70
     6
  9
$SPLINESEGS
 70
     8
  9
$ATTDIA
 70
     1
  9
$ATTREQ
 70
     1
  9
$HANDLING
 70
     1
  9
$HANDSEED
  5
118F
  9
$SURFTAB1
 70
     6
  9
$SURFTAB2
 70
     6
  9
$SURFTYPE
 70
     6
  9
$SURFU
 70
     6
  9
$SURFV
 70
     6
  9
$UCSNAME
  2

  9
$UCSORG
 10
0.0
 20
0.0
 30
0.0
  9
$UCSXDIR
 10
1.0
 20
0.0
 30
0.0
  9
$UCSYDIR
 10
0.0
 20
1.0
 30
0.0
  9
$PUCSNAME
  2

  9
$PUCSORG
 10
0.0
 20
0.0
 30
0.0
  9
$PUCSXDIR
 10
1.0
 20
0.0
 30
0.0
  9
$PUCSYDIR
 10
0.0
 20
1.0
 30
0.0
  9
$USERI1
 70
     1
  9
$USERI2
 70
     0
  9
$USERI3
 70
     0
  9
$USERI4
 70
     0
  9
$USERI5
 70
     0
  9
$USERR1
 40
0.0
  9
$USERR2
 40
0.0
  9
$USERR3
 40
0.0
  9
$USERR4
 40
0.0
  9
$USERR5
 40
0.0
  9
$WORLDVIEW
 70
     1
  9
$SHADEDGE
 70
     3
  9
$SHADEDIF
 70
    70
  9
$TILEMODE
 70
     1
  9
$MAXACTVP
 70
    16
  9
$PLIMCHECK
 70
     0
  9
$PEXTMIN
 10
1.0000000000000000E+020
 20
1.0000000000000000E+020
 30
1.0000000000000000E+020
  9
$PEXTMAX
 10
-1.0000000000000000E+020
 20
-1.0000000000000000E+020
 30
-1.0000000000000000E+020
  9
$PLIMMIN
 10
0.0
 20
0.0
  9
$PLIMMAX
 10
420.0
 20
297.0
  9
$UNITMODE
 70
     0
  9
$VISRETAIN
 70
     0
  9
$PLINEGEN
 70
     0
  9
$PSLTSCALE
 70
     1
  0
ENDSEC
  0
SECTION
  2
TABLES
  0
TABLE
  2
VPORT
 70
     1
  0
VPORT
  2
*ACTIVE
 70
     0
 10
0.0
 20
0.0
 11
1.0
 21
1.0
 12
3.0857100720400719
 22
23.791391772973491
 13
0.0
 23
0.0
 14
7.0
 24
7.0
 15
7.0
 25
7.0
 16
0.0
 26
0.0
 36
1.0
 17
0.0
 27
0.0
 37
0.0
 40
103.6103350273216
 41
1.496106785317018
 42
50.0
 43
0.0
 44
0.0
 50
0.0
 51
0.0
 71
     0
 72
  2000
 73
     1
 74
     0
 75
     0
 76
     1
 77
     0
 78
     0
  0
ENDTAB
  0
TABLE
  2
LTYPE
 70
    16
  0
LTYPE
  2
CONTINUOUS
 70
     0
  3
Solid line
 72
    65
 73
     0
 40
0.0
  0
LTYPE
  2
CENTER2
 70
     0
  3
___ _ ___ _ ___ _ ___ _ ___ _ ___ _ ___ _ ___ _
 72
    65
 73
     4
 40
1.125
 49
0.75
 49
-0.125
 49
0.125
 49
-0.125
  0
LTYPE
  2
PHANTOM2
 70
     0
  3
___ _ _ ___ _ _ ___ _ _ ___ _ _ ___ _ _ ___ _ _
 72
    65
 73
     6
 40
1.25
 49
0.625
 49
-0.125
 49
0.125
 49
-0.125
 49
0.125
 49
-0.125
  0
LTYPE
  2
HIDDEN2
 70
     0
  3
_ _ _ _ _ _ _ _ _ _ _ _ _ _ _ _ _ _ _ _ _ _ _ _
 72
    65
 73
     2
 40
0.1875
 49
0.125
 49
-0.0625
  0
LTYPE
  2
AMCONSTR
 70
     0
  3
_______________________
 72
    65
 73
     2
 40
9999.0
 49
9999.0
 49
0.0
  0
LTYPE
  2
HIDDEN
 70
     0
  3
Hidden __ __ __ __ __ __ __ __ __ __ __ __ __ _
 72
    65
 73
     2
 40
0.375
 49
0.25
 49
-0.125
  0
LTYPE
  2
CENTER
 70
     0
  3
Center ____ _ ____ _ ____ _ ____ _ ____ _ ____
 72
    65
 73
     4
 40
2.0
 49
1.25
 49
-0.25
 49
0.25
 49
-0.25
  0
LTYPE
  2
AMZIGZAG2
 70
     0
  3
/\/-/\/-/\/-/\/-/\/-/\/
 72
    65
 73
     2
 40
0.4401
 49
0.0001
 49
-0.4400000000000002
  0
LTYPE
  2
ACANSTGB
 70
     0
  3
__ . . __ . .
 72
    65
 73
     6
 40
0.35433070866
 49
0.15748031496
 49
-0.03937007874
 49
0.03937007874
 49
-0.03937007874
 49
0.03937007874
 49
-0.03937007874
  0
LTYPE
  2
ACANSTGL
 70
     0
  3
_ _ _ _ _
 72
    65
 73
     2
 40
0.11811023622
 49
0.07874015748
 49
-0.03937007874
  0
ENDTAB
  0
TABLE
  2
LAYER
 70
     7
  0
LAYER
  2
0
 70
     0
 62
     7
  6
CONTINUOUS
  0
LAYER
  2
245
 70
     0
 62
     2
  6
CENTER2
  0
LAYER
  2
240
 70
     0
 62
     4
  6
CONTINUOUS
  0
LAYER
  2
241
 70
     0
 62
   211
  6
CONTINUOUS
  0
LAYER
  2
250
 70
     0
 62
     3
  6
CONTINUOUS
  0
LAYER
  2
DEFPOINTS
 70
     0
 62
     7
  6
CONTINUOUS
  0
LAYER
  2
246
 70
     0
 62
     3
  6
PHANTOM2
  0
ENDTAB
  0
TABLE
  2
STYLE
 70
     7
  0
STYLE
  2
STANDARD
 70
     0
 40
0.0
 41
1.0
 50
0.0
 71
     0
 42
3.0
  3
romans.shx
  4
BIGFONT.SHX
  0
STYLE
  2
YOKO
 70
     0
 40
0.0
 41
1.0
 50
0.0
 71
     0
 42
3.0
  3
romans.shx
  4
extfont.shx
  0
STYLE
  2
ACJISTS
 70
     0
 40
1.0
 41
1.0
 50
0.0
 71
     0
 42
3.0
  3
amgdt.shx
  4
extfont.shx
  0
STYLE
  2
ACANSGDT
 70
     0
 40
0.0
 41
1.0
 50
0.0
 71
     0
 42
3.0
  3
amgdt.shx
  4

  0
ENDTAB
  0
TABLE
  2
VIEW
 70
     0
  0
ENDTAB
  0
TABLE
  2
UCS
 70
     0
  0
ENDTAB
  0
TABLE
  2
APPID
 70
    43
  0
APPID
  2
ACAD
 70
     0
  0
APPID
  2
ACADANNOTATIVE
 70
     0
  0
APPID
  2
GLOBAL
 70
     0
  0
APPID
  2
DETAIL
 70
     0
  0
APPID
  2
GRPNAME
 70
     0
  0
APPID
  2
GPARA
 70
     0
  0
APPID
  2
DCO15
 70
     0
  0
APPID
  2
ITEMNAME
 70
     0
  0
APPID
  2
GRADE_0
 70
     0
  0
APPID
  2
CONTENTBLOCKICON
 70
     0
  0
APPID
  2
MCAD_NO_VIS
 70
     0
  0
APPID
  2
ACAD_TEMP_GRAPHIC
 70
     0
  0
APPID
  2
ACATTRIBSERVICES
 70
     0
  0
APPID
  2
GENIUS_GENSCREG_15
 70
     0
  0
APPID
  2
GENIUS_GENODEF_13
 70
     0
  0
APPID
  2
GENIUS_GENOBJ-N-SDF_13
 70
     0
  0
APPID
  2
GENIUS_GENREC_14
 70
     0
  0
APPID
  2
GENIUS_GENOBJ-N-REC_13
 70
     0
  0
APPID
  2
GENIUS_GENDIMSH_14
 70
     0
  0
APPID
  2
GENIUS_GENOBJ-N-DIM_13
 70
     0
  0
APPID
  2
GENIUS_GENDIM_13
 70
     0
  0
APPID
  2
GENIUS_GENDTOL_13
 70
     0
  0
APPID
  2
GENIUS_GENOLIS_13
 70
     0
  0
APPID
  2
GENIUS_GENOENT_13
 70
     0
  0
APPID
  2
GENIUS_GENOBJ-F-FEM_13
 70
     0
  0
APPID
  2
GENIUS_GENOREF_13
 70
     0
  0
APPID
  2
GENIUS_GEFFEM_13
 70
     0
  0
APPID
  2
GENIUS_GEFFEMP_13
 70
     0
  0
APPID
  2
AD_DRAW
 70
     0
  0
APPID
  2
DESIGNERASSEMBLIES
 70
     0
  0
APPID
  2
ACADM_DIM_EDIT
 70
     0
  0
APPID
  2
AMDT_DM_ADJ
 70
     0
  0
APPID
  2
GENIUS_GENOBJ-N-FIL_13
 70
     0
  0
APPID
  2
GENIUS_GENFIL_13
 70
     0
  0
APPID
  2
GENIUS_GENOBJ-N-CHA_13
 70
     0
  0
APPID
  2
ACAD_NAV_VCDISPLAY
 70
     0
  0
APPID
  2
ACAD_EXEMPT_FROM_CAD_STANDARDS
 70
     0
  0
APPID
  2
ACAECLAYERSTANDARD
 70
     0
  0
APPID
  2
ACAD_DSTYLE_DIMINSPECT
 70
     0
  0
APPID
  2
ACAD_DSTYLE_DIMRADIAL_EXTENSION
 70
     0
  0
APPID
  2
ACAD_MLEADERVER
 70
     0
  0
APPID
  2
ACAD_DSTYLE_DIMJAG
 70
     0
  0
APPID
  2
ACAD_DSTYLE_DIMBREAK
 70
     0
  0
ENDTAB
  0
TABLE
  2
DIMSTYLE
 70
     9
  0
DIMSTYLE
  2
STANDARD
 70
     0
  3

  4

  5

  6

  7

 40
1.0
 41
0.18
 42
0.0625
 43
0.38
 44
0.18
 45
0.0
 46
0.0
 47
0.0
 48
0.0
140
0.18
141
0.09
142
0.0
143
25.399999999999999
144
1.0
145
0.0
146
1.0
147
0.09
 71
     0
 72
     0
 73
     1
 74
     1
 75
     0
 76
     0
 77
     0
 78
     0
170
     0
171
     2
172
     0
173
     0
174
     0
175
     0
176
     0
177
     0
178
     0
  0
DIMSTYLE
  2
BIGT
 70
     0
  3

  4

  5

  6

  7

 40
1.0
 41
2.2299999999999991
 42
0.5
 43
7.0
 44
1.0
 45
0.0
 46
0.0
 47
0.0
 48
0.01
140
2.799999999999998
141
0.0
142
0.0
143
25.399999999999999
144
1.0
145
0.0
146
1.0
147
1.0
 71
     0
 72
     0
 73
     0
 74
     0
 75
     0
 76
     0
 77
     3
 78
     9
170
     0
171
     2
172
     1
173
     0
174
     1
175
     0
176
   256
177
   256
178
    40
  0
DIMSTYLE
  2
AM_ANSI
 70
     0
  3

  4
mm
  5

  6

  7

 40
1.0
 41
0.12
 42
0.05
 43
0.5
 44
0.1
 45
0.0
 46
0.0
 47
0.1
 48
0.1
140
0.12
141
0.0
142
0.0
143
25.399999999999999
144
1.0
145
0.0
146
0.71
147
0.06
 71
     0
 72
     0
 73
     1
 74
     1
 75
     0
 76
     0
 77
     0
 78
     7
170
     0
171
     2
172
     0
173
     0
174
     0
175
     0
176
   256
177
   256
178
     2
  0
DIMSTYLE
  2
AM_ANSI$3
 70
     0
  3

  4
mm
  5

  6

  7

 40
1.0
 41
0.12
 42
0.05
 43
0.5
 44
0.1
 45
0.0
 46
0.0
 47
0.1
 48
0.1
140
0.12
141
0.0
142
0.0
143
25.399999999999999
144
1.0
145
0.0
146
0.71
147
0.06
 71
     0
 72
     0
 73
     1
 74
     1
 75
     0
 76
     0
 77
     0
 78
     7
170
     0
171
     2
172
     0
173
     0
174
     0
175
     0
176
   256
177
   256
178
     2
  0
DIMSTYLE
  2
AM_ANSI$4
 70
     0
  3

  4
mm
  5

  6

  7

 40
1.0
 41
0.12
 42
0.05
 43
0.5
 44
0.1
 45
0.0
 46
0.0
 47
0.1
 48
0.1
140
0.12
141
0.0
142
0.0
143
25.399999999999999
144
1.0
145
0.0
146
0.71
147
0.06
 71
     0
 72
     0
 73
     1
 74
     1
 75
     0
 76
     0
 77
     0
 78
     7
170
     0
171
     2
172
     0
173
     0
174
     0
175
     0
176
   256
177
   256
178
     2
  0
DIMSTYLE
  2
AM_ANSI$7
 70
     0
  3

  4
mm
  5

  6

  7

 40
1.0
 41
0.12
 42
0.05
 43
0.5
 44
0.1
 45
0.0
 46
0.0
 47
0.1
 48
0.1
140
0.12
141
0.0
142
0.0
143
25.399999999999999
144
1.0
145
0.0
146
0.71
147
0.06
 71
     0
 72
     0
 73
     1
 74
     1
 75
     0
 76
     0
 77
     0
 78
     7
170
     0
171
     2
172
     0
173
     0
174
     0
175
     0
176
   256
177
   256
178
     2
  0
DIMSTYLE
  2
AM_ANSI$SF
 70
     0
  3

  4
mm
  5

  6

  7

 40
1.0
 41
0.12
 42
0.05
 43
0.5
 44
0.1
 45
0.0
 46
0.0
 47
0.1
 48
0.1
140
0.12
141
0.0
142
0.0
143
25.399999999999999
144
1.0
145
0.0
146
0.71
147
0.06
 71
     0
 72
     0
 73
     1
 74
     1
 75
     1
 76
     1
 77
     0
 78
     7
170
     0
171
     2
172
     0
173
     0
174
     0
175
     0
176
   256
177
   256
178
     2
  0
DIMSTYLE
  2
AM_ANSI$SH
 70
     0
  3

  4
mm
  5

  6

  7

 40
1.0
 41
0.12
 42
0.05
 43
0.5
 44
0.1
 45
0.0
 46
0.0
 47
0.1
 48
0.1
140
0.12
141
0.0
142
0.0
143
25.399999999999999
144
1.0
145
0.0
146
0.71
147
0.06
 71
     0
 72
     0
 73
     1
 74
     1
 75
     1
 76
     1
 77
     0
 78
     7
170
     0
171
     2
172
     0
173
     1
174
     0
175
     0
176
   256
177
   256
178
     2
  0
ENDTAB
  0
ENDSEC
  0
SECTION
  2
BLOCKS
  0
BLOCK
  8
0
  2
$MODEL_SPACE
 70
     0
 10
0.0
 20
0.0
 30
0.0
  3
$MODEL_SPACE
  1

  0
ENDBLK
  5
1071
  8
0
  0
BLOCK
 67
     1
  8
0
  2
$PAPER_SPACE
 70
     0
 10
0.0
 20
0.0
 30
0.0
  3
$PAPER_SPACE
  1

  0
ENDBLK
  5
106D
 67
     1
  8
0
  0
BLOCK
  8
0
  2
_OPEN
 70
     0
 10
0.0
 20
0.0
 30
0.0
  3
_OPEN
  1

  0
LINE
  5
A02
  8
0
  6
BYBLOCK
 62
     0
 10
-1.0
 20
0.1666666666666666
 30
0.0
 11
0.0
 21
0.0
 31
0.0
  0
LINE
  5
A03
  8
0
  6
BYBLOCK
 62
     0
 10
-1.0
 20
-0.1666666666666666
 30
0.0
 11
0.0
 21
0.0
 31
0.0
  0
LINE
  5
A04
  8
0
  6
BYBLOCK
 62
     0
 10
0.0
 20
0.0
 30
0.0
 11
-1.0
 21
0.0
 31
0.0
  0
ENDBLK
  5
A05
  8
0
  0
BLOCK
  8
0
  2
矢印なし
 70
     0
 10
0.0
 20
0.0
 30
0.0
  3
矢印なし
  1

  0
ENDBLK
  5
6E5
  8
0
  0
BLOCK
  8
0
  2
_ACMFILLEDHALF
 70
     0
 10
0.0
 20
0.0
 30
0.0
  3
_ACMFILLEDHALF
  1

  0
TRACE
  5
EE0
  8
245
 62
     0
 10
-0.8
 20
0.0
 30
0.0
 11
-1.0
 21
0.166666666
 31
0.0
 12
0.0
 22
0.0
 32
0.0
 13
0.0
 23
0.0
 33
0.0
  0
LINE
  5
EE1
  8
245
 62
     0
 10
-1.0
 20
0.0
 30
0.0
 11
-0.8
 21
0.0
 31
0.0
  0
ENDBLK
  5
EDF
  8
0
  0
ENDSEC
  0
SECTION
  2
ENTITIES
  0
INSERT
  5
6E6
  8
245
  2
矢印なし
 10
175.62382697000001
 20
90.551235719999994
 30
0.0
  0
TEXT
  5
84B
  8
241
  6
CONTINUOUS
 10
-4.2000000000000002
 20
31.899999999999999
 30
0.0
 40
5.0
  1
ENH1-1
  7
YOKO
 11
-4.2000000000000002
 21
31.899999999999999
 31
0.0
 73
     1
  0
LINE
  5
AAB
  8
240
  6
CONTINUOUS
 10
-1.449391649999999
 20
1.25
 30
0.0
 11
1.449391649999999
 21
1.25
 31
0.0
  0
POLYLINE
  5
D07
  8
240
  6
CONTINUOUS
 66
     1
 10
0.0
 20
0.0
 30
0.0
 70
     8
  0
VERTEX
  5
D08
  8
240
  6
CONTINUOUS
 10
-2.75
 20
3.8999999999999999
 30
0.0
 70
    32
  0
VERTEX
  5
D09
  8
240
  6
CONTINUOUS
 10
-2.7154099999999981
 20
3.8918900000000001
 30
0.0
 70
    32
  0
VERTEX
  5
D0A
  8
240
  6
CONTINUOUS
 10
-2.6808200000000002
 20
3.8837799999999989
 30
0.0
 70
    32
  0
VERTEX
  5
D0B
  8
240
  6
CONTINUOUS
 10
-2.6462300000000001
 20
3.8756699999999991
 30
0.0
 70
    32
  0
VERTEX
  5
D0C
  8
240
  6
CONTINUOUS
 10
-2.6116399999999991
 20
3.8675699999999988
 30
0.0
 70
    32
  0
VERTEX
  5
D0D
  8
240
  6
CONTINUOUS
 10
-2.5770400000000002
 20
3.8594900000000001
 30
0.0
 70
    32
  0
VERTEX
  5
D0E
  8
240
  6
CONTINUOUS
 10
-2.5424500000000001
 20
3.8514099999999991
 30
0.0
 70
    32
  0
VERTEX
  5
D0F
  8
240
  6
CONTINUOUS
 10
-2.5078599999999991
 20
3.84335
 30
0.0
 70
    32
  0
VERTEX
  5
D10
  8
240
  6
CONTINUOUS
 10
-2.4732699999999981
 20
3.8353099999999989
 30
0.0
 70
    32
  0
VERTEX
  5
D11
  8
240
  6
CONTINUOUS
 10
-2.438679999999998
 20
3.8272899999999992
 30
0.0
 70
    32
  0
VERTEX
  5
D12
  8
240
  6
CONTINUOUS
 10
-2.4040900000000001
 20
3.8193000000000001
 30
0.0
 70
    32
  0
VERTEX
  5
D13
  8
240
  6
CONTINUOUS
 10
-2.3694999999999991
 20
3.8113199999999989
 30
0.0
 70
    32
  0
VERTEX
  5
D14
  8
240
  6
CONTINUOUS
 10
-2.334909999999998
 20
3.8033800000000002
 30
0.0
 70
    32
  0
VERTEX
  5
D15
  8
240
  6
CONTINUOUS
 10
-2.3003099999999992
 20
3.795469999999999
 30
0.0
 70
    32
  0
VERTEX
  5
D16
  8
240
  6
CONTINUOUS
 10
-2.2657199999999991
 20
3.7875899999999989
 30
0.0
 70
    32
  0
VERTEX
  5
D17
  8
240
  6
CONTINUOUS
 10
-2.2311299999999981
 20
3.7797499999999991
 30
0.0
 70
    32
  0
VERTEX
  5
D18
  8
240
  6
CONTINUOUS
 10
-2.1965400000000002
 20
3.771939999999999
 30
0.0
 70
    32
  0
VERTEX
  5
D19
  8
240
  6
CONTINUOUS
 10
-2.16195
 20
3.7641800000000001
 30
0.0
 70
    32
  0
VERTEX
  5
D1A
  8
240
  6
CONTINUOUS
 10
-2.127359999999999
 20
3.7564599999999988
 30
0.0
 70
    32
  0
VERTEX
  5
D1B
  8
240
  6
CONTINUOUS
 10
-2.0927699999999989
 20
3.74878
 30
0.0
 70
    32
  0
VERTEX
  5
D1C
  8
240
  6
CONTINUOUS
 10
-2.0581800000000001
 20
3.7411599999999989
 30
0.0
 70
    32
  0
VERTEX
  5
D1D
  8
240
  6
CONTINUOUS
 10
-2.023579999999999
 20
3.7335899999999991
 30
0.0
 70
    32
  0
VERTEX
  5
D1E
  8
240
  6
CONTINUOUS
 10
-1.98899
 20
3.7260699999999991
 30
0.0
 70
    32
  0
VERTEX
  5
D1F
  8
240
  6
CONTINUOUS
 10
-1.9543999999999979
 20
3.718599999999999
 30
0.0
 70
    32
  0
VERTEX
  5
D20
  8
240
  6
CONTINUOUS
 10
-1.919809999999998
 20
3.7111999999999989
 30
0.0
 70
    32
  0
VERTEX
  5
D21
  8
240
  6
CONTINUOUS
 10
-1.885219999999999
 20
3.7038599999999988
 30
0.0
 70
    32
  0
VERTEX
  5
D22
  8
240
  6
CONTINUOUS
 10
-1.8506299999999991
 20
3.69658
 30
0.0
 70
    32
  0
VERTEX
  5
D23
  8
240
  6
CONTINUOUS
 10
-1.8160400000000001
 20
3.6893699999999989
 30
0.0
 70
    32
  0
VERTEX
  5
D24
  8
240
  6
CONTINUOUS
 10
-1.7814499999999991
 20
3.6822199999999992
 30
0.0
 70
    32
  0
VERTEX
  5
D25
  8
240
  6
CONTINUOUS
 10
-1.746859999999999
 20
3.675149999999999
 30
0.0
 70
    32
  0
VERTEX
  5
D26
  8
240
  6
CONTINUOUS
 10
-1.7122599999999979
 20
3.6681599999999981
 30
0.0
 70
    32
  0
VERTEX
  5
D27
  8
240
  6
CONTINUOUS
 10
-1.6776699999999991
 20
3.6612399999999989
 30
0.0
 70
    32
  0
VERTEX
  5
D28
  8
240
  6
CONTINUOUS
 10
-1.643079999999999
 20
3.6543999999999981
 30
0.0
 70
    32
  0
VERTEX
  5
D29
  8
240
  6
CONTINUOUS
 10
-1.6084899999999991
 20
3.6476399999999991
 30
0.0
 70
    32
  0
VERTEX
  5
D2A
  8
240
  6
CONTINUOUS
 10
-1.5739000000000001
 20
3.6409699999999989
 30
0.0
 70
    32
  0
VERTEX
  5
D2B
  8
240
  6
CONTINUOUS
 10
-1.5393099999999991
 20
3.6343800000000002
 30
0.0
 70
    32
  0
VERTEX
  5
D2C
  8
240
  6
CONTINUOUS
 10
-1.5047200000000001
 20
3.6278899999999989
 30
0.0
 70
    32
  0
VERTEX
  5
D2D
  8
240
  6
CONTINUOUS
 10
-1.470129999999999
 20
3.6214900000000001
 30
0.0
 70
    32
  0
VERTEX
  5
D2E
  8
240
  6
CONTINUOUS
 10
-1.4355299999999991
 20
3.6151800000000001
 30
0.0
 70
    32
  0
VERTEX
  5
D2F
  8
240
  6
CONTINUOUS
 10
-1.4009400000000001
 20
3.6089699999999989
 30
0.0
 70
    32
  0
VERTEX
  5
D30
  8
240
  6
CONTINUOUS
 10
-1.3663499999999991
 20
3.602859999999998
 30
0.0
 70
    32
  0
VERTEX
  5
D31
  8
240
  6
CONTINUOUS
 10
-1.3317600000000001
 20
3.5968499999999981
 30
0.0
 70
    32
  0
VERTEX
  5
D32
  8
240
  6
CONTINUOUS
 10
-1.297169999999999
 20
3.5909499999999981
 30
0.0
 70
    32
  0
VERTEX
  5
D33
  8
240
  6
CONTINUOUS
 10
-1.26258
 20
3.5851500000000001
 30
0.0
 70
    32
  0
VERTEX
  5
D34
  8
240
  6
CONTINUOUS
 10
-1.227989999999999
 20
3.5794699999999979
 30
0.0
 70
    32
  0
VERTEX
  5
D35
  8
240
  6
CONTINUOUS
 10
-1.1934
 20
3.5739000000000001
 30
0.0
 70
    32
  0
VERTEX
  5
D36
  8
240
  6
CONTINUOUS
 10
-1.158809999999999
 20
3.5684399999999989
 30
0.0
 70
    32
  0
VERTEX
  5
D37
  8
240
  6
CONTINUOUS
 10
-1.124209999999999
 20
3.5630999999999982
 30
0.0
 70
    32
  0
VERTEX
  5
D38
  8
240
  6
CONTINUOUS
 10
-1.08962
 20
3.5578899999999991
 30
0.0
 70
    32
  0
VERTEX
  5
D39
  8
240
  6
CONTINUOUS
 10
-1.055029999999999
 20
3.552789999999999
 30
0.0
 70
    32
  0
VERTEX
  5
D3A
  8
240
  6
CONTINUOUS
 10
-1.02044
 20
3.5478299999999989
 30
0.0
 70
    32
  0
VERTEX
  5
D3B
  8
240
  6
CONTINUOUS
 10
-0.9858489999999999
 20
3.5429900000000001
 30
0.0
 70
    32
  0
VERTEX
  5
D3C
  8
240
  6
CONTINUOUS
 10
-0.9512579999999999
 20
3.538279999999999
 30
0.0
 70
    32
  0
VERTEX
  5
D3D
  8
240
  6
CONTINUOUS
 10
-0.9166669999999999
 20
3.5337000000000001
 30
0.0
 70
    32
  0
VERTEX
  5
D3E
  8
240
  6
CONTINUOUS
 10
-0.8820750000000001
 20
3.5292599999999981
 30
0.0
 70
    32
  0
VERTEX
  5
D3F
  8
240
  6
CONTINUOUS
 10
-0.847484
 20
3.5249599999999992
 30
0.0
 70
    32
  0
VERTEX
  5
D40
  8
240
  6
CONTINUOUS
 10
-0.812893
 20
3.5208099999999991
 30
0.0
 70
    32
  0
VERTEX
  5
D41
  8
240
  6
CONTINUOUS
 10
-0.7783020000000001
 20
3.516789999999999
 30
0.0
 70
    32
  0
VERTEX
  5
D42
  8
240
  6
CONTINUOUS
 10
-0.7437110000000002
 20
3.512919999999998
 30
0.0
 70
    32
  0
VERTEX
  5
D43
  8
240
  6
CONTINUOUS
 10
-0.7091190000000001
 20
3.5091999999999981
 30
0.0
 70
    32
  0
VERTEX
  5
D44
  8
240
  6
CONTINUOUS
 10
-0.6745280000000001
 20
3.50563
 30
0.0
 70
    32
  0
VERTEX
  5
D45
  8
240
  6
CONTINUOUS
 10
-0.639937
 20
3.502219999999999
 30
0.0
 70
    32
  0
VERTEX
  5
D46
  8
240
  6
CONTINUOUS
 10
-0.6053460000000001
 20
3.4989599999999981
 30
0.0
 70
    32
  0
VERTEX
  5
D47
  8
240
  6
CONTINUOUS
 10
-0.5707550000000002
 20
3.4958599999999991
 30
0.0
 70
    32
  0
VERTEX
  5
D48
  8
240
  6
CONTINUOUS
 10
-0.5361640000000003
 20
3.492919999999998
 30
0.0
 70
    32
  0
VERTEX
  5
D49
  8
240
  6
CONTINUOUS
 10
-0.501572
 20
3.4901499999999981
 30
0.0
 70
    32
  0
VERTEX
  5
D4A
  8
240
  6
CONTINUOUS
 10
-0.466981
 20
3.4875500000000001
 30
0.0
 70
    32
  0
VERTEX
  5
D4B
  8
240
  6
CONTINUOUS
 10
-0.43239
 20
3.4851099999999979
 30
0.0
 70
    32
  0
VERTEX
  5
D4C
  8
240
  6
CONTINUOUS
 10
-0.397799
 20
3.48285
 30
0.0
 70
    32
  0
VERTEX
  5
D4D
  8
240
  6
CONTINUOUS
 10
-0.363208
 20
3.4807600000000001
 30
0.0
 70
    32
  0
VERTEX
  5
D4E
  8
240
  6
CONTINUOUS
 10
-0.328616
 20
3.4788399999999982
 30
0.0
 70
    32
  0
VERTEX
  5
D4F
  8
240
  6
CONTINUOUS
 10
-0.294025
 20
3.4771099999999979
 30
0.0
 70
    32
  0
VERTEX
  5
D50
  8
240
  6
CONTINUOUS
 10
-0.259434
 20
3.475559999999998
 30
0.0
 70
    32
  0
VERTEX
  5
D51
  8
240
  6
CONTINUOUS
 10
-0.224843
 20
3.4741900000000001
 30
0.0
 70
    32
  0
VERTEX
  5
D52
  8
240
  6
CONTINUOUS
 10
-0.190252
 20
3.4730199999999991
 30
0.0
 70
    32
  0
VERTEX
  5
D53
  8
240
  6
CONTINUOUS
 10
-0.15566
 20
3.4720300000000002
 30
0.0
 70
    32
  0
VERTEX
  5
D54
  8
240
  6
CONTINUOUS
 10
-0.121069
 20
3.4712299999999989
 30
0.0
 70
    32
  0
VERTEX
  5
D55
  8
240
  6
CONTINUOUS
 10
-0.086478
 20
3.470629999999999
 30
0.0
 70
    32
  0
VERTEX
  5
D56
  8
240
  6
CONTINUOUS
 10
-0.0518868
 20
3.470229999999999
 30
0.0
 70
    32
  0
VERTEX
  5
D57
  8
240
  6
CONTINUOUS
 10
-0.0172956
 20
3.4700299999999991
 30
0.0
 70
    32
  0
VERTEX
  5
D58
  8
240
  6
CONTINUOUS
 10
0.0172956
 20
3.4700299999999991
 30
0.0
 70
    32
  0
VERTEX
  5
D59
  8
240
  6
CONTINUOUS
 10
0.0518868
 20
3.470229999999999
 30
0.0
 70
    32
  0
VERTEX
  5
D5A
  8
240
  6
CONTINUOUS
 10
0.086478
 20
3.470629999999999
 30
0.0
 70
    32
  0
VERTEX
  5
D5B
  8
240
  6
CONTINUOUS
 10
0.121069
 20
3.4712299999999989
 30
0.0
 70
    32
  0
VERTEX
  5
D5C
  8
240
  6
CONTINUOUS
 10
0.15566
 20
3.4720300000000002
 30
0.0
 70
    32
  0
VERTEX
  5
D5D
  8
240
  6
CONTINUOUS
 10
0.190252
 20
3.4730199999999991
 30
0.0
 70
    32
  0
VERTEX
  5
D5E
  8
240
  6
CONTINUOUS
 10
0.224843
 20
3.4741900000000001
 30
0.0
 70
    32
  0
VERTEX
  5
D5F
  8
240
  6
CONTINUOUS
 10
0.259434
 20
3.475559999999998
 30
0.0
 70
    32
  0
VERTEX
  5
D60
  8
240
  6
CONTINUOUS
 10
0.294025
 20
3.4771099999999979
 30
0.0
 70
    32
  0
VERTEX
  5
D61
  8
240
  6
CONTINUOUS
 10
0.328616
 20
3.4788399999999982
 30
0.0
 70
    32
  0
VERTEX
  5
D62
  8
240
  6
CONTINUOUS
 10
0.363208
 20
3.4807600000000001
 30
0.0
 70
    32
  0
VERTEX
  5
D63
  8
240
  6
CONTINUOUS
 10
0.397799
 20
3.48285
 30
0.0
 70
    32
  0
VERTEX
  5
D64
  8
240
  6
CONTINUOUS
 10
0.43239
 20
3.4851099999999979
 30
0.0
 70
    32
  0
VERTEX
  5
D65
  8
240
  6
CONTINUOUS
 10
0.466981
 20
3.4875500000000001
 30
0.0
 70
    32
  0
VERTEX
  5
D66
  8
240
  6
CONTINUOUS
 10
0.501572
 20
3.4901499999999981
 30
0.0
 70
    32
  0
VERTEX
  5
D67
  8
240
  6
CONTINUOUS
 10
0.5361640000000003
 20
3.492919999999998
 30
0.0
 70
    32
  0
VERTEX
  5
D68
  8
240
  6
CONTINUOUS
 10
0.5707550000000002
 20
3.4958599999999991
 30
0.0
 70
    32
  0
VERTEX
  5
D69
  8
240
  6
CONTINUOUS
 10
0.6053460000000001
 20
3.4989599999999981
 30
0.0
 70
    32
  0
VERTEX
  5
D6A
  8
240
  6
CONTINUOUS
 10
0.639937
 20
3.502219999999999
 30
0.0
 70
    32
  0
VERTEX
  5
D6B
  8
240
  6
CONTINUOUS
 10
0.6745280000000001
 20
3.50563
 30
0.0
 70
    32
  0
VERTEX
  5
D6C
  8
240
  6
CONTINUOUS
 10
0.7091190000000001
 20
3.5091999999999981
 30
0.0
 70
    32
  0
VERTEX
  5
D6D
  8
240
  6
CONTINUOUS
 10
0.7437110000000002
 20
3.512919999999998
 30
0.0
 70
    32
  0
VERTEX
  5
D6E
  8
240
  6
CONTINUOUS
 10
0.7783020000000001
 20
3.516789999999999
 30
0.0
 70
    32
  0
VERTEX
  5
D6F
  8
240
  6
CONTINUOUS
 10
0.812893
 20
3.5208099999999991
 30
0.0
 70
    32
  0
VERTEX
  5
D70
  8
240
  6
CONTINUOUS
 10
0.847484
 20
3.5249599999999992
 30
0.0
 70
    32
  0
VERTEX
  5
D71
  8
240
  6
CONTINUOUS
 10
0.8820750000000001
 20
3.5292599999999981
 30
0.0
 70
    32
  0
VERTEX
  5
D72
  8
240
  6
CONTINUOUS
 10
0.9166669999999999
 20
3.5337000000000001
 30
0.0
 70
    32
  0
VERTEX
  5
D73
  8
240
  6
CONTINUOUS
 10
0.9512579999999999
 20
3.538279999999999
 30
0.0
 70
    32
  0
VERTEX
  5
D74
  8
240
  6
CONTINUOUS
 10
0.9858489999999999
 20
3.5429900000000001
 30
0.0
 70
    32
  0
VERTEX
  5
D75
  8
240
  6
CONTINUOUS
 10
1.02044
 20
3.5478299999999989
 30
0.0
 70
    32
  0
VERTEX
  5
D76
  8
240
  6
CONTINUOUS
 10
1.055029999999999
 20
3.552789999999999
 30
0.0
 70
    32
  0
VERTEX
  5
D77
  8
240
  6
CONTINUOUS
 10
1.08962
 20
3.5578899999999991
 30
0.0
 70
    32
  0
VERTEX
  5
D78
  8
240
  6
CONTINUOUS
 10
1.124209999999999
 20
3.5630999999999982
 30
0.0
 70
    32
  0
VERTEX
  5
D79
  8
240
  6
CONTINUOUS
 10
1.158809999999999
 20
3.5684399999999989
 30
0.0
 70
    32
  0
VERTEX
  5
D7A
  8
240
  6
CONTINUOUS
 10
1.1934
 20
3.5739000000000001
 30
0.0
 70
    32
  0
VERTEX
  5
D7B
  8
240
  6
CONTINUOUS
 10
1.227989999999999
 20
3.5794699999999979
 30
0.0
 70
    32
  0
VERTEX
  5
D7C
  8
240
  6
CONTINUOUS
 10
1.26258
 20
3.5851500000000001
 30
0.0
 70
    32
  0
VERTEX
  5
D7D
  8
240
  6
CONTINUOUS
 10
1.297169999999999
 20
3.5909499999999981
 30
0.0
 70
    32
  0
VERTEX
  5
D7E
  8
240
  6
CONTINUOUS
 10
1.3317600000000001
 20
3.5968499999999981
 30
0.0
 70
    32
  0
VERTEX
  5
D7F
  8
240
  6
CONTINUOUS
 10
1.3663499999999991
 20
3.602859999999998
 30
0.0
 70
    32
  0
VERTEX
  5
D80
  8
240
  6
CONTINUOUS
 10
1.4009400000000001
 20
3.6089699999999989
 30
0.0
 70
    32
  0
VERTEX
  5
D81
  8
240
  6
CONTINUOUS
 10
1.4355299999999991
 20
3.6151800000000001
 30
0.0
 70
    32
  0
VERTEX
  5
D82
  8
240
  6
CONTINUOUS
 10
1.470129999999999
 20
3.6214900000000001
 30
0.0
 70
    32
  0
VERTEX
  5
D83
  8
240
  6
CONTINUOUS
 10
1.5047200000000001
 20
3.6278899999999989
 30
0.0
 70
    32
  0
VERTEX
  5
D84
  8
240
  6
CONTINUOUS
 10
1.5393099999999991
 20
3.6343800000000002
 30
0.0
 70
    32
  0
VERTEX
  5
D85
  8
240
  6
CONTINUOUS
 10
1.5739000000000001
 20
3.6409699999999989
 30
0.0
 70
    32
  0
VERTEX
  5
D86
  8
240
  6
CONTINUOUS
 10
1.6084899999999991
 20
3.6476399999999991
 30
0.0
 70
    32
  0
VERTEX
  5
D87
  8
240
  6
CONTINUOUS
 10
1.643079999999999
 20
3.6543999999999981
 30
0.0
 70
    32
  0
VERTEX
  5
D88
  8
240
  6
CONTINUOUS
 10
1.6776699999999991
 20
3.6612399999999989
 30
0.0
 70
    32
  0
VERTEX
  5
D89
  8
240
  6
CONTINUOUS
 10
1.7122599999999979
 20
3.6681599999999981
 30
0.0
 70
    32
  0
VERTEX
  5
D8A
  8
240
  6
CONTINUOUS
 10
1.746859999999999
 20
3.675149999999999
 30
0.0
 70
    32
  0
VERTEX
  5
D8B
  8
240
  6
CONTINUOUS
 10
1.7814499999999991
 20
3.6822199999999992
 30
0.0
 70
    32
  0
VERTEX
  5
D8C
  8
240
  6
CONTINUOUS
 10
1.8160400000000001
 20
3.6893699999999989
 30
0.0
 70
    32
  0
VERTEX
  5
D8D
  8
240
  6
CONTINUOUS
 10
1.8506299999999991
 20
3.69658
 30
0.0
 70
    32
  0
VERTEX
  5
D8E
  8
240
  6
CONTINUOUS
 10
1.885219999999999
 20
3.7038599999999988
 30
0.0
 70
    32
  0
VERTEX
  5
D8F
  8
240
  6
CONTINUOUS
 10
1.919809999999998
 20
3.7111999999999989
 30
0.0
 70
    32
  0
VERTEX
  5
D90
  8
240
  6
CONTINUOUS
 10
1.9543999999999979
 20
3.718599999999999
 30
0.0
 70
    32
  0
VERTEX
  5
D91
  8
240
  6
CONTINUOUS
 10
1.98899
 20
3.7260699999999991
 30
0.0
 70
    32
  0
VERTEX
  5
D92
  8
240
  6
CONTINUOUS
 10
2.023579999999999
 20
3.7335899999999991
 30
0.0
 70
    32
  0
VERTEX
  5
D93
  8
240
  6
CONTINUOUS
 10
2.0581800000000001
 20
3.7411599999999989
 30
0.0
 70
    32
  0
VERTEX
  5
D94
  8
240
  6
CONTINUOUS
 10
2.0927699999999989
 20
3.74878
 30
0.0
 70
    32
  0
VERTEX
  5
D95
  8
240
  6
CONTINUOUS
 10
2.127359999999999
 20
3.7564599999999988
 30
0.0
 70
    32
  0
VERTEX
  5
D96
  8
240
  6
CONTINUOUS
 10
2.16195
 20
3.7641800000000001
 30
0.0
 70
    32
  0
VERTEX
  5
D97
  8
240
  6
CONTINUOUS
 10
2.1965400000000002
 20
3.771939999999999
 30
0.0
 70
    32
  0
VERTEX
  5
D98
  8
240
  6
CONTINUOUS
 10
2.2311299999999981
 20
3.7797499999999991
 30
0.0
 70
    32
  0
VERTEX
  5
D99
  8
240
  6
CONTINUOUS
 10
2.2657199999999991
 20
3.7875899999999989
 30
0.0
 70
    32
  0
VERTEX
  5
D9A
  8
240
  6
CONTINUOUS
 10
2.3003099999999992
 20
3.795469999999999
 30
0.0
 70
    32
  0
VERTEX
  5
D9B
  8
240
  6
CONTINUOUS
 10
2.334909999999998
 20
3.8033800000000002
 30
0.0
 70
    32
  0
VERTEX
  5
D9C
  8
240
  6
CONTINUOUS
 10
2.3694999999999991
 20
3.8113199999999989
 30
0.0
 70
    32
  0
VERTEX
  5
D9D
  8
240
  6
CONTINUOUS
 10
2.4040900000000001
 20
3.8193000000000001
 30
0.0
 70
    32
  0
VERTEX
  5
D9E
  8
240
  6
CONTINUOUS
 10
2.438679999999998
 20
3.8272899999999992
 30
0.0
 70
    32
  0
VERTEX
  5
D9F
  8
240
  6
CONTINUOUS
 10
2.4732699999999981
 20
3.8353099999999989
 30
0.0
 70
    32
  0
VERTEX
  5
DA0
  8
240
  6
CONTINUOUS
 10
2.5078599999999991
 20
3.84335
 30
0.0
 70
    32
  0
VERTEX
  5
DA1
  8
240
  6
CONTINUOUS
 10
2.5424500000000001
 20
3.8514099999999991
 30
0.0
 70
    32
  0
VERTEX
  5
DA2
  8
240
  6
CONTINUOUS
 10
2.5770400000000002
 20
3.8594900000000001
 30
0.0
 70
    32
  0
VERTEX
  5
DA3
  8
240
  6
CONTINUOUS
 10
2.6116399999999991
 20
3.8675699999999988
 30
0.0
 70
    32
  0
VERTEX
  5
DA4
  8
240
  6
CONTINUOUS
 10
2.6462300000000001
 20
3.8756699999999991
 30
0.0
 70
    32
  0
VERTEX
  5
DA5
  8
240
  6
CONTINUOUS
 10
2.6808200000000002
 20
3.8837799999999989
 30
0.0
 70
    32
  0
VERTEX
  5
DA6
  8
240
  6
CONTINUOUS
 10
2.7154099999999981
 20
3.8918900000000001
 30
0.0
 70
    32
  0
VERTEX
  5
DA7
  8
240
  6
CONTINUOUS
 10
2.75
 20
3.8999999999999999
 30
0.0
 70
    32
  0
SEQEND
  5
DA8
  8
240
  6
CONTINUOUS
  0
LINE
  5
AAD
  8
240
  6
CONTINUOUS
 10
-1.449391649999999
 20
0.0
 30
0.0
 11
-1.449391649999999
 21
1.25
 31
0.0
  0
ARC
  5
AAE
  8
240
  6
CONTINUOUS
 10
-3.199999999999998
 20
2.8999999999999999
 30
0.0
 40
1.0
 50
90.0
 51
180.0
  0
LINE
  5
AAF
  8
240
  6
CONTINUOUS
 10
-3.199999999999998
 20
3.8999999999999999
 30
0.0
 11
-2.7499999999999991
 21
3.8999999999999999
 31
0.0
  0
LINE
  5
AB0
  8
240
  6
CONTINUOUS
 10
-4.2000000000000002
 20
0.0
 30
0.0
 11
-4.2000000000000002
 21
2.8999999999999999
 31
0.0
  0
LINE
  5
AB1
  8
240
  6
CONTINUOUS
 10
-4.2000000000000002
 20
0.0
 30
0.0
 11
-1.449391649999999
 21
0.0
 31
0.0
  0
LINE
  5
AB2
  8
241
  6
CONTINUOUS
 10
4.2805509400000004
 20
1.199782399999999
 30
0.0
 11
10.29907085
 21
4.2663714600000002
 31
0.0
1001
GRPNAME
1000
PASTMD01
  0
LINE
  5
AB3
  8
240
  6
CONTINUOUS
 10
9.8624296499999993
 20
-3.10728048
 30
0.0
 11
4.599999999999997
 21
-0.6533692300000005
 31
0.0
  0
LINE
  5
AB4
  8
241
  6
CONTINUOUS
 10
4.2623810522040042
 20
0.8538730769663676
 30
0.0
 11
10.32756833
 21
-3.084905599999999
 31
0.0
1001
GRPNAME
1000
PASTMD01
  0
LINE
  5
AB5
  8
240
  6
CONTINUOUS
 10
4.8345739899999991
 20
4.2663714600000002
 30
0.0
 11
10.29907085
 21
4.2663714600000002
 31
0.0
1001
GRPNAME
1000
PASTMD01
  0
LINE
  5
AB6
  8
245
  6
CENTER2
 10
0.0000000000000002
 20
4.9000000000000004
 30
0.0
 11
0.0000000000000002
 21
-1.0
 31
0.0
  0
LINE
  5
AB7
  8
240
  6
CONTINUOUS
 10
2.75
 20
3.8999999999999999
 30
0.0
 11
4.2000000000000002
 21
3.8999999999999999
 31
0.0
  0
LINE
  5
AB8
  8
240
  6
CONTINUOUS
 10
4.599999999999997
 20
0.0
 30
0.0
 11
1.449391649999999
 21
0.0
 31
0.0
  0
LINE
  5
AB9
  8
240
  6
CONTINUOUS
 10
1.449391649999999
 20
0.0
 30
0.0
 11
1.449391649999999
 21
1.25
 31
0.0
  0
LINE
  5
ABA
  8
240
  6
CONTINUOUS
 10
4.2000000000000002
 20
3.8999999999999999
 30
0.0
 11
4.8345739899999991
 21
4.2663714600000002
 31
0.0
  0
ARC
  5
ABB
  8
241
  6
CONTINUOUS
 10
3.2000000000000002
 20
2.8999999999999999
 30
0.0
 40
1.0000000000000071
 50
0.0
 51
90.0
  0
LINE
  5
ABC
  8
240
  6
CONTINUOUS
 10
4.599999999999997
 20
-0.6533692300000005
 30
0.0
 11
4.599999999999997
 21
0.0
 31
0.0
  0
LINE
  5
ABD
  8
241
  6
CONTINUOUS
 10
4.2000000000000002
 20
0.0
 30
0.0
 11
4.2000000000000011
 21
0.9184331065438207
 31
0.0
  0
ARC
  5
ABE
  8
241
  6
CONTINUOUS
 10
4.3713490400000001
 20
1.0215810899999991
 30
0.0
 40
0.1999999999999927
 50
117.00000006
 51
237.00000005999999
1001
GRPNAME
1000
PASTMD01
  0
LINE
  5
AC1
  8
240
  6
CONTINUOUS
 10
11.299725909999999
 20
4.4395328100000002
 30
0.0
 11
10.904498289999999
 21
-3.10185931
 31
0.0
1001
GRPNAME
1000
PASTMD01
  0
ARC
  5
AC2
  8
240
  6
CONTINUOUS
 10
10.073738779999999
 20
-2.6541265900000002
 30
0.0
 40
0.4999999999999939
 50
244.99999999999989
 51
300.50801137000002
  0
LINE
  5
AC3
  8
240
  6
CONTINUOUS
 10
10.59584458
 20
-3.2591262400000001
 30
0.0
 11
10.32756833
 21
-3.084905599999999
 31
0.0
1001
GRPNAME
1000
PASTMD01
  0
ARC
  5
AC4
  8
240
  6
CONTINUOUS
 10
10.70477239
 20
-3.0913921200000001
 30
0.0
 40
0.1999999999999987
 50
236.99999998000001
 51
356.99999997999998
1001
GRPNAME
1000
PASTMD01
  0
LINE
  5
AC6
  8
240
  6
CONTINUOUS
 10
11.009201900000001
 20
4.6282012999999971
 30
0.0
 11
10.29907085
 21
4.2663714600000002
 31
0.0
1001
GRPNAME
1000
PASTMD01
  0
ARC
  5
AC7
  8
240
  6
CONTINUOUS
 10
11.1
 20
4.4500000000000002
 30
0.0
 40
0.1999999999999948
 50
356.99999991999982
 51
116.99999991999999
1001
GRPNAME
1000
PASTMD01
  0
LINE
  5
AC9
  8
241
  6
CONTINUOUS
 10
4.2000000000000011
 20
1.124729073456179
 30
0.0
 11
4.2000000000000073
 21
2.8999999999999999
 31
0.0
  0
CIRCLE
  5
AEE
  8
246
  6
PHANTOM2
 10
8.7253738088502661
 20
0.7933963250467218
 30
0.0
 40
2.3799999983935152
  0
LINE
  5
C42
  8
250
  6
CONTINUOUS
 10
0.0000000000000003
 20
5.4000000000000004
 30
0.0
 11
0.0000000000000007
 21
11.9
 31
0.0
  0
LINE
  5
C43
  8
250
  6
CONTINUOUS
 10
11.299725909999999
 20
4.9395328100000002
 30
0.0
 11
11.299725909999999
 21
11.9
 31
0.0
  0
LINE
  5
C44
  8
250
  6
CONTINUOUS
 10
2.2299999999999991
 20
10.9
 30
0.0
 11
9.0697259099999972
 21
10.9
 31
0.0
  0
TEXT
  5
C56
  8
250
  6
CONTINUOUS
 10
0.7831962883333336
 20
11.9
 30
0.0
 40
2.799999999999998
  1
11.3
  0
LINE
  5
C57
  8
250
  6
CONTINUOUS
 10
9.0697259099999972
 20
11.271666666666659
 30
0.0
 11
11.299725909999999
 21
10.9
 31
0.0
  0
LINE
  5
C58
  8
250
  6
CONTINUOUS
 10
9.0697259099999972
 20
10.528333333333331
 30
0.0
 11
11.299725909999999
 21
10.9
 31
0.0
  0
LINE
  5
C59
  8
250
  6
CONTINUOUS
 10
11.299725909999999
 20
10.9
 30
0.0
 11
9.0697259099999972
 21
10.9
 31
0.0
  0
LINE
  5
C5A
  8
250
  6
CONTINUOUS
 10
2.2299999999999991
 20
10.528333333333331
 30
0.0
 11
0.0000000000000006
 21
10.9
 31
0.0
  0
LINE
  5
C5B
  8
250
  6
CONTINUOUS
 10
2.2299999999999991
 20
11.271666666666659
 30
0.0
 11
0.0000000000000006
 21
10.9
 31
0.0
  0
LINE
  5
C5C
  8
250
  6
CONTINUOUS
 10
0.0000000000000006
 20
10.9
 30
0.0
 11
2.2299999999999991
 21
10.9
 31
0.0
  0
LINE
  5
F3E
  8
250
  6
CONTINUOUS
 10
5.099999999999997
 20
-0.0000000000000001
 30
0.0
 11
22.0
 21
-0.0000000000000049
 31
0.0
  0
LINE
  5
F3F
  8
250
  6
CONTINUOUS
 10
11.6
 20
4.649999999999995
 30
0.0
 11
22.0
 21
4.6499999999999906
 31
0.0
  0
LINE
  5
F40
  8
250
  6
CONTINUOUS
 10
21.0
 20
-2.2300000000000031
 30
0.0
 11
21.0
 21
-4.4600000000000009
 31
0.0
  0
LINE
  5
F41
  8
250
  6
CONTINUOUS
 10
21.0
 20
6.879999999999991
 30
0.0
 11
21.0
 21
9.1099999999999905
 31
0.0
  0
LINE
  5
F42
  8
250
  6
CONTINUOUS
 10
21.0
 20
-0.0000000000000046
 30
0.0
 11
21.0
 21
4.6499999999999924
 31
0.0
  0
TEXT
  5
F48
  8
250
  6
CONTINUOUS
 10
20.0
 20
-2.3416666666666659
 30
0.0
 40
2.799999999999998
  1
4.65
 50
90.0
  0
LINE
  5
F49
  8
250
  6
CONTINUOUS
 10
21.37166666666667
 20
6.879999999999991
 30
0.0
 11
21.0
 21
4.6499999999999924
 31
0.0
  0
LINE
  5
F4A
  8
250
  6
CONTINUOUS
 10
20.62833333333333
 20
6.879999999999991
 30
0.0
 11
21.0
 21
4.6499999999999924
 31
0.0
  0
LINE
  5
F4B
  8
250
  6
CONTINUOUS
 10
21.0
 20
4.6499999999999924
 30
0.0
 11
21.0
 21
6.879999999999991
 31
0.0
  0
LINE
  5
F4C
  8
250
  6
CONTINUOUS
 10
20.62833333333333
 20
-2.2300000000000031
 30
0.0
 11
21.0
 21
-0.0000000000000046
 31
0.0
  0
LINE
  5
F4D
  8
250
  6
CONTINUOUS
 10
21.37166666666667
 20
-2.2300000000000031
 30
0.0
 11
21.0
 21
-0.0000000000000046
 31
0.0
  0
LINE
  5
F4E
  8
250
  6
CONTINUOUS
 10
21.0
 20
-0.0000000000000046
 30
0.0
 11
21.0
 21
-2.2300000000000031
 31
0.0
  0
LINE
  5
FA0
  8
250
  6
CONTINUOUS
 10
29.053841065677371
 20
11.95972498350153
 30
0.0
 11
16.234770305619449
 21
11.95972498350153
 31
0.0
  0
LINE
  5
FA1
  8
250
  6
CONTINUOUS
 10
16.234770305619449
 20
11.95972498350153
 30
0.0
 11
11.98393356261354
 21
6.2374091243432801
 31
0.0
  0
LINE
  5
FA2
  8
250
  6
CONTINUOUS
 10
11.98393356261354
 20
6.2374091243432801
 30
0.0
 11
10.654136375
 21
4.4472863799999969
 31
0.0
  0
LINE
  5
FA3
  8
250
  6
CONTINUOUS
 10
11.74825943338425
 20
6.4124802445961802
 30
0.0
 11
10.654136375
 21
4.4472863799999969
 31
0.0
  0
LINE
  5
FA4
  8
250
  6
CONTINUOUS
 10
10.654136375
 20
4.4472863799999969
 30
0.0
 11
12.21960769184283
 21
6.0623380040903792
 31
0.0
  0
TEXT
  5
FA5
  8
250
  6
CONTINUOUS
 10
16.3871743990107
 20
13.35972498350154
 30
0.0
 40
2.799999999999998
  1
TP08
  7
ACJISTS
  0
VIEWPORT
  5
22
 67
     1
  8
0
 10
261.51769911999997
 20
148.5
 30
0.0
 40
523.03539823000006
 41
297.0
 68
     1
 69
     1
1001
ACAD
1000
MVIEW
1002
{
1070
    16
1010
0.0
1020
0.0
1030
0.0
1010
0.0
1020
0.0
1030
1.0
1040
0.0
1040
297.0
1040
261.51769911999997
1040
148.5
1040
50.0
1040
0.0
1040
0.0
1070
     0
1070
   100
1070
     1
1070
     1
1070
     0
1070
     0
1070
     0
1070
     0
1040
0.0
1040
0.0
1040
0.0
1040
1.0
1040
1.0
1040
10.0
1040
10.0
1070
     0
1002
{
1002
}
1002
}
1001
GENIUS_GENOBJ-N-SDF_13
1002
{
1000
OWNER
1000
GEN
1002
}
1001
GENIUS_GENODEF_13
1002
{
1000
HIER
1070
     0
1002
}
1002
{
1000
MANEDIT
1070
     0
1002
}
1002
{
1000
NOSEL
1070
     0
1002
}
1002
{
1000
BEHIND
1070
     0
1002
}
1002
{
1000
OTHER
1070
     0
1002
}
1002
{
1000
REACTOR
1002
}
1001
GENIUS_GENSCREG_15
1000
PF
1040
1.0
1000
DF
1040
1.0
1000
MIN
1011
0.0000000049999471
1021
0.0
1031
0.0
1021
0.0
1031
0.0
1000
MAX
1011
523.035398235
1021
0.0
1031
0.0
1021
297.0
1031
0.0
1000
FLAGS
1070
     4
  0
ENDSEC
  0
EOF
