ISO-10303-21;
HEADER;
FILE_DESCRIPTION((''),'1');
FILE_NAME('U:/Translate/11_3D_Field/02_Step_Field/21_CK\X2\30DC30FC30EA30F330B030B730B930C630E0\X0\/24_\X2\FF92FF76FF9EFF7CFF9DFF78FF9BFF80FF6FFF8BFF9FFF9DFF78FF9EFF8EFF99FF80FF9E\X0\/CK7-MGT36-137.stp','2013-04-09T07:45:43',(''),(''),'Spatial Interop R18','Kubotek KeyCreator V8.5.1 (14335)',' ');
FILE_SCHEMA(('CONFIG_CONTROL_DESIGN'));
ENDSEC;
DATA;
#1=DESIGN_CONTEXT('',#27,'design');
#2=APPLICATION_PROTOCOL_DEFINITION('INTERNATIONAL STANDARD','config_control_design',1994,#27);
#3=PRODUCT_CATEGORY_RELATIONSHIP('NONE','NONE',#28,#29);
#4=DATE_AND_TIME(#30,#31);
#5=DATE_TIME_ROLE('creation_date');
#6=DATE_TIME_ROLE('classification_date');
#7=PERSON_AND_ORGANIZATION_ROLE('creator');
#8=PERSON_AND_ORGANIZATION_ROLE('design_supplier');
#9=PERSON_AND_ORGANIZATION_ROLE('classification_officer');
#10=PERSON_AND_ORGANIZATION_ROLE('design_owner');
#11=APPROVAL_PERSON_ORGANIZATION(#32,#33,#34);
#12=APPROVAL_DATE_TIME(#4,#33);
#13=CC_DESIGN_APPROVAL(#33,(#35,#36,#37));
#14=CC_DESIGN_DATE_AND_TIME_ASSIGNMENT(#4,#5,(#37));
#15=CC_DESIGN_DATE_AND_TIME_ASSIGNMENT(#4,#6,(#35));
#16=CC_DESIGN_PERSON_AND_ORGANIZATION_ASSIGNMENT(#32,#10,(#38));
#17=CC_DESIGN_PERSON_AND_ORGANIZATION_ASSIGNMENT(#32,#7,(#37));
#18=CC_DESIGN_PERSON_AND_ORGANIZATION_ASSIGNMENT(#32,#7,(#36));
#19=CC_DESIGN_PERSON_AND_ORGANIZATION_ASSIGNMENT(#32,#8,(#36));
#20=CC_DESIGN_SECURITY_CLASSIFICATION(#35,(#36));
#21=CC_DESIGN_PERSON_AND_ORGANIZATION_ASSIGNMENT(#32,#9,(#35));
#22=SHAPE_DEFINITION_REPRESENTATION(#39,#40);
#23= (GEOMETRIC_REPRESENTATION_CONTEXT(3)GLOBAL_UNCERTAINTY_ASSIGNED_CONTEXT((#43))GLOBAL_UNIT_ASSIGNED_CONTEXT((#45,#46,#47))REPRESENTATION_CONTEXT('NONE','WORKSPACE'));
#27=APPLICATION_CONTEXT('CONFIGURATION CONTROLLED 3D DESIGNS OF MECHANICAL PARTS AND ASSEMBLIES');
#28=PRODUCT_CATEGORY('part','NONE');
#29=PRODUCT_RELATED_PRODUCT_CATEGORY('detail',' ',(#38));
#30=CALENDAR_DATE(2013,9,3);
#31=LOCAL_TIME(16,45,43.0,#49);
#32=PERSON_AND_ORGANIZATION(#50,#51);
#33=APPROVAL(#52,'SOLID MODEL');
#34=APPROVAL_ROLE('APPROVED');
#35=SECURITY_CLASSIFICATION('','',#53);
#36=PRODUCT_DEFINITION_FORMATION_WITH_SPECIFIED_SOURCE(' ','NONE',#38,.NOT_KNOWN.);
#37=PRODUCT_DEFINITION('NONE','NONE',#36,#1);
#38=PRODUCT('1','1','PART-1-DESC',(#54));
#39=PRODUCT_DEFINITION_SHAPE('NONE','NONE',#37);
#40=ADVANCED_BREP_SHAPE_REPRESENTATION('1',(#55,#56),#23);
#43=UNCERTAINTY_MEASURE_WITH_UNIT(LENGTH_MEASURE(1.0E-006),#45,'','');
#45= (CONVERSION_BASED_UNIT('MILLIMETRE',#59)LENGTH_UNIT()NAMED_UNIT(#62));
#46= (NAMED_UNIT(#64)PLANE_ANGLE_UNIT()SI_UNIT($,.RADIAN.));
#47= (NAMED_UNIT(#64)SOLID_ANGLE_UNIT()SI_UNIT($,.STERADIAN.));
#49=COORDINATED_UNIVERSAL_TIME_OFFSET(9,0,.AHEAD.);
#50=PERSON('','UNSPECIFIED',$,$,$,$);
#51=ORGANIZATION('UNSPECIFIED','UNSPECIFIED','UNSPECIFIED');
#52=APPROVAL_STATUS('approved');
#53=SECURITY_CLASSIFICATION_LEVEL('unclassified');
#54=MECHANICAL_CONTEXT('',#27,'mechanical');
#55=MANIFOLD_SOLID_BREP('1',#70);
#56=AXIS2_PLACEMENT_3D('',#71,#72,#73);
#59=LENGTH_MEASURE_WITH_UNIT(LENGTH_MEASURE(1.0),#74);
#62=DIMENSIONAL_EXPONENTS(1.0,0.0,0.0,0.0,0.0,0.0,0.0);
#64=DIMENSIONAL_EXPONENTS(0.0,0.0,0.0,0.0,0.0,0.0,0.0);
#70=CLOSED_SHELL('',(#75,#76,#77,#78,#79,#80,#81,#82,#83,#84));
#71=CARTESIAN_POINT('',(0.0,0.0,0.0));
#72=DIRECTION('',(0.0,0.0,1.0));
#73=DIRECTION('',(1.0,0.0,0.0));
#74= (NAMED_UNIT(#62)LENGTH_UNIT()SI_UNIT(.MILLI.,.METRE.));
#75=ADVANCED_FACE('',(#86),#87,.T.);
#76=ADVANCED_FACE('',(#88,#89),#90,.T.);
#77=ADVANCED_FACE('',(#91,#92),#93,.T.);
#78=ADVANCED_FACE('',(#94,#95),#96,.T.);
#79=ADVANCED_FACE('',(#97,#98),#99,.T.);
#80=ADVANCED_FACE('',(#100,#101),#102,.T.);
#81=ADVANCED_FACE('',(#103,#104),#105,.T.);
#82=ADVANCED_FACE('',(#106,#107),#108,.T.);
#83=ADVANCED_FACE('',(#109,#110),#111,.T.);
#84=ADVANCED_FACE('',(#112),#113,.T.);
#86=FACE_OUTER_BOUND('',#114,.T.);
#87=PLANE('',#115);
#88=FACE_BOUND('',#116,.T.);
#89=FACE_BOUND('',#117,.T.);
#90=CONICAL_SURFACE('',#118,45.3253175473066,0.261799387799477);
#91=FACE_BOUND('',#119,.T.);
#92=FACE_BOUND('',#120,.T.);
#93=CYLINDRICAL_SURFACE('',#121,47.0);
#94=FACE_BOUND('',#122,.T.);
#95=FACE_BOUND('',#123,.T.);
#96=CONICAL_SURFACE('',#124,46.7690598923234,0.523598775598167);
#97=FACE_BOUND('',#125,.T.);
#98=FACE_BOUND('',#126,.T.);
#99=CONICAL_SURFACE('',#127,46.7690598923225,0.523598775598169);
#100=FACE_BOUND('',#128,.T.);
#101=FACE_BOUND('',#129,.T.);
#102=CYLINDRICAL_SURFACE('',#130,46.9999999999982);
#103=FACE_BOUND('',#131,.T.);
#104=FACE_BOUND('',#132,.T.);
#105=CONICAL_SURFACE('',#133,46.7690598923236,0.523598775597223);
#106=FACE_BOUND('',#134,.T.);
#107=FACE_BOUND('',#135,.T.);
#108=CONICAL_SURFACE('',#136,46.7690598923245,0.523598775597944);
#109=FACE_BOUND('',#137,.T.);
#110=FACE_BOUND('',#138,.T.);
#111=CYLINDRICAL_SURFACE('',#139,46.9999999999977);
#112=FACE_OUTER_BOUND('',#140,.T.);
#113=PLANE('',#141);
#114=EDGE_LOOP('',(#142));
#115=AXIS2_PLACEMENT_3D('',#143,#144,#145);
#116=EDGE_LOOP('',(#146));
#117=EDGE_LOOP('',(#147));
#118=AXIS2_PLACEMENT_3D('',#148,#149,#150);
#119=EDGE_LOOP('',(#151));
#120=EDGE_LOOP('',(#152));
#121=AXIS2_PLACEMENT_3D('',#153,#154,#155);
#122=EDGE_LOOP('',(#156));
#123=EDGE_LOOP('',(#157));
#124=AXIS2_PLACEMENT_3D('',#158,#159,#160);
#125=EDGE_LOOP('',(#161));
#126=EDGE_LOOP('',(#162));
#127=AXIS2_PLACEMENT_3D('',#163,#164,#165);
#128=EDGE_LOOP('',(#166));
#129=EDGE_LOOP('',(#167));
#130=AXIS2_PLACEMENT_3D('',#168,#169,#170);
#131=EDGE_LOOP('',(#171));
#132=EDGE_LOOP('',(#172));
#133=AXIS2_PLACEMENT_3D('',#173,#174,#175);
#134=EDGE_LOOP('',(#176));
#135=EDGE_LOOP('',(#177));
#136=AXIS2_PLACEMENT_3D('',#178,#179,#180);
#137=EDGE_LOOP('',(#181));
#138=EDGE_LOOP('',(#182));
#139=AXIS2_PLACEMENT_3D('',#183,#184,#185);
#140=EDGE_LOOP('',(#186));
#141=AXIS2_PLACEMENT_3D('',#187,#188,#189);
#142=ORIENTED_EDGE('',*,*,#190,.F.);
#143=CARTESIAN_POINT('',(8.38883057415954E-015,21.8253175473066,-137.000000000003));
#144=DIRECTION('',(6.12323399573677E-017,-4.22001981856307E-014,-1.0));
#145=DIRECTION('',(-2.57918972884006E-030,-1.0,4.22001981856307E-014));
#146=ORIENTED_EDGE('',*,*,#191,.F.);
#147=ORIENTED_EDGE('',*,*,#190,.T.);
#148=CARTESIAN_POINT('',(8.0061284494268E-015,1.60122568988536E-014,-130.750000000016));
#149=DIRECTION('',(-6.12323399573677E-017,-1.22464679914735E-016,1.0));
#150=DIRECTION('',(-1.23259516440783E-032,1.0,1.22464679914735E-016));
#151=ORIENTED_EDGE('',*,*,#192,.F.);
#152=ORIENTED_EDGE('',*,*,#191,.T.);
#153=CARTESIAN_POINT('',(6.6835099063478E-015,1.33670198126956E-014,-109.150000000018));
#154=DIRECTION('',(6.12323399573677E-017,1.22464679914735E-016,-1.0));
#155=DIRECTION('',(-1.23259516440783E-032,1.0,1.22464679914735E-016));
#156=ORIENTED_EDGE('',*,*,#193,.F.);
#157=ORIENTED_EDGE('',*,*,#192,.T.);
#158=CARTESIAN_POINT('',(5.71910055201856E-015,1.14382011040371E-014,-93.4000000000069));
#159=DIRECTION('',(6.12323399573677E-017,1.22464679914735E-016,-1.0));
#160=DIRECTION('',(-1.23259516440783E-032,1.0,1.22464679914735E-016));
#161=ORIENTED_EDGE('',*,*,#194,.F.);
#162=ORIENTED_EDGE('',*,*,#193,.T.);
#163=CARTESIAN_POINT('',(5.67011468005259E-015,1.13402293601052E-014,-92.6000000000056));
#164=DIRECTION('',(-6.12323399573677E-017,-1.22464679914735E-016,1.0));
#165=DIRECTION('',(-1.23259516440783E-032,1.0,1.22464679914735E-016));
#166=ORIENTED_EDGE('',*,*,#195,.F.);
#167=ORIENTED_EDGE('',*,*,#194,.T.);
#168=CARTESIAN_POINT('',(5.6027591060994E-015,1.12055182121988E-014,-91.5000000000043));
#169=DIRECTION('',(6.12323399573677E-017,1.22464679914735E-016,-1.0));
#170=DIRECTION('',(-1.23259516440783E-032,1.0,1.22464679914735E-016));
#171=ORIENTED_EDGE('',*,*,#196,.F.);
#172=ORIENTED_EDGE('',*,*,#195,.T.);
#173=CARTESIAN_POINT('',(5.53540353214629E-015,1.10708070642926E-014,-90.4000000000042));
#174=DIRECTION('',(6.12323399573676E-017,1.22464679914735E-016,-1.0));
#175=DIRECTION('',(-1.23259516440783E-032,1.0,1.22464679914735E-016));
#176=ORIENTED_EDGE('',*,*,#197,.F.);
#177=ORIENTED_EDGE('',*,*,#196,.T.);
#178=CARTESIAN_POINT('',(5.4864176601805E-015,1.0972835320361E-014,-89.6000000000058));
#179=DIRECTION('',(-6.12323399573677E-017,-1.22464679914735E-016,1.0));
#180=DIRECTION('',(-1.23259516440783E-032,1.0,1.22464679914735E-016));
#181=ORIENTED_EDGE('',*,*,#198,.F.);
#182=ORIENTED_EDGE('',*,*,#197,.T.);
#183=CARTESIAN_POINT('',(2.73096236209879E-015,5.46192472419757E-015,-44.6000000000031));
#184=DIRECTION('',(6.12323399573677E-017,1.22464679914735E-016,-1.0));
#185=DIRECTION('',(-1.23259516440783E-032,1.0,1.22464679914735E-016));
#186=ORIENTED_EDGE('',*,*,#198,.T.);
#187=CARTESIAN_POINT('',(-2.89659863635812E-031,23.4999999999977,2.87791997799599E-015));
#188=DIRECTION('',(-6.12323399573677E-017,-1.22464679914735E-016,1.0));
#189=DIRECTION('',(-1.23259516440783E-032,1.0,1.22464679914735E-016));
#190=EDGE_CURVE('',#199,#199,#200,.T.);
#191=EDGE_CURVE('',#201,#201,#202,.T.);
#192=EDGE_CURVE('',#203,#203,#204,.T.);
#193=EDGE_CURVE('',#205,#205,#206,.T.);
#194=EDGE_CURVE('',#207,#207,#208,.T.);
#195=EDGE_CURVE('',#209,#209,#210,.T.);
#196=EDGE_CURVE('',#211,#211,#212,.T.);
#197=EDGE_CURVE('',#213,#213,#214,.T.);
#198=EDGE_CURVE('',#215,#215,#216,.T.);
#199=VERTEX_POINT('',#217);
#200=CIRCLE('',#218,43.6506350946132);
#201=VERTEX_POINT('',#219);
#202=CIRCLE('',#220,47.0);
#203=VERTEX_POINT('',#221);
#204=CIRCLE('',#222,47.0);
#205=VERTEX_POINT('',#223);
#206=CIRCLE('',#224,46.5381197846468);
#207=VERTEX_POINT('',#225);
#208=CIRCLE('',#226,46.9999999999982);
#209=VERTEX_POINT('',#227);
#210=CIRCLE('',#228,46.9999999999982);
#211=VERTEX_POINT('',#229);
#212=CIRCLE('',#230,46.5381197846491);
#213=VERTEX_POINT('',#231);
#214=CIRCLE('',#232,47.0);
#215=VERTEX_POINT('',#233);
#216=CIRCLE('',#234,46.9999999999953);
#217=CARTESIAN_POINT('',(8.38883057415959E-015,43.6506350946132,-137.000000000004));
#218=AXIS2_PLACEMENT_3D('',#235,#236,#237);
#219=CARTESIAN_POINT('',(7.62342632469401E-015,47.0,-124.500000000028));
#220=AXIS2_PLACEMENT_3D('',#238,#239,#240);
#221=CARTESIAN_POINT('',(5.7435934880016E-015,47.0,-93.8000000000084));
#222=AXIS2_PLACEMENT_3D('',#241,#242,#243);
#223=CARTESIAN_POINT('',(5.69460761603553E-015,46.5381197846468,-93.0000000000055));
#224=AXIS2_PLACEMENT_3D('',#244,#245,#246);
#225=CARTESIAN_POINT('',(5.64562174406965E-015,46.9999999999982,-92.2000000000057));
#226=AXIS2_PLACEMENT_3D('',#247,#248,#249);
#227=CARTESIAN_POINT('',(5.55989646812916E-015,46.9999999999982,-90.8000000000029));
#228=AXIS2_PLACEMENT_3D('',#250,#251,#252);
#229=CARTESIAN_POINT('',(5.51091059616342E-015,46.5381197846491,-90.0000000000055));
#230=AXIS2_PLACEMENT_3D('',#253,#254,#255);
#231=CARTESIAN_POINT('',(5.46192472419757E-015,47.0,-89.2000000000062));
#232=AXIS2_PLACEMENT_3D('',#256,#257,#258);
#233=CARTESIAN_POINT('',(-5.79319727271623E-031,46.9999999999953,5.75583995599199E-015));
#234=AXIS2_PLACEMENT_3D('',#259,#260,#261);
#235=CARTESIAN_POINT('',(8.38883057415959E-015,1.67776611483192E-014,-137.000000000004));
#236=DIRECTION('',(-6.12323399573677E-017,-1.22464679914735E-016,1.0));
#237=DIRECTION('',(-1.23259516440783E-032,1.0,1.22464679914735E-016));
#238=CARTESIAN_POINT('',(7.62342632469401E-015,1.5246852649388E-014,-124.500000000028));
#239=DIRECTION('',(-6.12323399573677E-017,-1.22464679914735E-016,1.0));
#240=DIRECTION('',(-1.23259516440783E-032,1.0,1.22464679914735E-016));
#241=CARTESIAN_POINT('',(5.7435934880016E-015,1.14871869760032E-014,-93.8000000000084));
#242=DIRECTION('',(-6.12323399573677E-017,-1.22464679914735E-016,1.0));
#243=DIRECTION('',(-1.23259516440783E-032,1.0,1.22464679914735E-016));
#244=CARTESIAN_POINT('',(5.69460761603553E-015,1.13892152320711E-014,-93.0000000000055));
#245=DIRECTION('',(-6.12323399573677E-017,-1.22464679914735E-016,1.0));
#246=DIRECTION('',(-1.23259516440783E-032,1.0,1.22464679914735E-016));
#247=CARTESIAN_POINT('',(5.64562174406965E-015,1.12912434881393E-014,-92.2000000000057));
#248=DIRECTION('',(-6.12323399573677E-017,-1.22464679914735E-016,1.0));
#249=DIRECTION('',(-1.23259516440783E-032,1.0,1.22464679914735E-016));
#250=CARTESIAN_POINT('',(5.55989646812916E-015,1.11197929362583E-014,-90.8000000000029));
#251=DIRECTION('',(-6.12323399573677E-017,-1.22464679914735E-016,1.0));
#252=DIRECTION('',(-1.23259516440783E-032,1.0,1.22464679914735E-016));
#253=CARTESIAN_POINT('',(5.51091059616342E-015,1.10218211923268E-014,-90.0000000000055));
#254=DIRECTION('',(-6.12323399573677E-017,-1.22464679914735E-016,1.0));
#255=DIRECTION('',(-1.23259516440783E-032,1.0,1.22464679914735E-016));
#256=CARTESIAN_POINT('',(5.46192472419757E-015,1.09238494483951E-014,-89.2000000000062));
#257=DIRECTION('',(-6.12323399573677E-017,-1.22464679914735E-016,1.0));
#258=DIRECTION('',(-1.23259516440783E-032,1.0,1.22464679914735E-016));
#259=CARTESIAN_POINT('',(0.0,0.0,0.0));
#260=DIRECTION('',(-6.12323399573677E-017,-1.22464679914735E-016,1.0));
#261=DIRECTION('',(-1.23259516440783E-032,1.0,1.22464679914735E-016));
ENDSEC;
END-ISO-10303-21;
