  0
SECTION
  2
HEADER
  9
$ACADVER
  1
AC1024
  9
$ACADMAINTVER
 70
     6
  9
$DWGCODEPAGE
  3
ANSI_1252
  9
$INSBASE
 10
0.0
 20
0.0
 30
0.0
  9
$EXTMIN
 10
-51.0
 20
-45.0
 30
0.0
  9
$EXTMAX
 10
123.3
 20
82.00000000000006
 30
0.0
  9
$LIMMIN
 10
0.0
 20
0.0
  9
$LIMMAX
 10
420.0
 20
297.0
  9
$ORTHOMODE
 70
     0
  9
$REGENMODE
 70
     1
  9
$FILLMODE
 70
     1
  9
$QTEXTMODE
 70
     0
  9
$MIRRTEXT
 70
     1
  9
$LTSCALE
 40
10.0
  9
$ATTMODE
 70
     1
  9
$TEXTSIZE
 40
3.0
  9
$TRACEWID
 40
1.0
  9
$TEXTSTYLE
  7
YOKO
  9
$CLAYER
  8
240
  9
$CELTYPE
  6
ByLayer
  9
$CECOLOR
 62
   256
  9
$CELTSCALE
 40
1.0
  9
$DISPSILH
 70
     0
  9
$DIMSCALE
 40
1.0
  9
$DIMASZ
 40
2.229999999999999
  9
$DIMEXO
 40
0.5
  9
$DIMDLI
 40
2.5
  9
$DIMRND
 40
0.0
  9
$DIMDLE
 40
0.0
  9
$DIMEXE
 40
1.0
  9
$DIMTP
 40
0.0
  9
$DIMTM
 40
0.0
  9
$DIMTXT
 40
2.799999999999999
  9
$DIMCEN
 40
0.0
  9
$DIMTSZ
 40
0.0
  9
$DIMTOL
 70
     0
  9
$DIMLIM
 70
     0
  9
$DIMTIH
 70
     0
  9
$DIMTOH
 70
     0
  9
$DIMSE1
 70
     0
  9
$DIMSE2
 70
     0
  9
$DIMTAD
 70
     3
  9
$DIMZIN
 70
     8
  9
$DIMBLK
  1

  9
$DIMASO
 70
     1
  9
$DIMSHO
 70
     1
  9
$DIMPOST
  1

  9
$DIMAPOST
  1

  9
$DIMALT
 70
     0
  9
$DIMALTD
 70
     2
  9
$DIMALTF
 40
25.4
  9
$DIMLFAC
 40
1.0
  9
$DIMTOFL
 70
     1
  9
$DIMTVP
 40
0.0
  9
$DIMTIX
 70
     1
  9
$DIMSOXD
 70
     0
  9
$DIMSAH
 70
     1
  9
$DIMBLK1
  1
OPEN
  9
$DIMBLK2
  1
OPEN
  9
$DIMSTYLE
  2
BIGT
  9
$DIMCLRD
 70
   256
  9
$DIMCLRE
 70
   256
  9
$DIMCLRT
 70
    40
  9
$DIMTFAC
 40
1.0
  9
$DIMGAP
 40
1.0
  9
$DIMJUST
 70
     0
  9
$DIMSD1
 70
     0
  9
$DIMSD2
 70
     0
  9
$DIMTOLJ
 70
     1
  9
$DIMTZIN
 70
     0
  9
$DIMALTZ
 70
     0
  9
$DIMALTTZ
 70
     0
  9
$DIMUPT
 70
     0
  9
$DIMDEC
 70
     2
  9
$DIMTDEC
 70
     2
  9
$DIMALTU
 70
     2
  9
$DIMALTTD
 70
     2
  9
$DIMTXSTY
  7
STANDARD
  9
$DIMAUNIT
 70
     0
  9
$DIMADEC
 70
     0
  9
$DIMALTRND
 40
0.0
  9
$DIMAZIN
 70
     0
  9
$DIMDSEP
 70
    46
  9
$DIMATFIT
 70
     3
  9
$DIMFRAC
 70
     0
  9
$DIMLDRBLK
  1

  9
$DIMLUNIT
 70
     2
  9
$DIMLWD
 70
    -2
  9
$DIMLWE
 70
    -2
  9
$DIMTMOVE
 70
     2
  9
$DIMFXL
 40
1.0
  9
$DIMFXLON
 70
     0
  9
$DIMJOGANG
 40
0.7853981633974483
  9
$DIMTFILL
 70
     0
  9
$DIMTFILLCLR
 70
     0
  9
$DIMARCSYM
 70
     0
  9
$DIMLTYPE
  6

  9
$DIMLTEX1
  6

  9
$DIMLTEX2
  6

  9
$DIMTXTDIRECTION
 70
     0
  9
$LUNITS
 70
     2
  9
$LUPREC
 70
     2
  9
$SKETCHINC
 40
1.0
  9
$FILLETRAD
 40
2.0
  9
$AUNITS
 70
     0
  9
$AUPREC
 70
     3
  9
$MENU
  1
.
  9
$ELEVATION
 40
0.0
  9
$PELEVATION
 40
0.0
  9
$THICKNESS
 40
0.0
  9
$LIMCHECK
 70
     0
  9
$CHAMFERA
 40
10.0
  9
$CHAMFERB
 40
10.0
  9
$CHAMFERC
 40
1.0
  9
$CHAMFERD
 40
0.0
  9
$SKPOLY
 70
     0
  9
$TDCREATE
 40
2455454.39161566
  9
$TDUCREATE
 40
2455454.599948993
  9
$TDUPDATE
 40
2457863.548744155
  9
$TDUUPDATE
 40
2457863.757077489
  9
$TDINDWG
 40
0.0675739468
  9
$TDUSRTIMER
 40
2458323.78233919
  9
$USRTIMER
 70
     1
  9
$ANGBASE
 50
0.0
  9
$ANGDIR
 70
     0
  9
$PDMODE
 70
     1
  9
$PDSIZE
 40
-5.0
  9
$PLINEWID
 40
0.0
  9
$SPLFRAME
 70
     0
  9
$SPLINETYPE
 70
     6
  9
$SPLINESEGS
 70
     8
  9
$HANDSEED
  5
113B
  9
$SURFTAB1
 70
     6
  9
$SURFTAB2
 70
     6
  9
$SURFTYPE
 70
     6
  9
$SURFU
 70
     6
  9
$SURFV
 70
     6
  9
$UCSBASE
  2

  9
$UCSNAME
  2

  9
$UCSORG
 10
0.0
 20
0.0
 30
0.0
  9
$UCSXDIR
 10
1.0
 20
0.0
 30
0.0
  9
$UCSYDIR
 10
0.0
 20
1.0
 30
0.0
  9
$UCSORTHOREF
  2

  9
$UCSORTHOVIEW
 70
     0
  9
$UCSORGTOP
 10
0.0
 20
0.0
 30
0.0
  9
$UCSORGBOTTOM
 10
0.0
 20
0.0
 30
0.0
  9
$UCSORGLEFT
 10
0.0
 20
0.0
 30
0.0
  9
$UCSORGRIGHT
 10
0.0
 20
0.0
 30
0.0
  9
$UCSORGFRONT
 10
0.0
 20
0.0
 30
0.0
  9
$UCSORGBACK
 10
0.0
 20
0.0
 30
0.0
  9
$PUCSBASE
  2

  9
$PUCSNAME
  2

  9
$PUCSORG
 10
0.0
 20
0.0
 30
0.0
  9
$PUCSXDIR
 10
1.0
 20
0.0
 30
0.0
  9
$PUCSYDIR
 10
0.0
 20
1.0
 30
0.0
  9
$PUCSORTHOREF
  2

  9
$PUCSORTHOVIEW
 70
     0
  9
$PUCSORGTOP
 10
0.0
 20
0.0
 30
0.0
  9
$PUCSORGBOTTOM
 10
0.0
 20
0.0
 30
0.0
  9
$PUCSORGLEFT
 10
0.0
 20
0.0
 30
0.0
  9
$PUCSORGRIGHT
 10
0.0
 20
0.0
 30
0.0
  9
$PUCSORGFRONT
 10
0.0
 20
0.0
 30
0.0
  9
$PUCSORGBACK
 10
0.0
 20
0.0
 30
0.0
  9
$USERI1
 70
     1
  9
$USERI2
 70
     0
  9
$USERI3
 70
     0
  9
$USERI4
 70
     0
  9
$USERI5
 70
     0
  9
$USERR1
 40
0.0
  9
$USERR2
 40
0.0
  9
$USERR3
 40
0.0
  9
$USERR4
 40
0.0
  9
$USERR5
 40
0.0
  9
$WORLDVIEW
 70
     1
  9
$SHADEDGE
 70
     3
  9
$SHADEDIF
 70
    70
  9
$TILEMODE
 70
     1
  9
$MAXACTVP
 70
    16
  9
$PINSBASE
 10
0.0
 20
0.0
 30
0.0
  9
$PLIMCHECK
 70
     0
  9
$PEXTMIN
 10
1.000000000000000E+20
 20
1.000000000000000E+20
 30
1.000000000000000E+20
  9
$PEXTMAX
 10
-1.000000000000000E+20
 20
-1.000000000000000E+20
 30
-1.000000000000000E+20
  9
$PLIMMIN
 10
0.0
 20
0.0
  9
$PLIMMAX
 10
420.0
 20
297.0
  9
$UNITMODE
 70
     0
  9
$VISRETAIN
 70
     0
  9
$PLINEGEN
 70
     0
  9
$PSLTSCALE
 70
     1
  9
$TREEDEPTH
 70
  3020
  9
$CMLSTYLE
  2
Standard
  9
$CMLJUST
 70
     0
  9
$CMLSCALE
 40
1.0
  9
$PROXYGRAPHICS
 70
     1
  9
$MEASUREMENT
 70
     0
  9
$CELWEIGHT
370
    -1
  9
$ENDCAPS
280
     0
  9
$JOINSTYLE
280
     0
  9
$LWDISPLAY
290
     0
  9
$INSUNITS
 70
     0
  9
$HYPERLINKBASE
  1

  9
$STYLESHEET
  1

  9
$XEDIT
290
     1
  9
$CEPSNTYPE
380
     0
  9
$PSTYLEMODE
290
     1
  9
$FINGERPRINTGUID
  2
{3559A632-96AE-4F90-AD84-CDB31189EA71}
  9
$VERSIONGUID
  2
{FAEB1C32-E019-11D5-929B-00C0DF256EC4}
  9
$EXTNAMES
290
     1
  9
$PSVPSCALE
 40
0.0
  9
$OLESTARTUP
290
     0
  9
$SORTENTS
280
   127
  9
$INDEXCTL
280
     0
  9
$HIDETEXT
280
     1
  9
$XCLIPFRAME
280
     2
  9
$HALOGAP
280
     0
  9
$OBSCOLOR
 70
   257
  9
$OBSLTYPE
280
     0
  9
$INTERSECTIONDISPLAY
280
     0
  9
$INTERSECTIONCOLOR
 70
   257
  9
$DIMASSOC
280
     2
  9
$PROJECTNAME
  1

  9
$CAMERADISPLAY
290
     0
  9
$LENSLENGTH
 40
50.0
  9
$CAMERAHEIGHT
 40
0.0
  9
$STEPSPERSEC
 40
2.0
  9
$STEPSIZE
 40
6.0
  9
$3DDWFPREC
 40
2.0
  9
$PSOLWIDTH
 40
0.25
  9
$PSOLHEIGHT
 40
4.0
  9
$LOFTANG1
 40
1.570796326794897
  9
$LOFTANG2
 40
1.570796326794897
  9
$LOFTMAG1
 40
0.0
  9
$LOFTMAG2
 40
0.0
  9
$LOFTPARAM
 70
     7
  9
$LOFTNORMALS
280
     1
  9
$LATITUDE
 40
37.795
  9
$LONGITUDE
 40
-122.394
  9
$NORTHDIRECTION
 40
0.0
  9
$TIMEZONE
 70
 -8000
  9
$LIGHTGLYPHDISPLAY
280
     1
  9
$TILEMODELIGHTSYNCH
280
     1
  9
$SOLIDHIST
280
     1
  9
$SHOWHIST
280
     1
  9
$DWFFRAME
280
     2
  9
$DGNFRAME
280
     2
  9
$REALWORLDSCALE
290
     1
  9
$INTERFERECOLOR
 62
   256
  9
$CSHADOW
280
     0
  9
$SHADOWPLANELOCATION
 40
0.0
  0
ENDSEC
  0
SECTION
  2
CLASSES
  0
CLASS
  1
ACDBDICTIONARYWDFLT
  2
AcDbDictionaryWithDefault
  3
ObjectDBX Classes
 90
        0
 91
       17
280
     0
281
     0
  0
CLASS
  1
SCALE
  2
AcDbScale
  3
ObjectDBX Classes
 90
     1153
 91
       17
280
     0
281
     0
  0
CLASS
  1
TABLESTYLE
  2
AcDbTableStyle
  3
ObjectDBX Classes
 90
     4095
 91
       17
280
     0
281
     0
  0
CLASS
  1
RASTERVARIABLES
  2
AcDbRasterVariables
  3
ISM
 90
        0
 91
       17
280
     0
281
     0
  0
CLASS
  1
DICTIONARYVAR
  2
AcDbDictionaryVar
  3
ObjectDBX Classes
 90
        0
 91
        4
280
     0
281
     0
  0
CLASS
  1
CELLSTYLEMAP
  2
AcDbCellStyleMap
  3
ObjectDBX Classes
 90
     1152
 91
        4
280
     0
281
     0
  0
ENDSEC
  0
SECTION
  2
TABLES
  0
TABLE
  2
VPORT
  5
10AA
330
0
100
AcDbSymbolTable
 70
     1
  0
VPORT
  5
10C1
330
10AA
100
AcDbSymbolTableRecord
100
AcDbViewportTableRecord
  2
*ACTIVE
 70
     0
 10
0.0
 20
0.0
 11
1.0
 21
1.0
 12
39.40259697561365
 22
39.58504966747567
 13
0.0
 23
0.0
 14
7.0
 24
7.0
 15
7.0
 25
7.0
 16
0.0
 26
0.0
 36
1.0
 17
0.0
 27
0.0
 37
0.0
 40
210.6049434411747
 41
1.579196217494089
 42
50.0
 43
0.0
 44
0.0
 50
0.0
 51
0.0
 71
     0
 72
  2000
 73
     1
 74
     0
 75
     0
 76
     1
 77
     0
 78
     0
281
     0
 65
     0
110
0.0
120
0.0
130
0.0
111
1.0
121
0.0
131
0.0
112
0.0
122
1.0
132
0.0
 79
     0
146
0.0
 60
     3
 61
     5
292
     1
282
     1
141
0.0
142
0.0
 63
   256
  0
ENDTAB
  0
TABLE
  2
LTYPE
  5
10A7
330
0
100
AcDbSymbolTable
 70
    19
  0
LTYPE
  5
10B5
330
10A7
100
AcDbSymbolTableRecord
100
AcDbLinetypeTableRecord
  2
ByBlock
 70
     0
  3

 72
    65
 73
     0
 40
0.0
  0
LTYPE
  5
10B6
330
10A7
100
AcDbSymbolTableRecord
100
AcDbLinetypeTableRecord
  2
ByLayer
 70
     0
  3

 72
    65
 73
     0
 40
0.0
  0
LTYPE
  5
10B7
330
10A7
100
AcDbSymbolTableRecord
100
AcDbLinetypeTableRecord
  2
CONTINUOUS
 70
     0
  3
Solid line
 72
    65
 73
     0
 40
0.0
  0
LTYPE
  5
10C3
330
10A7
100
AcDbSymbolTableRecord
100
AcDbLinetypeTableRecord
  2
CENTER2
 70
     0
  3
___ _ ___ _ ___ _ ___ _ ___ _ ___ _ ___ _ ___ _
 72
    65
 73
     4
 40
1.125
 49
0.75
 74
     0
 49
-0.125
 74
     0
 49
0.125
 74
     0
 49
-0.125
 74
     0
  0
LTYPE
  5
10C4
330
10A7
100
AcDbSymbolTableRecord
100
AcDbLinetypeTableRecord
  2
HIDDEN2
 70
     0
  3
_ _ _ _ _ _ _ _ _ _ _ _ _ _ _ _ _ _ _ _ _ _ _ _
 72
    65
 73
     2
 40
0.1875
 49
0.125
 74
     0
 49
-0.0625
 74
     0
  0
LTYPE
  5
10C5
330
10A7
100
AcDbSymbolTableRecord
100
AcDbLinetypeTableRecord
  2
HIDDEN
 70
     0
  3
Hidden __ __ __ __ __ __ __ __ __ __ __ __ __ _
 72
    65
 73
     2
 40
9.524999999999999
 49
6.349999999999999
 74
     0
 49
-3.174999999999999
 74
     0
  0
LTYPE
  5
10C6
330
10A7
100
AcDbSymbolTableRecord
100
AcDbLinetypeTableRecord
  2
PHANTOM2
 70
     0
  3
Phantom (.5x) ___ _ _ ___ _ _ ___ _ _ ___ _ _
 72
    65
 73
     6
 40
31.74999999999999
 49
15.875
 74
     0
 49
-3.174999999999999
 74
     0
 49
3.174999999999999
 74
     0
 49
-3.174999999999999
 74
     0
 49
3.174999999999999
 74
     0
 49
-3.174999999999999
 74
     0
  0
LTYPE
  5
10C7
330
10A7
100
AcDbSymbolTableRecord
100
AcDbLinetypeTableRecord
  2
CENTER
 70
     0
  3
Center ____ _ ____ _ ____ _ ____ _ ____ _ ____
 72
    65
 73
     4
 40
50.8
 49
31.75
 74
     0
 49
-6.349999999999999
 74
     0
 49
6.349999999999999
 74
     0
 49
-6.349999999999999
 74
     0
  0
LTYPE
  5
10C8
330
10A7
100
AcDbSymbolTableRecord
100
AcDbLinetypeTableRecord
  2
AM_ISO02W050
 70
     0
  3
__ __ __ __ __ __ __ __ __ __ __ __ __ __ __
 72
    65
 73
     2
 40
7.5
 49
6.0
 74
     0
 49
-1.5
 74
     0
  0
LTYPE
  5
10C9
330
10A7
100
AcDbSymbolTableRecord
100
AcDbLinetypeTableRecord
  2
AM_ISO08W050
 70
     0
  3
____ . ____ . ____ . ____ . ____ . ____ . ____
 72
    65
 73
     4
 40
18.0
 49
12.0
 74
     0
 49
-1.5
 74
     0
 49
3.0
 74
     0
 49
-1.5
 74
     0
  0
LTYPE
  5
10CA
330
10A7
100
AcDbSymbolTableRecord
100
AcDbLinetypeTableRecord
  2
AM_ISO09W050
 70
     0
  3
_____ . . _____ . . _____ . . ____ .. ____
 72
    65
 73
     6
 40
22.5
 49
12.0
 74
     0
 49
-1.5
 74
     0
 49
3.0
 74
     0
 49
-1.5
 74
     0
 49
3.0
 74
     0
 49
-1.5
 74
     0
  0
LTYPE
  5
10CB
330
10A7
100
AcDbSymbolTableRecord
100
AcDbLinetypeTableRecord
  2
AMCONSTR
 70
     0
  3
_______________________
 72
    65
 73
     2
 40
9999.0
 49
9999.0
 74
     0
 49
0.0
 74
     0
  0
LTYPE
  5
10CC
330
10A7
100
AcDbSymbolTableRecord
100
AcDbLinetypeTableRecord
  2
AM_ISO08W050X2
 70
     0
  3
__ . __ . __ . __ . __ . __
 72
    65
 73
     4
 40
9.0
 49
6.0
 74
     0
 49
-0.75
 74
     0
 49
1.5
 74
     0
 49
-0.75
 74
     0
  0
LTYPE
  5
10CD
330
10A7
100
AcDbSymbolTableRecord
100
AcDbLinetypeTableRecord
  2
AM_ISO02W050X2
 70
     0
  3
 _ _ _ _ _ _ _ _ _ _ _ _
 72
    65
 73
     2
 40
3.75
 49
3.0
 74
     0
 49
-0.75
 74
     0
  0
LTYPE
  5
10CE
330
10A7
100
AcDbSymbolTableRecord
100
AcDbLinetypeTableRecord
  2
AMZIGZAG
 70
     0
  3
/\/-/\/-/\/-/\/-/\/-/\/
 72
    65
 73
     2
 40
11.0001
 49
0.0001
 74
     0
 49
-11.0
 74
     0
  0
LTYPE
  5
10CF
330
10A7
100
AcDbSymbolTableRecord
100
AcDbLinetypeTableRecord
  2
ACISOWELD
 70
     0
  3
_ _ _ _ _
 72
    65
 73
     2
 40
3.0
 49
2.0
 74
     0
 49
-1.0
 74
     0
  0
LTYPE
  5
10D0
330
10A7
100
AcDbSymbolTableRecord
100
AcDbLinetypeTableRecord
  2
ACISOTGL
 70
     0
  3
_ _ _ _ _
 72
    65
 73
     2
 40
3.0
 49
2.0
 74
     0
 49
-1.0
 74
     0
  0
LTYPE
  5
10D1
330
10A7
100
AcDbSymbolTableRecord
100
AcDbLinetypeTableRecord
  2
ACISOTGB
 70
     0
  3
__ . . __ . .
 72
    65
 73
     6
 40
9.0
 49
4.0
 74
     0
 49
-1.0
 74
     0
 49
1.0
 74
     0
 49
-1.0
 74
     0
 49
1.0
 74
     0
 49
-1.0
 74
     0
  0
LTYPE
  5
10D2
330
10A7
100
AcDbSymbolTableRecord
100
AcDbLinetypeTableRecord
  2
AMZIGZAG2
 70
     0
  3
/\/-/\/-/\/-/\/-/\/-/\/
 72
    65
 73
     2
 40
0.4401000000000001
 49
0.0001
 74
     0
 49
-0.4400000000000001
 74
     0
  0
LTYPE
  5
10D3
330
10A7
100
AcDbSymbolTableRecord
100
AcDbLinetypeTableRecord
  2
ACANSTGB
 70
     0
  3
__ . . __ . .
 72
    65
 73
     6
 40
0.35433070866
 49
0.15748031496
 74
     0
 49
-0.03937007874
 74
     0
 49
0.03937007874
 74
     0
 49
-0.03937007874
 74
     0
 49
0.03937007874
 74
     0
 49
-0.03937007874
 74
     0
  0
LTYPE
  5
10D4
330
10A7
100
AcDbSymbolTableRecord
100
AcDbLinetypeTableRecord
  2
ACANSTGL
 70
     0
  3
_ _ _ _ _
 72
    65
 73
     2
 40
0.11811023622
 49
0.07874015748
 74
     0
 49
-0.03937007874
 74
     0
  0
ENDTAB
  0
TABLE
  2
LAYER
  5
10A4
330
0
100
AcDbSymbolTable
 70
     8
  0
LAYER
  5
10B2
330
10A4
100
AcDbSymbolTableRecord
100
AcDbLayerTableRecord
  2
0
 70
     0
 62
     7
  6
CONTINUOUS
370
    -3
390
10B1
347
0
  0
LAYER
  5
10D6
330
10A4
100
AcDbSymbolTableRecord
100
AcDbLayerTableRecord
  2
240
 70
     0
 62
     4
  6
CONTINUOUS
370
    -3
390
10B1
347
0
  0
LAYER
  5
10D7
330
10A4
100
AcDbSymbolTableRecord
100
AcDbLayerTableRecord
  2
241
 70
     0
 62
   211
  6
CONTINUOUS
370
    -3
390
10B1
347
0
  0
LAYER
  5
10D8
330
10A4
100
AcDbSymbolTableRecord
100
AcDbLayerTableRecord
  2
245
 70
     0
 62
     2
  6
CENTER2
370
    -3
390
10B1
347
0
  0
LAYER
  5
10D9
330
10A4
100
AcDbSymbolTableRecord
100
AcDbLayerTableRecord
  2
250
 70
     0
 62
     3
  6
CONTINUOUS
370
    -3
390
10B1
347
0
  0
LAYER
  5
10DA
330
10A4
100
AcDbSymbolTableRecord
100
AcDbLayerTableRecord
  2
DEFPOINTS
 70
     0
 62
     7
  6
CONTINUOUS
290
     0
370
    -3
390
10B1
347
0
  0
LAYER
  5
10DB
330
10A4
100
AcDbSymbolTableRecord
100
AcDbLayerTableRecord
  2
243
 70
     0
 62
   211
  6
HIDDEN2
370
    -3
390
10B1
347
0
  0
LAYER
  5
10DC
330
10A4
100
AcDbSymbolTableRecord
100
AcDbLayerTableRecord
  2
247
 70
     0
 62
    60
  6
CONTINUOUS
370
    -3
390
10B1
347
0
  0
ENDTAB
  0
TABLE
  2
STYLE
  5
10A5
330
0
100
AcDbSymbolTable
 70
     5
  0
STYLE
  5
10B3
330
10A5
100
AcDbSymbolTableRecord
100
AcDbTextStyleTableRecord
  2
STANDARD
 70
     0
 40
0.0
 41
1.0
 50
0.0
 71
     0
 42
3.0
  3
romans.shx
  4
BIGFONT.SHX
  0
STYLE
  5
10DE
330
10A5
100
AcDbSymbolTableRecord
100
AcDbTextStyleTableRecord
  2
YOKO
 70
     0
 40
0.0
 41
1.0
 50
0.0
 71
     0
 42
3.0
  3
romans.shx
  4
extfont.shx
  0
STYLE
  5
10DF
330
10A5
100
AcDbSymbolTableRecord
100
AcDbTextStyleTableRecord
  2

 70
     1
 40
0.0
 41
1.0
 50
0.0
 71
     0
 42
3.0
  3
genltshp.shx
  4

  0
STYLE
  5
10E0
330
10A5
100
AcDbSymbolTableRecord
100
AcDbTextStyleTableRecord
  2
ACISOGDT
 70
     0
 40
0.0
 41
1.0
 50
0.0
 71
     0
 42
3.0
  3
amgdt.shx
  4

  0
STYLE
  5
10E1
330
10A5
100
AcDbSymbolTableRecord
100
AcDbTextStyleTableRecord
  2
ACANSGDT
 70
     0
 40
0.0
 41
1.0
 50
0.0
 71
     0
 42
3.0
  3
amgdt.shx
  4

  0
ENDTAB
  0
TABLE
  2
VIEW
  5
10A8
330
0
100
AcDbSymbolTable
 70
     0
  0
ENDTAB
  0
TABLE
  2
UCS
  5
10A9
330
0
100
AcDbSymbolTable
 70
     0
  0
ENDTAB
  0
TABLE
  2
APPID
  5
10AB
330
0
100
AcDbSymbolTable
 70
    22
  0
APPID
  5
10B4
330
10AB
100
AcDbSymbolTableRecord
100
AcDbRegAppTableRecord
  2
ACAD
 70
     0
  0
APPID
  5
10E3
330
10AB
100
AcDbSymbolTableRecord
100
AcDbRegAppTableRecord
  2
GLOBAL
 70
     0
  0
APPID
  5
10E4
330
10AB
100
AcDbSymbolTableRecord
100
AcDbRegAppTableRecord
  2
DETAIL
 70
     0
  0
APPID
  5
10E5
330
10AB
100
AcDbSymbolTableRecord
100
AcDbRegAppTableRecord
  2
GRPNAME
 70
     0
  0
APPID
  5
10E6
330
10AB
100
AcDbSymbolTableRecord
100
AcDbRegAppTableRecord
  2
GPARA
 70
     0
  0
APPID
  5
10E7
330
10AB
100
AcDbSymbolTableRecord
100
AcDbRegAppTableRecord
  2
DCO15
 70
     0
  0
APPID
  5
10E8
330
10AB
100
AcDbSymbolTableRecord
100
AcDbRegAppTableRecord
  2
ITEMNAME
 70
     0
  0
APPID
  5
10E9
330
10AB
100
AcDbSymbolTableRecord
100
AcDbRegAppTableRecord
  2
GRADE_0
 70
     0
  0
APPID
  5
10EA
330
10AB
100
AcDbSymbolTableRecord
100
AcDbRegAppTableRecord
  2
CONTENTBLOCKICON
 70
     0
  0
APPID
  5
10EB
330
10AB
100
AcDbSymbolTableRecord
100
AcDbRegAppTableRecord
  2
MCAD_NO_VIS
 70
     0
  0
APPID
  5
10EC
330
10AB
100
AcDbSymbolTableRecord
100
AcDbRegAppTableRecord
  2
ACAD_TEMP_GRAPHIC
 70
     0
  0
APPID
  5
10ED
330
10AB
100
AcDbSymbolTableRecord
100
AcDbRegAppTableRecord
  2
ACATTRIBSERVICES
 70
     0
  0
APPID
  5
10EE
330
10AB
100
AcDbSymbolTableRecord
100
AcDbRegAppTableRecord
  2
DESIGNERASSEMBLIES
 70
     0
  0
APPID
  5
10EF
330
10AB
100
AcDbSymbolTableRecord
100
AcDbRegAppTableRecord
  2
ACAD_DSTYLE_DIMJAG
 70
     0
  0
APPID
  5
10F0
330
10AB
100
AcDbSymbolTableRecord
100
AcDbRegAppTableRecord
  2
ACAD_DSTYLE_DIMBREAK
 70
     0
  0
APPID
  5
10F1
330
10AB
100
AcDbSymbolTableRecord
100
AcDbRegAppTableRecord
  2
GENIUS_GENSCREG_15
 70
     0
  0
APPID
  5
10F2
330
10AB
100
AcDbSymbolTableRecord
100
AcDbRegAppTableRecord
  2
GENIUS_GENOBJ-N-SDF_13
 70
     0
  0
APPID
  5
10F3
330
10AB
100
AcDbSymbolTableRecord
100
AcDbRegAppTableRecord
  2
GENIUS_GENODEF_13
 70
     0
  0
APPID
  5
10F4
330
10AB
100
AcDbSymbolTableRecord
100
AcDbRegAppTableRecord
  2
ACAD_NAV_VCDISPLAY
 70
     0
  0
APPID
  5
10F5
330
10AB
100
AcDbSymbolTableRecord
100
AcDbRegAppTableRecord
  2
GENIUS_GENOBJ-N-FIL_13
 70
     0
  0
APPID
  5
10F6
330
10AB
100
AcDbSymbolTableRecord
100
AcDbRegAppTableRecord
  2
ACAECLAYERSTANDARD
 70
     0
  0
APPID
  5
10F7
330
10AB
100
AcDbSymbolTableRecord
100
AcDbRegAppTableRecord
  2
ACAD_MLEADERVER
 70
     0
  0
ENDTAB
  0
TABLE
  2
DIMSTYLE
  5
10AC
330
0
100
AcDbSymbolTable
 70
    14
100
AcDbDimStyleTable
  0
DIMSTYLE
105
10F8
330
10AC
100
AcDbSymbolTableRecord
100
AcDbDimStyleTableRecord
  2
BIGT
 70
     0
 41
2.229999999999999
 42
0.5
 43
2.5
 44
1.0
 73
     0
 74
     0
 77
     3
 78
     8
140
2.799999999999999
141
0.0
147
1.0
172
     1
173
     1
174
     1
176
   256
177
   256
178
    40
340
10DE
341
1109
343
1109
344
1109
  0
DIMSTYLE
105
10F9
330
10AC
100
AcDbSymbolTableRecord
100
AcDbDimStyleTableRecord
  2
AM_ISO
 70
     0
  4
"
 41
3.5
 42
1.0
 43
10.0
 44
1.0
 47
0.1
 48
0.1
 73
     0
 74
     0
 77
     1
 78
     8
140
3.5
141
0.0
143
0.0393701
146
0.71
147
1.5
172
     1
176
   256
177
   256
178
     2
340
10DE
  0
DIMSTYLE
105
10FA
330
10AC
100
AcDbSymbolTableRecord
100
AcDbDimStyleTableRecord
  2
AM_ISO$3
 70
     0
  4
"
 41
3.5
 42
1.0
 43
10.0
 44
1.0
 47
0.1
 48
0.1
 73
     0
 77
     1
 78
     8
140
3.5
141
0.0
143
0.0393701
146
0.71
147
1.5
176
   256
177
   256
178
     2
340
10DE
  0
DIMSTYLE
105
10FB
330
10AC
100
AcDbSymbolTableRecord
100
AcDbDimStyleTableRecord
  2
AM_ISO$4
 70
     0
  4
"
 41
3.5
 42
1.0
 43
10.0
 44
1.0
 47
0.1
 48
0.1
 73
     0
 77
     1
 78
     8
140
3.5
141
0.0
143
0.0393701
146
0.71
147
1.5
176
   256
177
   256
178
     2
340
10DE
  0
DIMSTYLE
105
10FC
330
10AC
100
AcDbSymbolTableRecord
100
AcDbDimStyleTableRecord
  2
AM_ISO$6
 70
     0
  4
"
 41
3.5
 42
1.0
 43
10.0
 44
1.0
 47
0.1
 48
0.1
 73
     0
 74
     0
 78
     8
140
3.5
141
0.0
143
0.0393701
146
0.71
147
1.5
172
     1
176
   256
177
   256
178
     2
340
10DE
  0
DIMSTYLE
105
10FD
330
10AC
100
AcDbSymbolTableRecord
100
AcDbDimStyleTableRecord
  2
AM_ISO$7
 70
     0
  4
"
 41
3.5
 42
1.0
 43
10.0
 44
1.0
 47
0.1
 48
0.1
 73
     0
 74
     0
 77
     1
 78
     8
140
3.5
141
0.0
143
0.0393701
146
0.71
147
1.5
172
     1
176
   256
177
   256
178
     2
340
10DE
  0
DIMSTYLE
105
10FE
330
10AC
100
AcDbSymbolTableRecord
100
AcDbDimStyleTableRecord
  2
AM_ISO$SF
 70
     0
  4
"
 41
3.5
 42
1.0
 43
10.0
 44
1.0
 47
0.1
 48
0.1
 73
     0
 74
     0
 75
     1
 76
     1
 77
     1
 78
     8
140
3.5
141
0.0
143
0.0393701
146
0.71
147
1.5
172
     1
176
   256
177
   256
178
     2
340
10DE
  0
DIMSTYLE
105
10FF
330
10AC
100
AcDbSymbolTableRecord
100
AcDbDimStyleTableRecord
  2
AM_ISO$SH
 70
     0
  4
"
 41
3.5
 42
1.0
 43
10.0
 44
1.0
 47
0.1
 48
0.1
 73
     0
 74
     0
 75
     1
 76
     1
 77
     1
 78
     8
140
3.5
141
0.0
143
0.0393701
144
2.0
146
0.71
147
1.5
172
     1
173
     1
176
   256
177
   256
178
     2
340
10DE
341
110D
343
110D
  0
DIMSTYLE
105
1100
330
10AC
100
AcDbSymbolTableRecord
100
AcDbDimStyleTableRecord
  2
AM_ANSI
 70
     0
  4
mm
 41
0.12
 42
0.05
 43
0.5
 44
0.1
 47
0.1
 48
0.1
 78
     7
140
0.12
141
0.0
146
0.71
147
0.06
176
   256
177
   256
178
     2
340
10DE
  0
DIMSTYLE
105
1101
330
10AC
100
AcDbSymbolTableRecord
100
AcDbDimStyleTableRecord
  2
AM_ANSI$3
 70
     0
  4
mm
 41
0.12
 42
0.05
 43
0.5
 44
0.1
 47
0.1
 48
0.1
 78
     7
140
0.12
141
0.0
146
0.71
147
0.06
176
   256
177
   256
178
     2
340
10DE
  0
DIMSTYLE
105
1102
330
10AC
100
AcDbSymbolTableRecord
100
AcDbDimStyleTableRecord
  2
AM_ANSI$4
 70
     0
  4
mm
 41
0.12
 42
0.05
 43
0.5
 44
0.1
 47
0.1
 48
0.1
 78
     7
140
0.12
141
0.0
146
0.71
147
0.06
176
   256
177
   256
178
     2
340
10DE
  0
DIMSTYLE
105
1103
330
10AC
100
AcDbSymbolTableRecord
100
AcDbDimStyleTableRecord
  2
AM_ANSI$7
 70
     0
  4
mm
 41
0.12
 42
0.05
 43
0.5
 44
0.1
 47
0.1
 48
0.1
 78
     7
140
0.12
141
0.0
146
0.71
147
0.06
176
   256
177
   256
178
     2
340
10DE
  0
DIMSTYLE
105
1104
330
10AC
100
AcDbSymbolTableRecord
100
AcDbDimStyleTableRecord
  2
AM_ANSI$SF
 70
     0
  4
mm
 41
0.12
 42
0.05
 43
0.5
 44
0.1
 47
0.1
 48
0.1
 75
     1
 76
     1
 78
     7
140
0.12
141
0.0
146
0.71
147
0.06
176
   256
177
   256
178
     2
340
10DE
  0
DIMSTYLE
105
1105
330
10AC
100
AcDbSymbolTableRecord
100
AcDbDimStyleTableRecord
  2
AM_ANSI$SH
 70
     0
  4
mm
 41
0.12
 42
0.05
 43
0.5
 44
0.1
 47
0.1
 48
0.1
 75
     1
 76
     1
 78
     7
140
0.12
141
0.0
146
0.71
147
0.06
173
     1
176
   256
177
   256
178
     2
340
10DE
341
110D
343
110D
  0
ENDTAB
  0
TABLE
  2
BLOCK_RECORD
  5
10A3
330
0
100
AcDbSymbolTable
 70
     3
  0
BLOCK_RECORD
  5
10BE
330
10A3
100
AcDbSymbolTableRecord
100
AcDbBlockTableRecord
  2
*Model_Space
340
10BF
 70
     0
280
     1
281
     0
  0
BLOCK_RECORD
  5
10BC
330
10A3
100
AcDbSymbolTableRecord
100
AcDbBlockTableRecord
  2
*Paper_Space
340
10BD
 70
     0
280
     1
281
     0
  0
BLOCK_RECORD
  5
1109
330
10A3
100
AcDbSymbolTableRecord
100
AcDbBlockTableRecord
  2
_OPEN
340
0
 70
     0
280
     1
281
     0
  0
BLOCK_RECORD
  5
110B
330
10A3
100
AcDbSymbolTableRecord
100
AcDbBlockTableRecord
  2
–îˆó‚È‚µ
340
0
102
{BLKREFS
331
6E6
331
E96
102
}
 70
     0
280
     1
281
     0
  0
BLOCK_RECORD
  5
110D
330
10A3
100
AcDbSymbolTableRecord
100
AcDbBlockTableRecord
  2
GENAXEH
340
0
 70
     0
280
     1
281
     0
  0
ENDTAB
  0
ENDSEC
  0
SECTION
  2
BLOCKS
  0
BLOCK
  5
1106
330
10BE
100
AcDbEntity
  8
0
100
AcDbBlockBegin
  2
*Model_Space
 70
     0
 10
0.0
 20
0.0
 30
0.0
  3
*Model_Space
  1

  0
ENDBLK
  5
1C
330
10BE
100
AcDbEntity
  8
0
100
AcDbBlockEnd
  0
BLOCK
  5
1107
330
10BC
100
AcDbEntity
 67
     1
  8
0
100
AcDbBlockBegin
  2
*Paper_Space
 70
     0
 10
0.0
 20
0.0
 30
0.0
  3
*Paper_Space
  1

  0
ENDBLK
  5
19
330
10BC
100
AcDbEntity
 67
     1
  8
0
100
AcDbBlockEnd
  0
BLOCK
  5
1108
330
1109
100
AcDbEntity
  8
0
100
AcDbBlockBegin
  2
_OPEN
 70
     0
 10
0.0
 20
0.0
 30
0.0
  3
_OPEN
  1

  0
LINE
  5
595
330
1109
100
AcDbEntity
  8
0
  6
ByBlock
 62
     0
100
AcDbLine
 10
-1.0
 20
0.16666667
 30
0.0
 11
0.0
 21
0.0
 31
0.0
  0
LINE
  5
596
330
1109
100
AcDbEntity
  8
0
  6
ByBlock
 62
     0
100
AcDbLine
 10
-1.0
 20
-0.16666667
 30
0.0
 11
0.0
 21
0.0
 31
0.0
  0
LINE
  5
597
330
1109
100
AcDbEntity
  8
0
  6
ByBlock
 62
     0
100
AcDbLine
 10
0.0
 20
0.0
 30
0.0
 11
-1.0
 21
0.0
 31
0.0
  0
ENDBLK
  5
599
330
1109
100
AcDbEntity
  8
0
100
AcDbBlockEnd
  0
BLOCK
  5
110A
330
110B
100
AcDbEntity
  8
0
100
AcDbBlockBegin
  2
–îˆó‚È‚µ
 70
     0
 10
0.0
 20
0.0
 30
0.0
  3
–îˆó‚È‚µ
  1

  0
ENDBLK
  5
6E5
330
110B
100
AcDbEntity
  8
0
100
AcDbBlockEnd
  0
BLOCK
  5
110C
330
110D
100
AcDbEntity
  8
0
100
AcDbBlockBegin
  2
GENAXEH
 70
     0
 10
0.0
 20
0.0
 30
0.0
  3
GENAXEH
  1

  0
LINE
  5
DD5
330
110D
100
AcDbEntity
  8
0
100
AcDbLine
 10
-1.0
 20
0.0
 30
0.0
 11
1.0
 21
0.0
 31
0.0
  0
ENDBLK
  5
DD7
330
110D
100
AcDbEntity
  8
0
100
AcDbBlockEnd
  0
ENDSEC
  0
SECTION
  2
ENTITIES
  0
INSERT
  5
6E6
330
10BE
100
AcDbEntity
  8
245
100
AcDbBlockReference
  2
–îˆó‚È‚µ
 10
175.62382697
 20
90.55123572
 30
0.0
  0
TEXT
  5
BC6
330
10BE
100
AcDbEntity
  8
241
  6
Continuous
100
AcDbText
 10
-50.0
 20
78.66666666666667
 30
0.0
 40
5.0
  1
CKB7-HMC32
  7
YOKO
 11
-50.0
 21
77.0
 31
0.0
100
AcDbText
 73
     1
  0
LINE
  5
E13
330
10BE
100
AcDbEntity
  8
245
  6
CENTER2
100
AcDbLine
 10
104.3
 20
0.0
 30
0.0
 11
-51.0
 21
0.0
 31
0.0
  0
ARC
  5
E18
330
10BE
100
AcDbEntity
  8
241
  6
Continuous
100
AcDbCircle
 10
79.07157288
 20
-27.96482165
 30
0.0
 40
2.828427124746197
100
AcDbArc
 50
270.0
 51
90.0
  0
ARC
  5
E19
330
10BE
100
AcDbEntity
  8
241
  6
Continuous
100
AcDbCircle
 10
67.72842712
 20
-27.96482165
 30
0.0
 40
2.828427124746197
100
AcDbArc
 50
90.0
 51
270.0
  0
LINE
  5
E1A
330
10BE
100
AcDbEntity
  8
240
  6
Continuous
100
AcDbLine
 10
103.3
 20
32.84560754000001
 30
0.0
 11
103.3
 21
-32.84560754000001
 31
0.0
1001
GRPNAME
1000
PASTMDAL
  0
ARC
  5
E1B
330
10BE
100
AcDbEntity
  8
240
  6
Continuous
100
AcDbCircle
 10
39.6
 20
-30.15
 30
0.0
 40
4.0
100
AcDbArc
 50
90.0
 51
180.0
1001
GRPNAME
1000
PASTMD0B
  0
LINE
  5
E1C
330
10BE
100
AcDbEntity
  8
241
  6
Continuous
100
AcDbLine
 10
35.6
 20
0.0
 30
0.0
 11
35.6
 21
-30.15
 31
0.0
1001
GRPNAME
1000
PASTMD0B
  0
LINE
  5
E1F
330
10BE
100
AcDbEntity
  8
240
  6
Continuous
100
AcDbLine
 10
0.0
 20
-45.0
 30
0.0
 11
0.0
 21
-23.0
 31
0.0
  0
LINE
  5
E21
330
10BE
100
AcDbEntity
  8
241
  6
Continuous
100
AcDbLine
 10
48.6
 20
-40.0
 30
0.0
 11
48.6
 21
0.0
 31
0.0
  0
LINE
  5
E22
330
10BE
100
AcDbEntity
  8
241
  6
Continuous
100
AcDbLine
 10
46.6
 20
-40.49999999999999
 30
0.0
 11
46.6
 21
0.0
 31
0.0
  0
LINE
  5
E23
330
10BE
100
AcDbEntity
  8
241
  6
Continuous
100
AcDbLine
 10
63.6
 20
-40.0
 30
0.0
 11
63.6
 21
0.0
 31
0.0
  0
LINE
  5
E24
330
10BE
100
AcDbEntity
  8
240
  6
Continuous
100
AcDbLine
 10
40.6
 20
-26.15
 30
0.0
 11
40.6
 21
-38.5
 31
0.0
1001
GRPNAME
1000
PASTMDAM
  0
LINE
  5
E25
330
10BE
100
AcDbEntity
  8
241
  6
Continuous
100
AcDbLine
 10
25.0
 20
-45.0
 30
0.0
 11
25.0
 21
0.0
 31
0.0
  0
LINE
  5
E26
330
10BE
100
AcDbEntity
  8
241
  6
Continuous
100
AcDbLine
 10
15.0
 20
-45.0
 30
0.0
 11
15.0
 21
0.0
 31
0.0
  0
LINE
  5
E27
330
10BE
100
AcDbEntity
  8
241
  6
Continuous
100
AcDbLine
 10
34.2
 20
-41.39999999999999
 30
0.0
 11
34.2
 21
0.0
 31
0.0
  0
LINE
  5
E28
330
10BE
100
AcDbEntity
  8
240
  6
Continuous
100
AcDbLine
 10
47.09999999999999
 20
-40.0
 30
0.0
 11
63.6
 21
-40.0
 31
0.0
  0
LINE
  5
E29
330
10BE
100
AcDbEntity
  8
240
  6
Continuous
100
AcDbLine
 10
34.2
 20
-45.0
 30
0.0
 11
0.0
 21
-45.0
 31
0.0
  0
LINE
  5
E2F
330
10BE
100
AcDbEntity
  8
240
  6
Continuous
100
AcDbLine
 10
34.2
 20
-45.0
 30
0.0
 11
34.2
 21
-41.39999999999999
 31
0.0
  0
LINE
  5
E30
330
10BE
100
AcDbEntity
  8
240
  6
Continuous
100
AcDbLine
 10
42.6
 20
-40.49999999999999
 30
0.0
 11
46.6
 21
-40.49999999999999
 31
0.0
  0
LINE
  5
E31
330
10BE
100
AcDbEntity
  8
240
  6
Continuous
100
AcDbLine
 10
35.6
 20
-30.15
 30
0.0
 11
35.6
 21
-40.0
 31
0.0
1001
GRPNAME
1000
PASTMD0B
  0
LINE
  5
E32
330
10BE
100
AcDbEntity
  8
240
  6
Continuous
100
AcDbLine
 10
34.2
 20
-41.39999999999999
 30
0.0
 11
35.6
 21
-40.0
 31
0.0
  0
ARC
  5
E33
330
10BE
100
AcDbEntity
  8
240
  6
Continuous
100
AcDbCircle
 10
42.6
 20
-38.5
 30
0.0
 40
2.0
100
AcDbArc
 50
180.0
 51
270.0
1001
GRPNAME
1000
PASTMDAM
  0
LINE
  5
E34
330
10BE
100
AcDbEntity
  8
240
  6
Continuous
100
AcDbLine
 10
47.09999999999999
 20
-40.0
 30
0.0
 11
46.6
 21
-40.49999999999999
 31
0.0
  0
ARC
  5
E35
330
10BE
100
AcDbEntity
  8
240
  6
Continuous
100
AcDbCircle
 10
98.3
 20
-32.84560754000001
 30
0.0
 40
5.000000000000006
100
AcDbArc
 50
275.0
 51
0.0
  0
LINE
  5
E36
330
10BE
100
AcDbEntity
  8
241
  6
Continuous
100
AcDbLine
 10
67.72842712
 20
-28.24891591
 30
0.0
 11
79.07157288
 21
-28.24891591
 31
0.0
  0
LINE
  5
E37
330
10BE
100
AcDbEntity
  8
241
  6
Continuous
100
AcDbLine
 10
67.72842712
 20
-30.79324878
 30
0.0
 11
79.07157288
 21
-30.79324878
 31
0.0
  0
LINE
  5
E38
330
10BE
100
AcDbEntity
  8
240
  6
Continuous
100
AcDbLine
 10
63.85
 20
-39.75
 30
0.0
 11
80.6
 21
-39.75
 31
0.0
  0
ARC
  5
E39
330
10BE
100
AcDbEntity
  8
241
  6
Continuous
100
AcDbCircle
 10
67.72842712
 20
-25.42048878
 30
0.0
 40
2.828427124746211
100
AcDbArc
 50
206.7294900599999
 51
270.0
  0
LINE
  5
E3A
330
10BE
100
AcDbEntity
  8
241
  6
Continuous
100
AcDbLine
 10
66.6
 20
-39.75
 30
0.0
 11
66.6
 21
-30.55840069
 31
0.0
  0
LINE
  5
E3B
330
10BE
100
AcDbEntity
  8
240
  6
Continuous
100
AcDbLine
 10
63.85
 20
-39.75
 30
0.0
 11
63.6
 21
-40.0
 31
0.0
  0
LINE
  5
E3C
330
10BE
100
AcDbEntity
  8
240
  6
Continuous
100
AcDbLine
 10
98.73577871
 20
-37.82658103
 30
0.0
 11
82.4660254
 21
-39.25
 31
0.0
  0
LINE
  5
E3D
330
10BE
100
AcDbEntity
  8
241
  6
Continuous
100
AcDbLine
 10
80.6
 20
-39.75
 30
0.0
 11
80.6
 21
-30.34471882
 31
0.0
  0
LINE
  5
E3E
330
10BE
100
AcDbEntity
  8
240
  6
Continuous
100
AcDbLine
 10
82.4660254
 20
-39.25
 30
0.0
 11
80.6
 21
-39.75
 31
0.0
  0
ARC
  5
E3F
330
10BE
100
AcDbEntity
  8
241
  6
Continuous
100
AcDbCircle
 10
79.07157288
 20
-25.42048878
 30
0.0
 40
2.828427124746211
100
AcDbArc
 50
270.0
 51
333.27050994
  0
LINE
  5
E40
330
10BE
100
AcDbEntity
  8
243
  6
HIDDEN2
100
AcDbLine
 10
38.2660254
 20
16.0
 30
0.0
 11
102.0
 21
16.0
 31
0.0
1001
GRPNAME
1000
PASTMDAR
  0
LINE
  5
E41
330
10BE
100
AcDbEntity
  8
240
  6
Continuous
100
AcDbLine
 10
47.09999999999999
 20
40.0
 30
0.0
 11
63.6
 21
40.0
 31
0.0
1001
GRPNAME
1000
PASTMD04
  0
ARC
  5
E42
330
10BE
100
AcDbEntity
  8
240
  6
Continuous
100
AcDbCircle
 10
42.6
 20
38.5
 30
0.0
 40
2.0
100
AcDbArc
 50
90.0
 51
180.0
1001
GRPNAME
1000
PASTMDAM
  0
LINE
  5
E43
330
10BE
100
AcDbEntity
  8
240
  6
Continuous
100
AcDbLine
 10
0.0
 20
45.0
 30
0.0
 11
0.0
 21
23.0
 31
0.0
  0
LINE
  5
E44
330
10BE
100
AcDbEntity
  8
241
  6
Continuous
100
AcDbLine
 10
34.2
 20
41.39999999999999
 30
0.0
 11
34.2
 21
0.0
 31
0.0
  0
LINE
  5
E45
330
10BE
100
AcDbEntity
  8
240
  6
Continuous
100
AcDbLine
 10
35.6
 20
30.15
 30
0.0
 11
35.6
 21
40.0
 31
0.0
1001
GRPNAME
1000
PASTMD0B
  0
LINE
  5
E46
330
10BE
100
AcDbEntity
  8
241
  6
Continuous
100
AcDbLine
 10
48.6
 20
40.0
 30
0.0
 11
48.6
 21
0.0
 31
0.0
  0
LINE
  5
E47
330
10BE
100
AcDbEntity
  8
241
  6
Continuous
100
AcDbLine
 10
46.6
 20
40.49999999999999
 30
0.0
 11
46.6
 21
0.0
 31
0.0
  0
LINE
  5
E48
330
10BE
100
AcDbEntity
  8
241
  6
Continuous
100
AcDbLine
 10
25.0
 20
0.0
 30
0.0
 11
25.0
 21
45.0
 31
0.0
  0
LINE
  5
E49
330
10BE
100
AcDbEntity
  8
241
  6
Continuous
100
AcDbLine
 10
15.0
 20
45.0
 30
0.0
 11
15.0
 21
0.0
 31
0.0
  0
LINE
  5
E4B
330
10BE
100
AcDbEntity
  8
241
  6
Continuous
100
AcDbLine
 10
0.0
 20
23.0
 30
0.0
 11
0.0
 21
0.0
 31
0.0
  0
LINE
  5
E50
330
10BE
100
AcDbEntity
  8
241
  6
Continuous
100
AcDbLine
 10
0.0
 20
-23.0
 30
0.0
 11
0.0
 21
0.0
 31
0.0
  0
LINE
  5
E5A
330
10BE
100
AcDbEntity
  8
241
  6
Continuous
100
AcDbLine
 10
35.6
 20
0.0
 30
0.0
 11
35.6
 21
30.15
 31
0.0
1001
GRPNAME
1000
PASTMD0B
  0
LINE
  5
E5B
330
10BE
100
AcDbEntity
  8
241
  6
Continuous
100
AcDbLine
 10
40.6
 20
26.15
 30
0.0
 11
40.6
 21
0.0
 31
0.0
  0
LINE
  5
E5C
330
10BE
100
AcDbEntity
  8
241
  6
Continuous
100
AcDbLine
 10
40.6
 20
-26.15
 30
0.0
 11
40.6
 21
0.0
 31
0.0
  0
LINE
  5
E5D
330
10BE
100
AcDbEntity
  8
240
  6
Continuous
100
AcDbLine
 10
39.6
 20
-26.15
 30
0.0
 11
40.6
 21
-26.15
 31
0.0
  0
LINE
  5
E5E
330
10BE
100
AcDbEntity
  8
240
  6
Continuous
100
AcDbLine
 10
40.6
 20
26.15
 30
0.0
 11
40.6
 21
38.5
 31
0.0
1001
GRPNAME
1000
PASTMDAM
  0
ARC
  5
E5F
330
10BE
100
AcDbEntity
  8
240
  6
Continuous
100
AcDbCircle
 10
39.6
 20
30.15
 30
0.0
 40
4.0
100
AcDbArc
 50
180.0
 51
270.0
1001
GRPNAME
1000
PASTMD0B
  0
LINE
  5
E60
330
10BE
100
AcDbEntity
  8
240
  6
Continuous
100
AcDbLine
 10
39.6
 20
26.15
 30
0.0
 11
40.6
 21
26.15
 31
0.0
  0
LINE
  5
E61
330
10BE
100
AcDbEntity
  8
240
  6
Continuous
100
AcDbLine
 10
34.2
 20
45.0
 30
0.0
 11
0.0
 21
45.0
 31
0.0
  0
LINE
  5
E64
330
10BE
100
AcDbEntity
  8
240
  6
Continuous
100
AcDbLine
 10
42.6
 20
40.49999999999999
 30
0.0
 11
46.6
 21
40.49999999999999
 31
0.0
1001
GRPNAME
1000
PASTMD04
  0
LINE
  5
E65
330
10BE
100
AcDbEntity
  8
240
  6
Continuous
100
AcDbLine
 10
34.2
 20
41.39999999999999
 30
0.0
 11
35.6
 21
40.0
 31
0.0
  0
LINE
  5
E66
330
10BE
100
AcDbEntity
  8
240
  6
Continuous
100
AcDbLine
 10
34.2
 20
45.0
 30
0.0
 11
34.2
 21
41.39999999999999
 31
0.0
  0
LINE
  5
E67
330
10BE
100
AcDbEntity
  8
240
  6
Continuous
100
AcDbLine
 10
47.09999999999999
 20
40.0
 30
0.0
 11
46.6
 21
40.49999999999999
 31
0.0
1001
GRPNAME
1000
PASTMD04
  0
LINE
  5
E68
330
10BE
100
AcDbEntity
  8
240
  6
Continuous
100
AcDbLine
 10
82.4660254
 20
39.25
 30
0.0
 11
80.6
 21
39.75
 31
0.0
1001
GRPNAME
1000
PASTMD04
  0
LINE
  5
E69
330
10BE
100
AcDbEntity
  8
241
  6
Continuous
100
AcDbLine
 10
63.6
 20
40.0
 30
0.0
 11
63.6
 21
0.0
 31
0.0
  0
LINE
  5
E6A
330
10BE
100
AcDbEntity
  8
241
  6
Continuous
100
AcDbLine
 10
66.6
 20
39.75
 30
0.0
 11
66.6
 21
30.55840069
 31
0.0
  0
LINE
  5
E6B
330
10BE
100
AcDbEntity
  8
241
  6
Continuous
100
AcDbLine
 10
80.6
 20
39.75
 30
0.0
 11
80.6
 21
30.34471882
 31
0.0
  0
ARC
  5
E6C
330
10BE
100
AcDbEntity
  8
240
  6
Continuous
100
AcDbCircle
 10
98.3
 20
32.84560754000001
 30
0.0
 40
5.0
100
AcDbArc
 50
0.0
 51
85.00000000000001
  0
LINE
  5
E6E
330
10BE
100
AcDbEntity
  8
241
  6
Continuous
100
AcDbLine
 10
80.6
 20
25.58492448
 30
0.0
 11
80.6
 21
3.6
 31
0.0
  0
LINE
  5
E6F
330
10BE
100
AcDbEntity
  8
241
  6
Continuous
100
AcDbLine
 10
66.6
 20
25.37124261
 30
0.0
 11
66.6
 21
3.867815919999999
 31
0.0
  0
ARC
  5
E70
330
10BE
100
AcDbEntity
  8
241
  6
Continuous
100
AcDbCircle
 10
77.9
 20
0.0
 30
0.0
 40
4.5
100
AcDbArc
 50
0.0
 51
90.0
  0
ARC
  5
E71
330
10BE
100
AcDbEntity
  8
241
  6
Continuous
100
AcDbCircle
 10
77.9
 20
0.0
 30
0.0
 40
4.5
100
AcDbArc
 50
0.0
 51
90.0
  0
ARC
  5
E72
330
10BE
100
AcDbEntity
  8
241
  6
Continuous
100
AcDbCircle
 10
77.9
 20
0.0
 30
0.0
 40
4.0
100
AcDbArc
 50
0.0
 51
90.0
  0
LINE
  5
E73
330
10BE
100
AcDbEntity
  8
241
  6
Continuous
100
AcDbLine
 10
67.72842712
 20
-25.13639453
 30
0.0
 11
79.07157288
 21
-25.13639453
 31
0.0
  0
ARC
  5
E74
330
10BE
100
AcDbEntity
  8
241
  6
Continuous
100
AcDbCircle
 10
77.9
 20
0.0
 30
0.0
 40
4.0
100
AcDbArc
 50
270.0
 51
0.0
  0
ARC
  5
E75
330
10BE
100
AcDbEntity
  8
241
  6
Continuous
100
AcDbCircle
 10
77.9
 20
0.0
 30
0.0
 40
4.5
100
AcDbArc
 50
270.0
 51
0.0
  0
ARC
  5
E76
330
10BE
100
AcDbEntity
  8
241
  6
Continuous
100
AcDbCircle
 10
77.9
 20
0.0
 30
0.0
 40
4.5
100
AcDbArc
 50
270.0
 51
0.0
  0
LINE
  5
E77
330
10BE
100
AcDbEntity
  8
241
  6
Continuous
100
AcDbLine
 10
66.6
 20
-25.37124261
 30
0.0
 11
66.6
 21
-3.867815919999999
 31
0.0
  0
ARC
  5
E78
330
10BE
100
AcDbEntity
  8
241
  6
Continuous
100
AcDbCircle
 10
68.9
 20
0.0
 30
0.0
 40
4.0
100
AcDbArc
 50
90.0
 51
180.0
  0
ARC
  5
E79
330
10BE
100
AcDbEntity
  8
241
  6
Continuous
100
AcDbCircle
 10
68.9
 20
0.0
 30
0.0
 40
4.5
100
AcDbArc
 50
90.0
 51
180.0
  0
ARC
  5
E7A
330
10BE
100
AcDbEntity
  8
241
  6
Continuous
100
AcDbCircle
 10
68.9
 20
0.0
 30
0.0
 40
4.0
100
AcDbArc
 50
180.0
 51
270.0
  0
ARC
  5
E7B
330
10BE
100
AcDbEntity
  8
241
  6
Continuous
100
AcDbCircle
 10
68.9
 20
0.0
 30
0.0
 40
4.5
100
AcDbArc
 50
180.0
 51
270.0
  0
LINE
  5
E7C
330
10BE
100
AcDbEntity
  8
241
  6
Continuous
100
AcDbLine
 10
68.9
 20
-4.0
 30
0.0
 11
77.9
 21
-4.0
 31
0.0
  0
LINE
  5
E7D
330
10BE
100
AcDbEntity
  8
241
  6
Continuous
100
AcDbLine
 10
68.9
 20
-4.5
 30
0.0
 11
77.9
 21
-4.5
 31
0.0
  0
LINE
  5
E7E
330
10BE
100
AcDbEntity
  8
241
  6
Continuous
100
AcDbLine
 10
68.9
 20
-4.5
 30
0.0
 11
77.9
 21
-4.5
 31
0.0
  0
LINE
  5
E7F
330
10BE
100
AcDbEntity
  8
241
  6
Continuous
100
AcDbLine
 10
68.9
 20
4.5
 30
0.0
 11
77.9
 21
4.5
 31
0.0
  0
LINE
  5
E80
330
10BE
100
AcDbEntity
  8
241
  6
Continuous
100
AcDbLine
 10
68.9
 20
4.5
 30
0.0
 11
77.9
 21
4.5
 31
0.0
  0
LINE
  5
E81
330
10BE
100
AcDbEntity
  8
241
  6
Continuous
100
AcDbLine
 10
68.9
 20
4.0
 30
0.0
 11
77.9
 21
4.0
 31
0.0
  0
LINE
  5
E82
330
10BE
100
AcDbEntity
  8
241
  6
Continuous
100
AcDbLine
 10
80.6
 20
-25.58492448
 30
0.0
 11
80.6
 21
-3.6
 31
0.0
  0
LINE
  5
E83
330
10BE
100
AcDbEntity
  8
241
  6
Continuous
100
AcDbLine
 10
67.72842712
 20
30.79324878
 30
0.0
 11
79.07157288
 21
30.79324878
 31
0.0
  0
LINE
  5
E84
330
10BE
100
AcDbEntity
  8
241
  6
Continuous
100
AcDbLine
 10
67.72842712
 20
28.24891591
 30
0.0
 11
79.07157288
 21
28.24891591
 31
0.0
  0
LINE
  5
E85
330
10BE
100
AcDbEntity
  8
241
  6
Continuous
100
AcDbLine
 10
67.72842712
 20
25.13639453
 30
0.0
 11
79.07157288
 21
25.13639453
 31
0.0
  0
ARC
  5
E86
330
10BE
100
AcDbEntity
  8
241
  6
Continuous
100
AcDbCircle
 10
67.72842712
 20
25.42048878
 30
0.0
 40
2.828427124746211
100
AcDbArc
 50
90.0
 51
153.27050994
  0
ARC
  5
E87
330
10BE
100
AcDbEntity
  8
241
  6
Continuous
100
AcDbCircle
 10
67.72842712
 20
27.96482165
 30
0.0
 40
2.828427124746197
100
AcDbArc
 50
90.0
 51
270.0
  0
LINE
  5
E88
330
10BE
100
AcDbEntity
  8
240
  6
Continuous
100
AcDbLine
 10
98.73577871
 20
37.82658103
 30
0.0
 11
82.4660254
 21
39.25
 31
0.0
1001
GRPNAME
1000
PASTMD04
  0
ARC
  5
E89
330
10BE
100
AcDbEntity
  8
241
  6
Continuous
100
AcDbCircle
 10
79.07157288
 20
25.42048878
 30
0.0
 40
2.828427124746211
100
AcDbArc
 50
26.72949006
 51
90.0
  0
ARC
  5
E8A
330
10BE
100
AcDbEntity
  8
241
  6
Continuous
100
AcDbCircle
 10
79.07157288
 20
27.96482165
 30
0.0
 40
2.828427124746197
100
AcDbArc
 50
270.0
 51
90.0
  0
LINE
  5
E8B
330
10BE
100
AcDbEntity
  8
240
  6
Continuous
100
AcDbLine
 10
63.85
 20
39.75
 30
0.0
 11
80.6
 21
39.75
 31
0.0
1001
GRPNAME
1000
PASTMD04
  0
LINE
  5
E8C
330
10BE
100
AcDbEntity
  8
240
  6
Continuous
100
AcDbLine
 10
63.85
 20
39.75
 30
0.0
 11
63.6
 21
40.0
 31
0.0
1001
GRPNAME
1000
PASTMD04
  0
LINE
  5
E8E
330
10BE
100
AcDbEntity
  8
250
  6
Continuous
100
AcDbLine
 10
0.0
 20
45.49999999999999
 30
0.0
 11
0.0
 21
64.0
 31
0.0
  0
LINE
  5
E8F
330
10BE
100
AcDbEntity
  8
250
  6
Continuous
100
AcDbLine
 10
102.0
 20
25.1
 30
0.0
 11
102.0
 21
64.0
 31
0.0
  0
LINE
  5
E90
330
10BE
100
AcDbEntity
  8
250
  6
Continuous
100
AcDbLine
 10
2.229999999999999
 20
63.0
 30
0.0
 11
99.77
 21
63.0
 31
0.0
  0
LINE
  5
E94
330
10BE
100
AcDbEntity
  8
250
  6
Continuous
100
AcDbLine
 10
102.5
 20
16.0
 30
0.0
 11
116.3
 21
16.0
 31
0.0
  0
LINE
  5
E95
330
10BE
100
AcDbEntity
  8
250
  6
Continuous
100
AcDbLine
 10
115.3
 20
-13.77
 30
0.0
 11
115.3
 21
13.77
 31
0.0
  0
INSERT
  5
E96
330
10BE
100
AcDbEntity
  8
250
  6
Continuous
100
AcDbBlockReference
  2
–îˆó‚È‚µ
 10
115.3
 20
-16.0
 30
0.0
 41
2.229999999999999
 42
2.229999999999999
 43
2.229999999999999
 50
270.0
  0
LINE
  5
E99
330
10BE
100
AcDbEntity
  8
250
  6
Continuous
100
AcDbLine
 10
64.1
 20
-40.0
 30
0.0
 11
123.3
 21
-40.0
 31
0.0
  0
LINE
  5
E9A
330
10BE
100
AcDbEntity
  8
250
  6
Continuous
100
AcDbLine
 10
64.1
 20
40.0
 30
0.0
 11
123.3
 21
40.0
 31
0.0
  0
LINE
  5
E9B
330
10BE
100
AcDbEntity
  8
250
  6
Continuous
100
AcDbLine
 10
122.3
 20
-37.77000000000001
 30
0.0
 11
122.3
 21
37.77000000000001
 31
0.0
  0
TEXT
  5
F18
330
10BE
100
AcDbEntity
  8
250
  6
Continuous
100
AcDbText
 10
46.5
 20
64.0
 30
0.0
 40
3.0
  1
102
100
AcDbText
1001
ACAD
1000
MTEXTBEGIN
1070
    73
1070
     1
1070
    44
1040
1.0
1070
    74
1070
     0
1000
MTEXTEND
  0
LINE
  5
F19
330
10BE
100
AcDbEntity
  8
250
  6
Continuous
100
AcDbLine
 10
99.77
 20
63.3716666741
 30
0.0
 11
102.0
 21
63.0
 31
0.0
  0
LINE
  5
F1A
330
10BE
100
AcDbEntity
  8
250
  6
Continuous
100
AcDbLine
 10
99.77
 20
62.6283333259
 30
0.0
 11
102.0
 21
63.0
 31
0.0
  0
LINE
  5
F1B
330
10BE
100
AcDbEntity
  8
250
  6
Continuous
100
AcDbLine
 10
102.0
 20
63.0
 30
0.0
 11
99.77
 21
63.0
 31
0.0
  0
LINE
  5
F1C
330
10BE
100
AcDbEntity
  8
250
  6
Continuous
100
AcDbLine
 10
2.229999999999999
 20
62.6283333259
 30
0.0
 11
0.0
 21
63.0
 31
0.0
  0
LINE
  5
F1D
330
10BE
100
AcDbEntity
  8
250
  6
Continuous
100
AcDbLine
 10
2.229999999999999
 20
63.3716666741
 30
0.0
 11
0.0
 21
63.0
 31
0.0
  0
LINE
  5
F1E
330
10BE
100
AcDbEntity
  8
250
  6
Continuous
100
AcDbLine
 10
0.0
 20
63.0
 30
0.0
 11
2.229999999999999
 21
63.0
 31
0.0
  0
TEXT
  5
F1F
330
10BE
100
AcDbEntity
  8
250
  6
Continuous
100
AcDbText
 10
114.3
 20
-3.933333333333332
 30
0.0
 40
2.799999999999999
  1
∅32
 50
90.0
100
AcDbText
  0
LINE
  5
F20
330
10BE
100
AcDbEntity
  8
250
  6
Continuous
100
AcDbLine
 10
114.9283333259
 20
13.77
 30
0.0
 11
115.3
 21
16.0
 31
0.0
  0
LINE
  5
F21
330
10BE
100
AcDbEntity
  8
250
  6
Continuous
100
AcDbLine
 10
115.6716666741
 20
13.77
 30
0.0
 11
115.3
 21
16.0
 31
0.0
  0
LINE
  5
F22
330
10BE
100
AcDbEntity
  8
250
  6
Continuous
100
AcDbLine
 10
115.3
 20
16.0
 30
0.0
 11
115.3
 21
13.77
 31
0.0
  0
TEXT
  5
F23
330
10BE
100
AcDbEntity
  8
250
  6
Continuous
100
AcDbText
 10
121.3
 20
-4.214285714285714
 30
0.0
 40
3.0
  1
∅80
 50
90.0
100
AcDbText
1001
ACAD
1000
MTEXTBEGIN
1070
    73
1070
     1
1070
    44
1040
1.0
1070
    74
1070
     0
1000
MTEXTEND
  0
LINE
  5
F24
330
10BE
100
AcDbEntity
  8
250
  6
Continuous
100
AcDbLine
 10
121.9283333259
 20
37.77000000000001
 30
0.0
 11
122.3
 21
40.0
 31
0.0
  0
LINE
  5
F25
330
10BE
100
AcDbEntity
  8
250
  6
Continuous
100
AcDbLine
 10
122.6716666741
 20
37.77000000000001
 30
0.0
 11
122.3
 21
40.0
 31
0.0
  0
LINE
  5
F26
330
10BE
100
AcDbEntity
  8
250
  6
Continuous
100
AcDbLine
 10
122.3
 20
40.0
 30
0.0
 11
122.3
 21
37.77000000000001
 31
0.0
  0
LINE
  5
F27
330
10BE
100
AcDbEntity
  8
250
  6
Continuous
100
AcDbLine
 10
122.6716666741
 20
-37.77000000000001
 30
0.0
 11
122.3
 21
-40.0
 31
0.0
  0
LINE
  5
F28
330
10BE
100
AcDbEntity
  8
250
  6
Continuous
100
AcDbLine
 10
121.9283333259
 20
-37.77000000000001
 30
0.0
 11
122.3
 21
-40.0
 31
0.0
  0
LINE
  5
F29
330
10BE
100
AcDbEntity
  8
250
  6
Continuous
100
AcDbLine
 10
122.3
 20
-40.0
 30
0.0
 11
122.3
 21
-37.77000000000001
 31
0.0
  0
LINE
  5
FE9
330
10BE
100
AcDbEntity
  8
240
  6
Continuous
100
AcDbLine
 10
-50.0
 20
22.99999999999999
 30
0.0
 11
-21.00175144411553
 21
23.00000000000006
 31
0.0
  0
LINE
  5
FEA
330
10BE
100
AcDbEntity
  8
240
  6
Continuous
100
AcDbLine
 10
-50.0
 20
-23.00000000000002
 30
0.0
 11
-21.00175144411557
 21
-22.99999999999994
 31
0.0
  0
LINE
  5
FEB
330
10BE
100
AcDbEntity
  8
240
  6
Continuous
100
AcDbLine
 10
-50.0
 20
-23.00000000000002
 30
0.0
 11
-50.0
 21
22.99999999999998
 31
0.0
  0
LINE
  5
FEC
330
10BE
100
AcDbEntity
  8
240
  6
Continuous
100
AcDbLine
 10
-2.998249555884493
 20
-22.99999999999994
 30
0.0
 11
-5.885000111028825
 21
-28.0
 31
0.0
  0
LINE
  5
FED
330
10BE
100
AcDbEntity
  8
240
  6
Continuous
100
AcDbLine
 10
-21.00175144411557
 20
-22.99999999999994
 30
0.0
 11
-18.11500088897116
 21
-28.0
 31
0.0
  0
LINE
  5
FEE
330
10BE
100
AcDbEntity
  8
240
  6
Continuous
100
AcDbLine
 10
-18.11500088897116
 20
-28.0
 30
0.0
 11
-5.885000111028825
 21
-28.0
 31
0.0
  0
LINE
  5
FEF
330
10BE
100
AcDbEntity
  8
245
  6
CENTER2
100
AcDbLine
 10
-19.0
 20
14.15068100000002
 30
0.0
 11
-19.0
 21
-14.01412399999998
 31
0.0
  0
CIRCLE
  5
FF0
330
10BE
100
AcDbEntity
  8
241
  6
Continuous
100
AcDbCircle
 10
-19.0
 20
0.0
 30
0.0
 40
10.12499999999999
  0
CIRCLE
  5
FF1
330
10BE
100
AcDbEntity
  8
241
  6
Continuous
100
AcDbCircle
 10
-19.0
 20
0.0
 30
0.0
 40
7.5
  0
LINE
  5
FF2
330
10BE
100
AcDbEntity
  8
241
  6
Continuous
100
AcDbLine
 10
-21.00175144411557
 20
-22.99999999999994
 30
0.0
 11
-2.998249555884493
 21
-22.99999999999994
 31
0.0
  0
LINE
  5
FF3
330
10BE
100
AcDbEntity
  8
240
  6
Continuous
100
AcDbLine
 10
-2.998249555884493
 20
-22.99999999999994
 30
0.0
 11
-0.0000000000000515
 21
-23.0
 31
0.0
  0
LINE
  5
FF4
330
10BE
100
AcDbEntity
  8
240
  6
Continuous
100
AcDbLine
 10
-18.11500088897113
 20
28.0
 30
0.0
 11
-5.885000111028832
 21
28.0
 31
0.0
  0
LINE
  5
FF5
330
10BE
100
AcDbEntity
  8
241
  6
Continuous
100
AcDbLine
 10
-21.00175144411553
 20
23.00000000000006
 30
0.0
 11
-2.998249555884521
 21
23.00000000000006
 31
0.0
  0
LINE
  5
FF6
330
10BE
100
AcDbEntity
  8
240
  6
Continuous
100
AcDbLine
 10
-21.00175144411553
 20
23.00000000000006
 30
0.0
 11
-18.11500088897113
 21
28.0
 31
0.0
  0
LINE
  5
FF7
330
10BE
100
AcDbEntity
  8
240
  6
Continuous
100
AcDbLine
 10
-2.998249555884521
 20
23.00000000000006
 30
0.0
 11
0.00000000000081
 21
23.0
 31
0.0
  0
LINE
  5
FF8
330
10BE
100
AcDbEntity
  8
240
  6
Continuous
100
AcDbLine
 10
-2.998249555884521
 20
23.00000000000006
 30
0.0
 11
-5.885000111028832
 21
28.0
 31
0.0
  0
LINE
  5
FF9
330
10BE
100
AcDbEntity
  8
250
  6
Continuous
100
AcDbLine
 10
-46.52088774812122
 20
-37.55308768686683
 30
0.0
 11
-36.98436703938128
 21
-37.55308768686683
 31
0.0
  0
LINE
  5
FFA
330
10BE
100
AcDbEntity
  8
250
  6
Continuous
100
AcDbLine
 10
-36.98436703938128
 20
-37.55308768686683
 30
0.0
 11
-29.65999206646815
 21
-24.92886529418127
 31
0.0
  0
LINE
  5
FFB
330
10BE
100
AcDbEntity
  8
250
  6
Continuous
100
AcDbLine
 10
-29.65999206646815
 20
-24.92886529418127
 30
0.0
 11
-28.54089480666324
 21
-22.99999999999996
 31
0.0
  0
LINE
  5
FFC
330
10BE
100
AcDbEntity
  8
250
  6
Continuous
100
AcDbLine
 10
-29.40605213411254
 20
-25.07619724282044
 30
0.0
 11
-28.54089480666324
 21
-22.99999999999996
 31
0.0
  0
LINE
  5
FFD
330
10BE
100
AcDbEntity
  8
250
  6
Continuous
100
AcDbLine
 10
-28.54089480666324
 20
-22.99999999999996
 30
0.0
 11
-29.91393199882376
 21
-24.78153334554209
 31
0.0
  0
TEXT
  5
FFE
330
10BE
100
AcDbEntity
  8
250
  6
Continuous
100
AcDbText
 10
-46.92088774812122
 20
-36.15308768686683
 30
0.0
 40
2.799999999999998
  1
CK7
  7
YOKO
100
AcDbText
  0
LINE
  5
FFF
330
10BE
100
AcDbEntity
  8
247
  6
Continuous
100
AcDbLine
 10
7.999999999999507
 20
-34.25000000007039
 30
0.0
 11
7.999999999999508
 21
-27.55769230803039
 31
0.0
  0
ARC
  5
1000
330
10BE
100
AcDbEntity
  8
247
  6
Continuous
100
AcDbCircle
 10
6.250000000069507
 20
-34.25000000007039
 30
0.0
 40
1.749999999929999
100
AcDbArc
 50
180.0
 51
0.0
  0
ARC
  5
1001
330
10BE
100
AcDbEntity
  8
247
  6
Continuous
100
AcDbCircle
 10
6.250000000069507
 20
-27.55769230803039
 30
0.0
 40
1.749999999929999
100
AcDbArc
 50
0.0
 51
180.0
  0
LINE
  5
1002
330
10BE
100
AcDbEntity
  8
247
  6
Continuous
100
AcDbLine
 10
4.500000000139507
 20
-33.38461538472039
 30
0.0
 11
7.500000000019507
 21
-34.2448515419624
 31
0.0
  0
LINE
  5
1003
330
10BE
100
AcDbEntity
  8
247
  6
Continuous
100
AcDbLine
 10
5.923076923159507
 20
-32.48498381833622
 30
0.0
 11
5.923076923159507
 21
-33.79267612597621
 31
0.0
  0
ARC
  5
1004
330
10BE
100
AcDbEntity
  8
247
  6
Continuous
100
AcDbCircle
 10
5.049598667702483
 20
-32.14514381609018
 30
0.0
 40
0.5538165441895349
100
AcDbArc
 50
72.99788967529159
 51
172.9241662185123
  0
ARC
  5
1005
330
10BE
100
AcDbEntity
  8
247
  6
Continuous
100
AcDbCircle
 10
4.936033044465284
 20
-32.56687832302918
 30
0.0
 40
0.9904354236226808
100
AcDbArc
 50
4.7429368522014
 51
73.8492262732676
1001
GENIUS_GENOBJ-N-FIL_13
1002
{
1000
OWNER
1000
GEN
1002
}
1001
GENIUS_GENODEF_13
1002
{
1000
HIER
1070
     0
1002
}
1002
{
1000
MANEDIT
1070
     0
1002
}
1002
{
1000
NOSEL
1070
     0
1002
}
1002
{
1000
BEHIND
1070
     0
1002
}
1002
{
1000
OTHER
1070
     0
1002
}
1002
{
1000
REACTOR
1002
}
  0
LINE
  5
1006
330
10BE
100
AcDbEntity
  8
247
  6
Continuous
100
AcDbLine
 10
7.500000000019507
 20
-32.9371592343224
 30
0.0
 11
7.500000000019507
 21
-34.2448515419624
 31
0.0
  0
LINE
  5
1007
330
10BE
100
AcDbEntity
  8
247
  6
Continuous
100
AcDbLine
 10
4.500000000139507
 20
-33.38461538472039
 30
0.0
 11
4.500000000139511
 21
-32.0769230770804
 31
0.0
  0
ARC
  5
1008
330
10BE
100
AcDbEntity
  8
247
  6
Continuous
100
AcDbCircle
 10
6.482024232665064
 20
-32.56091963654736
 30
0.0
 40
0.5640818586791229
100
AcDbArc
 50
65.99094165253052
 51
172.2634434590695
  0
ARC
  5
1009
330
10BE
100
AcDbEntity
  8
247
  6
Continuous
100
AcDbCircle
 10
6.487429039186101
 20
-33.03826268534747
 30
0.0
 40
1.017605944623098
100
AcDbArc
 50
5.701985164258132
 51
77.27733843682091
1001
GENIUS_GENOBJ-N-FIL_13
1002
{
1000
OWNER
1000
GEN
1002
}
1001
GENIUS_GENODEF_13
1002
{
1000
HIER
1070
     0
1002
}
1002
{
1000
MANEDIT
1070
     0
1002
}
1002
{
1000
NOSEL
1070
     0
1002
}
1002
{
1000
BEHIND
1070
     0
1002
}
1002
{
1000
OTHER
1070
     0
1002
}
1002
{
1000
REACTOR
1002
}
  0
LINE
  5
100A
330
10BE
100
AcDbEntity
  8
247
  6
Continuous
100
AcDbLine
 10
7.500000000019507
 20
-31.2833130805424
 30
0.0
 11
4.500000000139511
 21
-30.4230769233004
 31
0.0
  0
LINE
  5
100B
330
10BE
100
AcDbEntity
  8
247
  6
Continuous
100
AcDbLine
 10
4.500000000139511
 20
-28.00000000032039
 30
0.0
 11
4.500000000139511
 21
-28.56573661945699
 31
0.0
  0
LINE
  5
100C
330
10BE
100
AcDbEntity
  8
247
  6
Continuous
100
AcDbLine
 10
7.500000000019507
 20
-29.46153846180039
 30
0.0
 11
7.500000000019507
 21
-28.84615384644039
 31
0.0
  0
ARC
  5
100D
330
10BE
100
AcDbEntity
  8
247
  6
Continuous
100
AcDbCircle
 10
6.583285135972894
 20
-27.70879120912325
 30
0.0
 40
2.252650082342212
100
AcDbArc
 50
202.3594881415267
 51
254.9932485428466
  0
ARC
  5
100E
330
10BE
100
AcDbEntity
  8
247
  6
Continuous
100
AcDbCircle
 10
5.308312655194025
 20
-28.37406947921362
 30
0.0
 40
0.8906723995727782
100
AcDbArc
 50
94.9945893190751
 51
155.1663289573036
1001
GENIUS_GENOBJ-N-FIL_13
1002
{
1000
OWNER
1000
GEN
1002
}
1001
GENIUS_GENODEF_13
1002
{
1000
HIER
1070
     0
1002
}
1002
{
1000
MANEDIT
1070
     0
1002
}
1002
{
1000
NOSEL
1070
     0
1002
}
1002
{
1000
BEHIND
1070
     0
1002
}
1002
{
1000
OTHER
1070
     0
1002
}
1002
{
1000
REACTOR
1002
}
  0
ARC
  5
100F
330
10BE
100
AcDbEntity
  8
247
  6
Continuous
100
AcDbCircle
 10
6.160145888667265
 20
-29.22645888621298
 30
0.0
 40
1.392781735586712
100
AcDbArc
 50
15.84609655577942
 51
82.32513700417054
  0
ARC
  5
1010
330
10BE
100
AcDbEntity
  8
247
  6
Continuous
100
AcDbCircle
 10
6.459243431526796
 20
-28.64221272584077
 30
0.0
 40
1.324563662670287
100
AcDbArc
 50
249.713601670498
 51
321.7887456564075
1001
GENIUS_GENOBJ-N-FIL_13
1002
{
1000
OWNER
1000
GEN
1002
}
1001
GENIUS_GENODEF_13
1002
{
1000
HIER
1070
     0
1002
}
1002
{
1000
MANEDIT
1070
     0
1002
}
1002
{
1000
NOSEL
1070
     0
1002
}
1002
{
1000
BEHIND
1070
     0
1002
}
1002
{
1000
OTHER
1070
     0
1002
}
1002
{
1000
REACTOR
1002
}
  0
LINE
  5
1011
330
10BE
100
AcDbEntity
  8
247
  6
Continuous
100
AcDbLine
 10
6.346153846219511
 20
-28.53846153876039
 30
0.0
 11
6.346153846219511
 21
-27.84615384648039
 31
0.0
  0
LINE
  5
1012
330
10BE
100
AcDbEntity
  8
247
  6
Continuous
100
AcDbLine
 10
4.500000000139511
 20
-34.25000000007039
 30
0.0
 11
4.500000000139511
 21
-33.57692307702039
 31
0.0
  0
LINE
  5
1017
330
10BE
100
AcDbEntity
  8
250
  6
Continuous
100
AcDbLine
 10
102.5
 20
-16.0
 30
0.0
 11
116.3
 21
-16.0
 31
0.0
  0
LINE
  5
1018
330
10BE
100
AcDbEntity
  8
250
  6
Continuous
100
AcDbLine
 10
114.9283333259
 20
-13.77
 30
0.0
 11
115.3
 21
-16.0
 31
0.0
  0
LINE
  5
1019
330
10BE
100
AcDbEntity
  8
250
  6
Continuous
100
AcDbLine
 10
115.6716666741
 20
-13.77
 30
0.0
 11
115.3
 21
-16.0
 31
0.0
  0
LINE
  5
101A
330
10BE
100
AcDbEntity
  8
250
  6
Continuous
100
AcDbLine
 10
115.3
 20
-16.0
 30
0.0
 11
115.3
 21
-13.77
 31
0.0
  0
LINE
  5
101B
330
10BE
100
AcDbEntity
  8
243
  6
HIDDEN2
100
AcDbLine
 10
38.2660254
 20
-16.0
 30
0.0
 11
102.0
 21
-16.0
 31
0.0
1001
GRPNAME
1000
PASTMDAR
  0
LINE
  5
101C
330
10BE
100
AcDbEntity
  8
243
  6
HIDDEN2
100
AcDbLine
 10
102.0
 20
24.6
 30
0.0
 11
102.0
 21
-24.6
 31
0.0
  0
VIEWPORT
  5
22
330
10BC
100
AcDbEntity
 67
     1
  8
0
100
AcDbViewport
 10
261.51769912
 20
148.5
 30
0.0
 40
523.03539823
 41
297.0
 68
     1
 69
    -1
 12
261.51769912
 22
148.5
 13
0.0
 23
0.0
 14
1.0
 24
1.0
 15
10.0
 25
10.0
 16
0.0
 26
0.0
 36
1.0
 17
0.0
 27
0.0
 37
0.0
 42
50.0
 43
0.0
 44
0.0
 45
297.0
 50
0.0
 51
0.0
 72
   100
 90
   557216
  1

281
     0
 71
     0
 74
     0
110
0.0
120
0.0
130
0.0
111
1.0
121
0.0
131
0.0
112
0.0
122
1.0
132
0.0
 79
     0
146
0.0
170
     0
 61
     5
292
     1
282
     1
141
0.0
142
0.0
 63
   256
1001
GENIUS_GENOBJ-N-SDF_13
1002
{
1000
OWNER
1000
GEN
1002
}
1001
GENIUS_GENODEF_13
1002
{
1000
HIER
1070
     0
1002
}
1002
{
1000
MANEDIT
1070
     0
1002
}
1002
{
1000
NOSEL
1070
     0
1002
}
1002
{
1000
BEHIND
1070
     0
1002
}
1002
{
1000
OTHER
1070
     0
1002
}
1002
{
1000
REACTOR
1002
}
1001
GENIUS_GENSCREG_15
1000
PF
1040
1.0
1000
DF
1040
1.0
1000
MIN
1011
0.0000000049999471
1021
0.0
1031
0.0
1000
MAX
1011
523.035398235
1021
297.0
1031
0.0
1000
FLAGS
1070
     4
  0
ENDSEC
  0
SECTION
  2
OBJECTS
  0
DICTIONARY
  5
10AE
330
0
100
AcDbDictionary
281
     1
  3
ACAD_GROUP
350
10AF
  3
ACAD_IMAGE_VARS
350
1133
  3
ACAD_LAYOUT
350
10BB
  3
ACAD_MLEADERSTYLE
350
113A
  3
ACAD_MLINESTYLE
350
10B8
  3
ACAD_PLOTSETTINGS
350
10BA
  3
ACAD_PLOTSTYLENAME
350
10B0
  3
ACAD_SCALELIST
350
110E
  3
ACAD_TABLESTYLE
350
1130
  3
ACDB_RECOMPOSE_DATA
350
1138
  3
AcDbVariableDictionary
350
1134
  3
APPDATA
350
1132
  0
DICTIONARY
  5
10AF
102
{ACAD_REACTORS
330
10AE
102
}
330
10AE
100
AcDbDictionary
281
     1
  0
RASTERVARIABLES
  5
1133
102
{ACAD_REACTORS
330
10AE
102
}
330
10AE
100
AcDbRasterVariables
 90
        0
 70
     1
 71
     1
 72
     0
  0
DICTIONARY
  5
10BB
102
{ACAD_REACTORS
330
10AE
102
}
330
10AE
100
AcDbDictionary
281
     1
  3
Model
350
10BF
  3
Sheet1
350
10BD
  0
DICTIONARY
  5
113A
102
{ACAD_REACTORS
330
10AE
102
}
330
10AE
100
AcDbDictionary
281
     1
  0
DICTIONARY
  5
10B8
102
{ACAD_REACTORS
330
10AE
102
}
330
10AE
100
AcDbDictionary
281
     1
  3
Standard
350
10B9
  0
DICTIONARY
  5
10BA
102
{ACAD_REACTORS
330
10AE
102
}
330
10AE
100
AcDbDictionary
281
     1
  0
ACDBDICTIONARYWDFLT
  5
10B0
102
{ACAD_REACTORS
330
10AE
102
}
330
10AE
100
AcDbDictionary
281
     1
  3
Normal
350
10B1
100
AcDbDictionaryWithDefault
340
10B1
  0
DICTIONARY
  5
110E
102
{ACAD_REACTORS
330
10AE
102
}
330
10AE
100
AcDbDictionary
281
     1
  3
A0
350
110F
  3
A1
350
1110
  3
A2
350
1111
  3
A3
350
1112
  3
A4
350
1113
  3
A5
350
1114
  3
A6
350
1115
  3
A7
350
1116
  3
A8
350
1117
  3
A9
350
1118
  3
B0
350
1119
  3
B1
350
111A
  3
B2
350
111B
  3
B3
350
111C
  3
B4
350
111D
  3
B5
350
111E
  3
B6
350
111F
  3
B7
350
1120
  3
B8
350
1121
  3
B9
350
1122
  3
C0
350
1123
  3
C1
350
1124
  3
C2
350
1125
  3
C3
350
1126
  3
C4
350
1127
  3
C5
350
1128
  3
C6
350
1129
  3
C7
350
112A
  3
C8
350
112B
  3
C9
350
112C
  3
D0
350
112D
  3
D1
350
112E
  3
D2
350
112F
  0
DICTIONARY
  5
1130
102
{ACAD_REACTORS
330
10AE
102
}
330
10AE
100
AcDbDictionary
281
     1
  3
Standard
350
1131
  0
XRECORD
  5
1138
102
{ACAD_REACTORS
330
10AE
102
}
330
10AE
100
AcDbXrecord
280
     1
 90
        1
330
1131
  0
DICTIONARY
  5
1134
102
{ACAD_REACTORS
330
10AE
102
}
330
10AE
100
AcDbDictionary
281
     1
  3
CANNOSCALE
350
1135
  3
CTABLESTYLE
350
1139
  0
DICTIONARY
  5
1132
102
{ACAD_REACTORS
330
10AE
102
}
330
10AE
100
AcDbDictionary
281
     1
  0
LAYOUT
  5
10BF
102
{ACAD_REACTORS
330
10BB
102
}
330
10BB
100
AcDbPlotSettings
  1

  2
none_device
  4

  6

 40
0.0
 41
0.0
 42
0.0
 43
0.0
 44
0.0
 45
0.0
 46
0.0
 47
0.0
 48
0.0
 49
0.0
140
0.0
141
0.0
142
1.0
143
1.0
 70
  1712
 72
     0
 73
     0
 74
     0
  7

 75
     0
 76
     0
 77
     2
 78
   300
147
1.0
148
0.0
149
0.0
100
AcDbLayout
  1
Model
 70
     1
 71
     0
 10
0.0
 20
0.0
 11
12.0
 21
9.0
 12
0.0
 22
0.0
 32
0.0
 14
-51.0
 24
-45.0
 34
0.0
 15
123.3
 25
82.00000000000006
 35
0.0
146
0.0
 13
0.0
 23
0.0
 33
0.0
 16
1.0
 26
0.0
 36
0.0
 17
0.0
 27
1.0
 37
0.0
 76
     0
330
10BE
331
10C1
  0
LAYOUT
  5
10BD
102
{ACAD_REACTORS
330
10BB
102
}
330
10BB
100
AcDbPlotSettings
  1

  2
none_device
  4

  6

 40
0.0
 41
0.0
 42
0.0
 43
0.0
 44
0.0
 45
0.0
 46
0.0
 47
0.0
 48
0.0
 49
0.0
140
0.0
141
0.0
142
1.0
143
1.0
 70
   688
 72
     0
 73
     0
 74
     5
  7

 75
    16
 76
     0
 77
     2
 78
   300
147
1.0
148
0.0
149
0.0
100
AcDbLayout
  1
Sheet1
 70
     1
 71
     1
 10
0.0
 20
0.0
 11
420.0
 21
297.0
 12
0.0
 22
0.0
 32
0.0
 14
1.000000000000000E+20
 24
1.000000000000000E+20
 34
1.000000000000000E+20
 15
-1.000000000000000E+20
 25
-1.000000000000000E+20
 35
-1.000000000000000E+20
146
0.0
 13
0.0
 23
0.0
 33
0.0
 16
1.0
 26
0.0
 36
0.0
 17
0.0
 27
1.0
 37
0.0
 76
     0
330
10BC
331
22
  0
MLINESTYLE
  5
10B9
102
{ACAD_REACTORS
330
10B8
102
}
330
10B8
100
AcDbMlineStyle
  2
Standard
 70
     0
  3

 62
   256
 51
90.0
 52
90.0
 71
     2
 49
0.5
 62
   256
  6
BYLAYER
 49
-0.5
 62
   256
  6
BYLAYER
  0
ACDBPLACEHOLDER
  5
10B1
102
{ACAD_REACTORS
330
10B0
102
}
330
10B0
  0
SCALE
  5
110F
102
{ACAD_REACTORS
330
110E
102
}
330
110E
100
AcDbScale
 70
     0
300
1:1
140
1.0
141
1.0
290
     1
  0
SCALE
  5
1110
102
{ACAD_REACTORS
330
110E
102
}
330
110E
100
AcDbScale
 70
     0
300
1:2
140
1.0
141
2.0
290
     0
  0
SCALE
  5
1111
102
{ACAD_REACTORS
330
110E
102
}
330
110E
100
AcDbScale
 70
     0
300
1:4
140
1.0
141
4.0
290
     0
  0
SCALE
  5
1112
102
{ACAD_REACTORS
330
110E
102
}
330
110E
100
AcDbScale
 70
     0
300
1:5
140
1.0
141
5.0
290
     0
  0
SCALE
  5
1113
102
{ACAD_REACTORS
330
110E
102
}
330
110E
100
AcDbScale
 70
     0
300
1:8
140
1.0
141
8.0
290
     0
  0
SCALE
  5
1114
102
{ACAD_REACTORS
330
110E
102
}
330
110E
100
AcDbScale
 70
     0
300
1:10
140
1.0
141
10.0
290
     0
  0
SCALE
  5
1115
102
{ACAD_REACTORS
330
110E
102
}
330
110E
100
AcDbScale
 70
     0
300
1:16
140
1.0
141
16.0
290
     0
  0
SCALE
  5
1116
102
{ACAD_REACTORS
330
110E
102
}
330
110E
100
AcDbScale
 70
     0
300
1:20
140
1.0
141
20.0
290
     0
  0
SCALE
  5
1117
102
{ACAD_REACTORS
330
110E
102
}
330
110E
100
AcDbScale
 70
     0
300
1:30
140
1.0
141
30.0
290
     0
  0
SCALE
  5
1118
102
{ACAD_REACTORS
330
110E
102
}
330
110E
100
AcDbScale
 70
     0
300
1:40
140
1.0
141
40.0
290
     0
  0
SCALE
  5
1119
102
{ACAD_REACTORS
330
110E
102
}
330
110E
100
AcDbScale
 70
     0
300
1:50
140
1.0
141
50.0
290
     0
  0
SCALE
  5
111A
102
{ACAD_REACTORS
330
110E
102
}
330
110E
100
AcDbScale
 70
     0
300
1:100
140
1.0
141
100.0
290
     0
  0
SCALE
  5
111B
102
{ACAD_REACTORS
330
110E
102
}
330
110E
100
AcDbScale
 70
     0
300
2:1
140
2.0
141
1.0
290
     0
  0
SCALE
  5
111C
102
{ACAD_REACTORS
330
110E
102
}
330
110E
100
AcDbScale
 70
     0
300
4:1
140
4.0
141
1.0
290
     0
  0
SCALE
  5
111D
102
{ACAD_REACTORS
330
110E
102
}
330
110E
100
AcDbScale
 70
     0
300
8:1
140
8.0
141
1.0
290
     0
  0
SCALE
  5
111E
102
{ACAD_REACTORS
330
110E
102
}
330
110E
100
AcDbScale
 70
     0
300
10:1
140
10.0
141
1.0
290
     0
  0
SCALE
  5
111F
102
{ACAD_REACTORS
330
110E
102
}
330
110E
100
AcDbScale
 70
     0
300
100:1
140
100.0
141
1.0
290
     0
  0
SCALE
  5
1120
102
{ACAD_REACTORS
330
110E
102
}
330
110E
100
AcDbScale
 70
     0
300
1/128" = 1'-0"
140
0.0078125
141
12.0
290
     0
  0
SCALE
  5
1121
102
{ACAD_REACTORS
330
110E
102
}
330
110E
100
AcDbScale
 70
     0
300
1/64" = 1'-0"
140
0.015625
141
12.0
290
     0
  0
SCALE
  5
1122
102
{ACAD_REACTORS
330
110E
102
}
330
110E
100
AcDbScale
 70
     0
300
1/32" = 1'-0"
140
0.03125
141
12.0
290
     0
  0
SCALE
  5
1123
102
{ACAD_REACTORS
330
110E
102
}
330
110E
100
AcDbScale
 70
     0
300
1/16" = 1'-0"
140
0.0625
141
12.0
290
     0
  0
SCALE
  5
1124
102
{ACAD_REACTORS
330
110E
102
}
330
110E
100
AcDbScale
 70
     0
300
3/32" = 1'-0"
140
0.09375
141
12.0
290
     0
  0
SCALE
  5
1125
102
{ACAD_REACTORS
330
110E
102
}
330
110E
100
AcDbScale
 70
     0
300
1/8" = 1'-0"
140
0.125
141
12.0
290
     0
  0
SCALE
  5
1126
102
{ACAD_REACTORS
330
110E
102
}
330
110E
100
AcDbScale
 70
     0
300
3/16" = 1'-0"
140
0.1875
141
12.0
290
     0
  0
SCALE
  5
1127
102
{ACAD_REACTORS
330
110E
102
}
330
110E
100
AcDbScale
 70
     0
300
1/4" = 1'-0"
140
0.25
141
12.0
290
     0
  0
SCALE
  5
1128
102
{ACAD_REACTORS
330
110E
102
}
330
110E
100
AcDbScale
 70
     0
300
3/8" = 1'-0"
140
0.375
141
12.0
290
     0
  0
SCALE
  5
1129
102
{ACAD_REACTORS
330
110E
102
}
330
110E
100
AcDbScale
 70
     0
300
1/2" = 1'-0"
140
0.5
141
12.0
290
     0
  0
SCALE
  5
112A
102
{ACAD_REACTORS
330
110E
102
}
330
110E
100
AcDbScale
 70
     0
300
3/4" = 1'-0"
140
0.75
141
12.0
290
     0
  0
SCALE
  5
112B
102
{ACAD_REACTORS
330
110E
102
}
330
110E
100
AcDbScale
 70
     0
300
1" = 1'-0"
140
1.0
141
12.0
290
     0
  0
SCALE
  5
112C
102
{ACAD_REACTORS
330
110E
102
}
330
110E
100
AcDbScale
 70
     0
300
1-1/2" = 1'-0"
140
1.5
141
12.0
290
     0
  0
SCALE
  5
112D
102
{ACAD_REACTORS
330
110E
102
}
330
110E
100
AcDbScale
 70
     0
300
3" = 1'-0"
140
3.0
141
12.0
290
     0
  0
SCALE
  5
112E
102
{ACAD_REACTORS
330
110E
102
}
330
110E
100
AcDbScale
 70
     0
300
6" = 1'-0"
140
6.0
141
12.0
290
     0
  0
SCALE
  5
112F
102
{ACAD_REACTORS
330
110E
102
}
330
110E
100
AcDbScale
 70
     0
300
1'-0" = 1'-0"
140
12.0
141
12.0
290
     0
  0
TABLESTYLE
  5
1131
102
{ACAD_REACTORS
330
1130
102
}
102
{ACAD_XDICTIONARY
360
1136
102
}
330
1130
100
AcDbTableStyle
  3
Standard
 70
     0
 71
     0
 40
0.06
 41
0.06
280
     0
281
     0
  7
STANDARD
140
0.18
170
     2
 62
     0
 63
   257
283
     0
 90
        4
 91
        0
  1

274
    -2
284
     1
 64
     0
275
    -2
285
     1
 65
     0
276
    -2
286
     1
 66
     0
277
    -2
287
     1
 67
     0
278
    -2
288
     1
 68
     0
279
    -2
289
     1
 69
     0
  7
STANDARD
140
0.25
170
     5
 62
     0
 63
   257
283
     0
 90
        4
 91
        0
  1

274
    -2
284
     1
 64
     0
275
    -2
285
     1
 65
     0
276
    -2
286
     1
 66
     0
277
    -2
287
     1
 67
     0
278
    -2
288
     1
 68
     0
279
    -2
289
     1
 69
     0
  7
STANDARD
140
0.18
170
     5
 62
     0
 63
   257
283
     0
 90
        4
 91
        0
  1

274
    -2
284
     1
 64
     0
275
    -2
285
     1
 65
     0
276
    -2
286
     1
 66
     0
277
    -2
287
     1
 67
     0
278
    -2
288
     1
 68
     0
279
    -2
289
     1
 69
     0
  0
DICTIONARYVAR
  5
1135
102
{ACAD_REACTORS
330
1134
102
}
330
1134
100
DictionaryVariables
280
     0
  1
1:1
  0
DICTIONARYVAR
  5
1139
102
{ACAD_REACTORS
330
1134
102
}
330
1134
100
DictionaryVariables
280
     0
  1
Standard
  0
DICTIONARY
  5
1136
330
1131
100
AcDbDictionary
280
     1
281
     1
  3
ACAD_ROUNDTRIP_2008_TABLESTYLE_CELLSTYLEMAP
360
1137
  0
CELLSTYLEMAP
  5
1137
102
{ACAD_REACTORS
330
1136
102
}
330
1136
100
AcDbCellStyleMap
 90
        3
300
CELLSTYLE
  1
TABLEFORMAT_BEGIN
 90
        5
170
     1
 91
        0
 92
        0
 62
   257
 93
        1
300
CONTENTFORMAT
  1
CONTENTFORMAT_BEGIN
 90
        0
 91
        0
 92
        4
 93
        0
300

 40
0.0
140
1.0
 94
        5
 62
     0
340
10B3
144
0.25
309
CONTENTFORMAT_END
171
     1
301
MARGIN
  1
CELLMARGIN_BEGIN
 40
0.06
 40
0.06
 40
0.06
 40
0.06
 40
0.06
 40
0.06
309
CELLMARGIN_END
 94
        6
 95
        1
302
GRIDFORMAT
  1
GRIDFORMAT_BEGIN
 90
        0
 91
        1
 62
     0
 92
       -2
340
10B5
 93
        0
 40
0.045
309
GRIDFORMAT_END
 95
        2
302
GRIDFORMAT
  1
GRIDFORMAT_BEGIN
 90
        0
 91
        1
 62
     0
 92
       -2
340
10B5
 93
        0
 40
0.045
309
GRIDFORMAT_END
 95
        4
302
GRIDFORMAT
  1
GRIDFORMAT_BEGIN
 90
        0
 91
        1
 62
     0
 92
       -2
340
10B5
 93
        0
 40
0.045
309
GRIDFORMAT_END
 95
        8
302
GRIDFORMAT
  1
GRIDFORMAT_BEGIN
 90
        0
 91
        1
 62
     0
 92
       -2
340
10B5
 93
        0
 40
0.045
309
GRIDFORMAT_END
 95
       16
302
GRIDFORMAT
  1
GRIDFORMAT_BEGIN
 90
        0
 91
        1
 62
     0
 92
       -2
340
10B5
 93
        0
 40
0.045
309
GRIDFORMAT_END
 95
       32
302
GRIDFORMAT
  1
GRIDFORMAT_BEGIN
 90
        0
 91
        1
 62
     0
 92
       -2
340
10B5
 93
        0
 40
0.045
309
GRIDFORMAT_END
309
TABLEFORMAT_END
  1
CELLSTYLE_BEGIN
 90
        1
 91
        1
300
_TITLE
309
CELLSTYLE_END
300
CELLSTYLE
  1
TABLEFORMAT_BEGIN
 90
        5
170
     1
 91
        0
 92
        0
 62
   257
 93
        1
300
CONTENTFORMAT
  1
CONTENTFORMAT_BEGIN
 90
        0
 91
        0
 92
        4
 93
        0
300

 40
0.0
140
1.0
 94
        5
 62
     0
340
10B3
144
0.18
309
CONTENTFORMAT_END
171
     1
301
MARGIN
  1
CELLMARGIN_BEGIN
 40
0.06
 40
0.06
 40
0.06
 40
0.06
 40
0.06
 40
0.06
309
CELLMARGIN_END
 94
        6
 95
        1
302
GRIDFORMAT
  1
GRIDFORMAT_BEGIN
 90
        0
 91
        1
 62
     0
 92
       -2
340
10B5
 93
        0
 40
0.045
309
GRIDFORMAT_END
 95
        2
302
GRIDFORMAT
  1
GRIDFORMAT_BEGIN
 90
        0
 91
        1
 62
     0
 92
       -2
340
10B5
 93
        0
 40
0.045
309
GRIDFORMAT_END
 95
        4
302
GRIDFORMAT
  1
GRIDFORMAT_BEGIN
 90
        0
 91
        1
 62
     0
 92
       -2
340
10B5
 93
        0
 40
0.045
309
GRIDFORMAT_END
 95
        8
302
GRIDFORMAT
  1
GRIDFORMAT_BEGIN
 90
        0
 91
        1
 62
     0
 92
       -2
340
10B5
 93
        0
 40
0.045
309
GRIDFORMAT_END
 95
       16
302
GRIDFORMAT
  1
GRIDFORMAT_BEGIN
 90
        0
 91
        1
 62
     0
 92
       -2
340
10B5
 93
        0
 40
0.045
309
GRIDFORMAT_END
 95
       32
302
GRIDFORMAT
  1
GRIDFORMAT_BEGIN
 90
        0
 91
        1
 62
     0
 92
       -2
340
10B5
 93
        0
 40
0.045
309
GRIDFORMAT_END
309
TABLEFORMAT_END
  1
CELLSTYLE_BEGIN
 90
        2
 91
        1
300
_HEADER
309
CELLSTYLE_END
300
CELLSTYLE
  1
TABLEFORMAT_BEGIN
 90
        5
170
     1
 91
        0
 92
        0
 62
   257
 93
        1
300
CONTENTFORMAT
  1
CONTENTFORMAT_BEGIN
 90
        0
 91
        0
 92
        4
 93
        0
300

 40
0.0
140
1.0
 94
        2
 62
     0
340
10B3
144
0.18
309
CONTENTFORMAT_END
171
     1
301
MARGIN
  1
CELLMARGIN_BEGIN
 40
0.06
 40
0.06
 40
0.06
 40
0.06
 40
0.06
 40
0.06
309
CELLMARGIN_END
 94
        6
 95
        1
302
GRIDFORMAT
  1
GRIDFORMAT_BEGIN
 90
        0
 91
        1
 62
     0
 92
       -2
340
10B5
 93
        0
 40
0.045
309
GRIDFORMAT_END
 95
        2
302
GRIDFORMAT
  1
GRIDFORMAT_BEGIN
 90
        0
 91
        1
 62
     0
 92
       -2
340
10B5
 93
        0
 40
0.045
309
GRIDFORMAT_END
 95
        4
302
GRIDFORMAT
  1
GRIDFORMAT_BEGIN
 90
        0
 91
        1
 62
     0
 92
       -2
340
10B5
 93
        0
 40
0.045
309
GRIDFORMAT_END
 95
        8
302
GRIDFORMAT
  1
GRIDFORMAT_BEGIN
 90
        0
 91
        1
 62
     0
 92
       -2
340
10B5
 93
        0
 40
0.045
309
GRIDFORMAT_END
 95
       16
302
GRIDFORMAT
  1
GRIDFORMAT_BEGIN
 90
        0
 91
        1
 62
     0
 92
       -2
340
10B5
 93
        0
 40
0.045
309
GRIDFORMAT_END
 95
       32
302
GRIDFORMAT
  1
GRIDFORMAT_BEGIN
 90
        0
 91
        1
 62
     0
 92
       -2
340
10B5
 93
        0
 40
0.045
309
GRIDFORMAT_END
309
TABLEFORMAT_END
  1
CELLSTYLE_BEGIN
 90
        3
 91
        2
300
_DATA
309
CELLSTYLE_END
  0
ENDSEC
  0
EOF
