  0
SECTION
  2
HEADER
  9
$ACADVER
  1
AC1009
  9
$INSBASE
 10
0.0
 20
0.0
 30
0.0
  9
$EXTMIN
 10
-45.538452135177593
 20
-46.999999999999979
 30
0.0
  9
$EXTMAX
 10
91.999984641019864
 20
82.000000000000014
 30
0.0
  9
$LIMMIN
 10
0.0
 20
0.0
  9
$LIMMAX
 10
297.0
 20
210.0
  9
$ORTHOMODE
 70
     0
  9
$REGENMODE
 70
     1
  9
$FILLMODE
 70
     1
  9
$QTEXTMODE
 70
     0
  9
$MIRRTEXT
 70
     1
  9
$DRAGMODE
 70
     2
  9
$LTSCALE
 40
10.0
  9
$OSMODE
 70
  3071
  9
$ATTMODE
 70
     1
  9
$TEXTSIZE
 40
3.0
  9
$TRACEWID
 40
1.0
  9
$TEXTSTYLE
  7
YOKO
  9
$CLAYER
  8
240
  9
$CELTYPE
  6
BYLAYER
  9
$CECOLOR
 62
   256
  9
$DIMSCALE
 40
1.0
  9
$DIMASZ
 40
2.2299999999999991
  9
$DIMEXO
 40
0.5
  9
$DIMDLI
 40
2.5
  9
$DIMRND
 40
0.0
  9
$DIMDLE
 40
0.0
  9
$DIMEXE
 40
1.0
  9
$DIMTP
 40
0.0
  9
$DIMTM
 40
0.0
  9
$DIMTXT
 40
3.0
  9
$DIMCEN
 40
0.0
  9
$DIMTSZ
 40
0.0
  9
$DIMTOL
 70
     0
  9
$DIMLIM
 70
     0
  9
$DIMTIH
 70
     0
  9
$DIMTOH
 70
     0
  9
$DIMSE1
 70
     0
  9
$DIMSE2
 70
     0
  9
$DIMTAD
 70
     3
  9
$DIMZIN
 70
     8
  9
$DIMBLK
  1
OPEN
  9
$DIMASO
 70
     1
  9
$DIMSHO
 70
     1
  9
$DIMPOST
  1

  9
$DIMAPOST
  1

  9
$DIMALT
 70
     0
  9
$DIMALTD
 70
     2
  9
$DIMALTF
 40
25.399999999999999
  9
$DIMLFAC
 40
1.0
  9
$DIMTOFL
 70
     1
  9
$DIMTVP
 40
0.0
  9
$DIMTIX
 70
     0
  9
$DIMSOXD
 70
     0
  9
$DIMSAH
 70
     0
  9
$DIMBLK1
  1

  9
$DIMBLK2
  1

  9
$DIMSTYLE
  2
BIGT
  9
$DIMCLRD
 70
   256
  9
$DIMCLRE
 70
   256
  9
$DIMCLRT
 70
    40
  9
$DIMTFAC
 40
1.0
  9
$DIMGAP
 40
1.0
  9
$LUNITS
 70
     2
  9
$LUPREC
 70
     2
  9
$SKETCHINC
 40
1.0
  9
$FILLETRAD
 40
0.0
  9
$AUNITS
 70
     0
  9
$AUPREC
 70
     3
  9
$MENU
  1
.
  9
$ELEVATION
 40
0.0
  9
$PELEVATION
 40
0.0
  9
$THICKNESS
 40
0.0
  9
$LIMCHECK
 70
     0
  9
$BLIPMODE
 70
     0
  9
$CHAMFERA
 40
10.0
  9
$CHAMFERB
 40
10.0
  9
$SKPOLY
 70
     0
  9
$TDCREATE
 40
2452366.6050689011
  9
$TDUPDATE
 40
2455812.5771289351
  9
$TDINDWG
 40
0.0135527546
  9
$TDUSRTIMER
 40
0.0135525694
  9
$USRTIMER
 70
     1
  9
$ANGBASE
 50
0.0
  9
$ANGDIR
 70
     0
  9
$PDMODE
 70
    35
  9
$PDSIZE
 40
2.0
  9
$PLINEWID
 40
0.0
  9
$COORDS
 70
     1
  9
$SPLFRAME
 70
     0
  9
$SPLINETYPE
 70
     6
  9
$SPLINESEGS
 70
     8
  9
$ATTDIA
 70
     1
  9
$ATTREQ
 70
     1
  9
$HANDLING
 70
     1
  9
$HANDSEED
  5
11D0
  9
$SURFTAB1
 70
     6
  9
$SURFTAB2
 70
     6
  9
$SURFTYPE
 70
     6
  9
$SURFU
 70
     6
  9
$SURFV
 70
     6
  9
$UCSNAME
  2

  9
$UCSORG
 10
0.0
 20
0.0
 30
0.0
  9
$UCSXDIR
 10
1.0
 20
0.0
 30
0.0
  9
$UCSYDIR
 10
0.0
 20
1.0
 30
0.0
  9
$PUCSNAME
  2

  9
$PUCSORG
 10
0.0
 20
0.0
 30
0.0
  9
$PUCSXDIR
 10
1.0
 20
0.0
 30
0.0
  9
$PUCSYDIR
 10
0.0
 20
1.0
 30
0.0
  9
$USERI1
 70
     1
  9
$USERI2
 70
     0
  9
$USERI3
 70
     0
  9
$USERI4
 70
     0
  9
$USERI5
 70
     0
  9
$USERR1
 40
0.0
  9
$USERR2
 40
0.0
  9
$USERR3
 40
0.0
  9
$USERR4
 40
0.0
  9
$USERR5
 40
0.0
  9
$WORLDVIEW
 70
     1
  9
$SHADEDGE
 70
     3
  9
$SHADEDIF
 70
    70
  9
$TILEMODE
 70
     1
  9
$MAXACTVP
 70
    16
  9
$PLIMCHECK
 70
     0
  9
$PEXTMIN
 10
1.0000000000000000E+020
 20
1.0000000000000000E+020
 30
1.0000000000000000E+020
  9
$PEXTMAX
 10
-1.0000000000000000E+020
 20
-1.0000000000000000E+020
 30
-1.0000000000000000E+020
  9
$PLIMMIN
 10
0.0
 20
0.0
  9
$PLIMMAX
 10
420.0
 20
297.0
  9
$UNITMODE
 70
     0
  9
$VISRETAIN
 70
     0
  9
$PLINEGEN
 70
     0
  9
$PSLTSCALE
 70
     1
  0
ENDSEC
  0
SECTION
  2
TABLES
  0
TABLE
  2
VPORT
 70
     1
  0
VPORT
  2
*ACTIVE
 70
     0
 10
0.0
 20
0.0
 11
1.0
 21
1.0
 12
23.231115764933602
 22
27.435267758749841
 13
0.0
 23
0.0
 14
7.0
 24
7.0
 15
7.0
 25
7.0
 16
0.0
 26
0.0
 36
1.0
 17
0.0
 27
0.0
 37
0.0
 40
130.0089708340727
 41
1.8471023427866831
 42
50.0
 43
0.0
 44
0.0
 50
0.0
 51
0.0
 71
     0
 72
  2000
 73
     1
 74
     0
 75
     0
 76
     0
 77
     0
 78
     0
  0
ENDTAB
  0
TABLE
  2
LTYPE
 70
    16
  0
LTYPE
  2
CONTINUOUS
 70
     0
  3
Solid line
 72
    65
 73
     0
 40
0.0
  0
LTYPE
  2
CENTER2
 70
     0
  3
___ _ ___ _ ___ _ ___ _ ___ _ ___ _ ___ _ ___ _
 72
    65
 73
     4
 40
1.125
 49
0.75
 49
-0.125
 49
0.125
 49
-0.125
  0
LTYPE
  2
HIDDEN
 70
     0
  3
Hidden __ __ __ __ __ __ __ __ __ __ __ __ __ _
 72
    65
 73
     2
 40
9.5249999999999986
 49
6.3499999999999979
 49
-3.174999999999998
  0
LTYPE
  2
PHANTOM2
 70
     0
  3
Phantom (.5x) ___ _ _ ___ _ _ ___ _ _ ___ _ _
 72
    65
 73
     6
 40
31.75
 49
15.875
 49
-3.174999999999998
 49
3.174999999999998
 49
-3.174999999999998
 49
3.174999999999998
 49
-3.174999999999998
  0
LTYPE
  2
CENTER
 70
     0
  3
Center ____ _ ____ _ ____ _ ____ _ ____ _ ____
 72
    65
 73
     4
 40
50.799999999999997
 49
31.75
 49
-6.3499999999999979
 49
6.3499999999999979
 49
-6.3499999999999979
  0
LTYPE
  2
AMCONSTR
 70
     0
  3
_______________________
 72
    65
 73
     2
 40
9999.0
 49
9999.0
 49
0.0
  0
LTYPE
  2
HIDDEN2
 70
     0
  3
Hidden (.5x) _ _ _ _ _ _ _ _ _ _ _ _ _ _ _ _ _
 72
    65
 73
     2
 40
0.1875
 49
0.125
 49
-0.0625
  0
LTYPE
  2
AMZIGZAG2
 70
     0
  3
/\/-/\/-/\/-/\/-/\/-/\/
 72
    65
 73
     2
 40
0.4401
 49
0.0001
 49
-0.4400000000000001
  0
LTYPE
  2
ACANSTGB
 70
     0
  3
__ . . __ . .
 72
    65
 73
     6
 40
0.35433070866
 49
0.15748031496
 49
-0.03937007874
 49
0.03937007874
 49
-0.03937007874
 49
0.03937007874
 49
-0.03937007874
  0
LTYPE
  2
ACANSTGL
 70
     0
  3
_ _ _ _ _
 72
    65
 73
     2
 40
0.11811023622
 49
0.07874015748
 49
-0.03937007874
  0
ENDTAB
  0
TABLE
  2
LAYER
 70
     6
  0
LAYER
  2
0
 70
     0
 62
     7
  6
CONTINUOUS
  0
LAYER
  2
240
 70
     0
 62
     4
  6
CONTINUOUS
  0
LAYER
  2
241
 70
     0
 62
   211
  6
CONTINUOUS
  0
LAYER
  2
245
 70
     0
 62
     2
  6
CENTER2
  0
LAYER
  2
250
 70
     0
 62
     3
  6
CONTINUOUS
  0
LAYER
  2
DEFPOINTS
 70
     0
 62
     7
  6
CONTINUOUS
  0
ENDTAB
  0
TABLE
  2
STYLE
 70
     5
  0
STYLE
  2
STANDARD
 70
     0
 40
0.0
 41
1.0
 50
0.0
 71
     0
 42
3.0
  3
romans.shx
  4
BIGFONT.SHX
  0
STYLE
  2
YOKO
 70
     0
 40
0.0
 41
1.0
 50
0.0
 71
     0
 42
3.0
  3
romans.shx
  4
extfont.shx
  0
STYLE
  2

 70
     1
 40
0.0
 41
1.0
 50
0.0
 71
     0
 42
3.0
  3
genltshp.shx
  4

  0
STYLE
  2
ACANSGDT
 70
     0
 40
0.0
 41
1.0
 50
0.0
 71
     0
 42
3.0
  3
amgdt.shx
  4

  0
ENDTAB
  0
TABLE
  2
VIEW
 70
     0
  0
ENDTAB
  0
TABLE
  2
UCS
 70
     0
  0
ENDTAB
  0
TABLE
  2
APPID
 70
    28
  0
APPID
  2
ACAD
 70
     0
  0
APPID
  2
ACADANNOTATIVE
 70
     0
  0
APPID
  2
GLOBAL
 70
     0
  0
APPID
  2
DETAIL
 70
     0
  0
APPID
  2
GRPNAME
 70
     0
  0
APPID
  2
GPARA
 70
     0
  0
APPID
  2
HATCH_TYPE
 70
     0
  0
APPID
  2
HATCH_DISPLAY
 70
     0
  0
APPID
  2
HATCH_DISTANCE
 70
     0
  0
APPID
  2
ITEMNAME
 70
     0
  0
APPID
  2
MCAD_NO_VIS
 70
     0
  0
APPID
  2
ACAD_TEMP_GRAPHIC
 70
     0
  0
APPID
  2
AD_DRAW
 70
     0
  0
APPID
  2
ACATTRIBSERVICES
 70
     0
  0
APPID
  2
DESIGNERASSEMBLIES
 70
     0
  0
APPID
  2
ACADM_DIM_EDIT
 70
     0
  0
APPID
  2
AMDT_DM_ADJ
 70
     0
  0
APPID
  2
GENIUS_GENSCREG_15
 70
     0
  0
APPID
  2
GENIUS_GENOBJ-N-SDF_13
 70
     0
  0
APPID
  2
GENIUS_GENODEF_13
 70
     0
  0
APPID
  2
ACAD_DSTYLE_DIMJAG
 70
     0
  0
APPID
  2
ACAD_DSTYLE_DIMBREAK
 70
     0
  0
APPID
  2
ACAD_EXEMPT_FROM_CAD_STANDARDS
 70
     0
  0
APPID
  2
ACAD_MLEADERVER
 70
     0
  0
APPID
  2
ACAD_DSTYLE_DIMARC_LENGTH_
 70
     0
  0
APPID
  2
ACAD_DSTYLE_DIM_LINETYPE
 70
     0
  0
APPID
  2
ACAD_DSTYLE_DIM_EXT1_LINETYPE
 70
     0
  0
APPID
  2
ACAD_DSTYLE_DIM_EXT2_LINETYPE
 70
     0
  0
ENDTAB
  0
TABLE
  2
DIMSTYLE
 70
     8
  0
DIMSTYLE
  2
STANDARD
 70
     0
  3

  4

  5

  6

  7

 40
1.0
 41
2.0
 42
2.0
 43
3.75
 44
2.0
 45
0.0
 46
0.0
 47
0.0
 48
0.0
140
4.0
141
0.09
142
0.0
143
25.399999999999999
144
1.0
145
0.0
146
1.0
147
1.0
 71
     0
 72
     0
 73
     1
 74
     1
 75
     0
 76
     0
 77
     0
 78
     8
170
     0
171
     2
172
     0
173
     1
174
     0
175
     0
176
   256
177
   256
178
   256
  0
DIMSTYLE
  2
BIGT
 70
     0
  3

  4

  5

  6

  7

 40
1.0
 41
2.2299999999999991
 42
0.5
 43
2.5
 44
1.0
 45
0.0
 46
0.0
 47
0.0
 48
0.0
140
3.5
141
0.0
142
0.0
143
25.399999999999999
144
1.0
145
0.0
146
1.0
147
1.0
 71
     0
 72
     0
 73
     0
 74
     0
 75
     0
 76
     0
 77
     3
 78
     9
170
     0
171
     2
172
     1
173
     0
174
     0
175
     0
176
   256
177
   256
178
    40
  0
DIMSTYLE
  2
AM_ANSI
 70
     0
  3

  4
mm
  5

  6

  7

 40
1.0
 41
0.12
 42
0.05
 43
0.5
 44
0.1
 45
0.0
 46
0.0
 47
0.1
 48
0.1
140
0.12
141
0.0
142
0.0
143
25.399999999999999
144
1.0
145
0.0
146
0.71
147
0.06
 71
     0
 72
     0
 73
     1
 74
     1
 75
     0
 76
     0
 77
     0
 78
     7
170
     0
171
     2
172
     0
173
     0
174
     0
175
     0
176
   256
177
   256
178
     2
  0
DIMSTYLE
  2
AM_ANSI$3
 70
     0
  3

  4
mm
  5

  6

  7

 40
1.0
 41
0.12
 42
0.05
 43
0.5
 44
0.1
 45
0.0
 46
0.0
 47
0.1
 48
0.1
140
0.12
141
0.0
142
0.0
143
25.399999999999999
144
1.0
145
0.0
146
0.71
147
0.06
 71
     0
 72
     0
 73
     1
 74
     1
 75
     0
 76
     0
 77
     0
 78
     7
170
     0
171
     2
172
     0
173
     0
174
     0
175
     0
176
   256
177
   256
178
     2
  0
DIMSTYLE
  2
AM_ANSI$4
 70
     0
  3

  4
mm
  5

  6

  7

 40
1.0
 41
0.12
 42
0.05
 43
0.5
 44
0.1
 45
0.0
 46
0.0
 47
0.1
 48
0.1
140
0.12
141
0.0
142
0.0
143
25.399999999999999
144
1.0
145
0.0
146
0.71
147
0.06
 71
     0
 72
     0
 73
     1
 74
     1
 75
     0
 76
     0
 77
     0
 78
     7
170
     0
171
     2
172
     0
173
     0
174
     0
175
     0
176
   256
177
   256
178
     2
  0
DIMSTYLE
  2
AM_ANSI$7
 70
     0
  3

  4
mm
  5

  6

  7

 40
1.0
 41
0.12
 42
0.05
 43
0.5
 44
0.1
 45
0.0
 46
0.0
 47
0.1
 48
0.1
140
0.12
141
0.0
142
0.0
143
25.399999999999999
144
1.0
145
0.0
146
0.71
147
0.06
 71
     0
 72
     0
 73
     1
 74
     1
 75
     0
 76
     0
 77
     0
 78
     7
170
     0
171
     2
172
     0
173
     0
174
     0
175
     0
176
   256
177
   256
178
     2
  0
DIMSTYLE
  2
AM_ANSI$SF
 70
     0
  3

  4
mm
  5

  6

  7

 40
1.0
 41
0.12
 42
0.05
 43
0.5
 44
0.1
 45
0.0
 46
0.0
 47
0.1
 48
0.1
140
0.12
141
0.0
142
0.0
143
25.399999999999999
144
1.0
145
0.0
146
0.71
147
0.06
 71
     0
 72
     0
 73
     1
 74
     1
 75
     1
 76
     1
 77
     0
 78
     7
170
     0
171
     2
172
     0
173
     0
174
     0
175
     0
176
   256
177
   256
178
     2
  0
DIMSTYLE
  2
AM_ANSI$SH
 70
     0
  3

  4
mm
  5

  6
GENAXEH
  7

 40
1.0
 41
0.12
 42
0.05
 43
0.5
 44
0.1
 45
0.0
 46
0.0
 47
0.1
 48
0.1
140
0.12
141
0.0
142
0.0
143
25.399999999999999
144
1.0
145
0.0
146
0.71
147
0.06
 71
     0
 72
     0
 73
     1
 74
     1
 75
     1
 76
     1
 77
     0
 78
     7
170
     0
171
     2
172
     0
173
     1
174
     0
175
     0
176
   256
177
   256
178
     2
  0
ENDTAB
  0
ENDSEC
  0
SECTION
  2
BLOCKS
  0
BLOCK
  8
0
  2
$MODEL_SPACE
 70
     0
 10
0.0
 20
0.0
 30
0.0
  3
$MODEL_SPACE
  1

  0
ENDBLK
  5
E48
  8
0
  0
BLOCK
 67
     1
  8
0
  2
$PAPER_SPACE
 70
     0
 10
0.0
 20
0.0
 30
0.0
  3
$PAPER_SPACE
  1

  0
ENDBLK
  5
E44
 67
     1
  8
0
  0
BLOCK
  8
0
  2
_OPEN
 70
     0
 10
0.0
 20
0.0
 30
0.0
  3
_OPEN
  1

  0
LINE
  5
595
  8
0
  6
BYBLOCK
 62
     0
 10
-1.0
 20
0.1666666666666666
 30
0.0
 11
0.0
 21
0.0
 31
0.0
  0
LINE
  5
596
  8
0
  6
BYBLOCK
 62
     0
 10
-1.0
 20
-0.1666666666666666
 30
0.0
 11
0.0
 21
0.0
 31
0.0
  0
LINE
  5
597
  8
0
  6
BYBLOCK
 62
     0
 10
0.0
 20
0.0
 30
0.0
 11
-1.0
 21
0.0
 31
0.0
  0
ENDBLK
  5
599
  8
0
  0
BLOCK
  8
0
  2
GENAXEH
 70
     0
 10
0.0
 20
0.0
 30
0.0
  3
GENAXEH
  1

  0
LINE
  5
D2D
  8
0
 10
-1.0
 20
0.0
 30
0.0
 11
1.0
 21
0.0
 31
0.0
  0
ENDBLK
  5
D2F
  8
0
  0
ENDSEC
  0
SECTION
  2
ENTITIES
  0
TEXT
  5
910
  8
241
 10
-35.0
 20
77.0
 30
0.0
 40
5.0
  1
CKB6-C50100C
  7
YOKO
 11
-35.0
 21
77.0
 31
0.0
 73
     1
  0
LINE
  5
B52
  8
250
 10
-31.538452135177579
 20
-28.293304946426471
 30
0.0
 11
-45.538452135177593
 21
-28.293304946426471
 31
0.0
1001
ITEMNAME
1000
LNSP2
  0
LINE
  5
D3E
  8
250
 10
0.0
 20
32.232050000000008
 30
0.0
 11
0.000000000000002
 21
64.0
 31
0.0
  0
LINE
  5
D3F
  8
250
 10
65.000000000000071
 20
24.008288999999991
 30
0.0
 11
65.000000000000071
 21
64.0
 31
0.0
  0
LINE
  5
D40
  8
250
 10
2.2299999999999991
 20
63.0
 30
0.0
 11
62.770000000000067
 21
63.0
 31
0.0
  0
TEXT
  5
D44
  8
250
 10
-42.967023563749002
 20
-27.293304946426471
 30
0.0
 40
3.0
  1
CK6
  7
YOKO
1001
ITEMNAME
1000
LNSP3
1001
ACAD
1000
MTEXTBEGIN
1070
    73
1070
     1
1070
    44
1040
1.0
1070
    74
1070
     0
1000
MTEXTEND
  0
LINE
  5
D47
  8
250
 10
39.339680915469302
 20
50.000000000000021
 30
0.0
 11
91.999984641019864
 21
50.0
 31
0.0
  0
LINE
  5
D48
  8
250
 10
90.999984641019836
 20
47.77000000000001
 30
0.0
 11
90.999984641019836
 21
-6.2142888076605836
 31
0.0
  0
LINE
  5
D4B
  8
250
 10
64.339659782777005
 20
25.0
 30
0.0
 11
84.999992320509506
 21
25.0
 31
0.0
  0
LINE
  5
D4C
  8
250
 10
83.999992320509506
 20
22.769999999999989
 30
0.0
 11
83.999992320509506
 21
-4.7857171814901482
 31
0.0
  0
LINE
  5
D4F
  8
250
 10
-26.295278165675221
 20
-19.891820510176402
 30
0.0
 11
-31.538452135177579
 21
-28.293304946426471
 31
0.0
1001
ACAD
1000
DSTYLE
1002
{
1070
     5
1000
OPEN
1070
    78
1070
     8
1070
   140
1040
3.0
1002
}
  0
LINE
  5
D50
  8
250
 10
-26.610581584037941
 20
-19.695046869970462
 30
0.0
 11
-25.114636324439569
 21
-18.00000000000011
 31
0.0
  0
LINE
  5
D51
  8
250
 10
-25.979974747312511
 20
-20.088594150382349
 30
0.0
 11
-25.114636324439569
 21
-18.00000000000011
 31
0.0
  0
LINE
  5
D52
  8
250
 10
-25.114636324439569
 20
-18.00000000000011
 30
0.0
 11
-26.295278165675221
 21
-19.891820510176402
 31
0.0
  0
LINE
  5
D53
  8
250
 10
2.2299999999999991
 20
62.62833333333333
 30
0.0
 11
0.0000000000000019
 21
63.0
 31
0.0
  0
LINE
  5
D54
  8
250
 10
2.2299999999999991
 20
63.371666666666663
 30
0.0
 11
0.0000000000000019
 21
63.0
 31
0.0
  0
LINE
  5
D55
  8
250
 10
0.0000000000000019
 20
63.0
 30
0.0
 11
2.2299999999999991
 21
63.0
 31
0.0
  0
TEXT
  5
D56
  8
250
 10
82.999992320509506
 20
-4.0714314672044196
 30
0.0
 40
3.0
  1
\U+2205
 50
90.0
1001
ACAD
1000
MTEXTBEGIN
1070
    73
1070
     1
1070
    44
1040
1.0
1070
    74
1070
     0
1000
MTEXTEND
  0
TEXT
  5
D57
  8
250
 10
82.999992320509506
 20
-1.357145752918707
 30
0.0
 40
3.0
  1
50
 50
90.0
1001
ACAD
1000
MTEXTBEGIN
1070
    73
1070
     1
1070
    44
1040
1.0
1070
    74
1070
     0
1000
MTEXTEND
  0
TEXT
  5
D58
  8
250
 10
89.999984641019836
 20
-5.5000030933748549
 30
0.0
 40
3.0
  1
\U+2205
 50
90.0
1001
ACAD
1000
MTEXTBEGIN
1070
    73
1070
     1
1070
    44
1040
1.0
1070
    74
1070
     0
1000
MTEXTEND
  0
TEXT
  5
D59
  8
250
 10
89.999984641019836
 20
-2.785717379089141
 30
0.0
 40
3.0
  1
100
 50
90.0
1001
ACAD
1000
MTEXTBEGIN
1070
    73
1070
     1
1070
    44
1040
1.0
1070
    74
1070
     0
1000
MTEXTEND
  0
TEXT
  5
D5A
  8
250
 10
29.571428571428608
 20
64.0
 30
0.0
 40
3.0
  1
65
1001
ACAD
1000
MTEXTBEGIN
1070
    73
1070
     1
1070
    44
1040
1.0
1070
    74
1070
     0
1000
MTEXTEND
  0
LINE
  5
D5B
  8
250
 10
62.770000000000081
 20
63.37166666666667
 30
0.0
 11
65.000000000000071
 21
63.0
 31
0.0
  0
LINE
  5
D5C
  8
250
 10
62.770000000000081
 20
62.62833333333333
 30
0.0
 11
65.000000000000071
 21
63.0
 31
0.0
  0
LINE
  5
D5D
  8
250
 10
65.000000000000071
 20
63.0
 30
0.0
 11
62.770000000000081
 21
63.0
 31
0.0
  0
LINE
  5
D5E
  8
250
 10
83.628325653842836
 20
22.77
 30
0.0
 11
83.999992320509506
 21
25.0
 31
0.0
  0
LINE
  5
D5F
  8
250
 10
84.37165898717619
 20
22.77
 30
0.0
 11
83.999992320509506
 21
25.0
 31
0.0
  0
LINE
  5
D60
  8
250
 10
83.999992320509506
 20
25.0
 30
0.0
 11
83.999992320509506
 21
22.77
 31
0.0
  0
LINE
  5
D61
  8
250
 10
90.628317974353166
 20
47.77000000000001
 30
0.0
 11
90.999984641019836
 21
50.0
 31
0.0
  0
LINE
  5
D62
  8
250
 10
91.371651307686506
 20
47.77000000000001
 30
0.0
 11
90.999984641019836
 21
50.0
 31
0.0
  0
LINE
  5
D63
  8
250
 10
90.999984641019836
 20
50.0
 30
0.0
 11
90.999984641019836
 21
47.77000000000001
 31
0.0
  0
LINE
  5
F1C
  8
240
 10
13.464101000000021
 20
47.267949000000037
 30
0.0
 11
22.92820300000006
 21
52.732050000000001
 31
0.0
  0
LINE
  5
F1D
  8
241
 10
26.838786000000031
 20
39.550237000000031
 30
0.0
 11
20.44648600000005
 21
45.942537000000023
 31
0.0
  0
LINE
  5
F1E
  8
241
 10
20.87325300000003
 20
47.296067999999991
 30
0.0
 11
38.035077000000072
 21
50.322160999999987
 31
0.0
  0
LINE
  5
F20
  8
241
 10
41.571068000000068
 20
18.42893200000001
 30
0.0
 11
12.94205099999999
 21
47.05794800000001
 31
0.0
  0
LINE
  5
F22
  8
241
 10
23.20798000000002
 20
-34.177659999999989
 30
0.0
 11
15.36575600000003
 21
-32.718886999999981
 31
0.0
  0
LINE
  5
F23
  8
240
 10
13.906337000000059
 20
-46.999999999999979
 30
0.0
 11
45.304441000000033
 21
-42.945559999999993
 31
0.0
  0
LINE
  5
F24
  8
245
 10
67.86515600000007
 20
0.0
 30
0.0
 11
-43.120391999999981
 21
0.0
 31
0.0
  0
CIRCLE
  5
F26
  8
241
 10
-16.0
 20
0.0
 30
0.0
 40
4.5
  0
CIRCLE
  5
F27
  8
241
 10
-16.0
 20
0.0
 30
0.0
 40
5.9835000000000003
  0
LINE
  5
F28
  8
240
 10
-40.0
 20
17.267950000000042
 30
0.0
 11
-40.0
 21
-17.26794899999998
 31
0.0
  0
LINE
  5
F29
  8
241
 10
0.0
 20
18.0
 30
0.0
 11
0.0
 21
0.0
 31
0.0
  0
LINE
  5
F2A
  8
245
 10
-16.0
 20
9.4657440000000292
 30
0.0
 11
-16.0
 21
-9.8178649999999834
 31
0.0
  0
LINE
  5
F2B
  8
241
 10
-35.0
 20
18.0
 30
0.0
 11
-35.0
 21
0.0
 31
0.0
  0
LINE
  5
F2C
  8
241
 10
-37.177189000000048
 20
17.69401600000003
 30
0.0
 11
-37.177189000000077
 21
0.0
 31
0.0
  0
LINE
  5
F2D
  8
241
 10
4.0192380000000281
 20
45.577204000000002
 30
0.0
 11
4.0192380000000281
 21
0.0
 31
0.0
  0
LINE
  5
F2E
  8
240
 10
-35.0
 20
-18.0
 30
0.0
 11
-15.96613637079656
 21
-18.00000000000005
 31
0.0
  0
LINE
  5
F2F
  8
241
 10
-35.0
 20
-18.0
 30
0.0
 11
-35.0
 21
0.0
 31
0.0
  0
LINE
  5
F30
  8
241
 10
-37.177189000000048
 20
-17.694015999999969
 30
0.0
 11
-37.177189000000112
 21
0.0
 31
0.0
  0
LINE
  5
F31
  8
240
 10
-37.177189000000048
 20
-17.694015999999969
 30
0.0
 11
-35.0
 21
-18.0
 31
0.0
  0
LINE
  5
F32
  8
240
 10
-37.177189000000048
 20
-17.694015999999969
 30
0.0
 11
-38.826352000000043
 21
-17.984806999999979
 31
0.0
  0
LINE
  5
F33
  8
240
 10
-40.0
 20
-17.26794899999998
 30
0.0
 11
-39.866025000000022
 21
-17.5
 31
0.0
  0
ARC
  5
F34
  8
240
 10
-39.0
 20
-17.0
 30
0.0
 40
1.0
 50
209.9999999999996
 51
279.99999999999852
  0
LINE
  5
F35
  8
240
 10
0.0456370000000561
 20
-32.170318999999992
 30
0.0
 11
3.820639000000027
 21
-46.258819000000003
 31
0.0
  0
LINE
  5
F36
  8
241
 10
4.0192380000000281
 20
-45.577203999999981
 30
0.0
 11
4.0192380000000281
 21
0.0
 31
0.0
  0
ARC
  5
F37
  8
241
 10
15.0
 20
-34.68515799999998
 30
0.0
 40
2.0
 50
79.462548999999285
 51
180.0
  0
LINE
  5
F38
  8
240
 10
13.906337000000059
 20
-46.999999999999979
 30
0.0
 11
4.7865649999999951
 21
-46.999999999999979
 31
0.0
  0
ARC
  5
F39
  8
240
 10
4.7865649999999951
 20
-45.999999999999957
 30
0.0
 40
1.0
 50
195.00000000000031
 51
270.0
  0
LINE
  5
F3A
  8
241
 10
13.0
 20
-46.999999999999979
 30
0.0
 11
13.0
 21
-34.499141999999992
 31
0.0
  0
LINE
  5
F3B
  8
240
 10
-2.0338636292034362
 20
-18.00000000000005
 30
0.0
 11
0.0000000000001705
 21
-17.999999999999659
 31
0.0
  0
LINE
  5
F3C
  8
241
 10
-15.96613637079656
 20
-18.00000000000005
 30
0.0
 11
-2.033863708465645
 21
-18.00000029677738
 31
0.0
  0
LINE
  5
F3D
  8
240
 10
-13.40764999999999
 20
-21.499999999999989
 30
0.0
 11
-4.5923500000000077
 21
-21.499999999999989
 31
0.0
  0
LINE
  5
F3E
  8
240
 10
-15.866025000000031
 20
-18.241967999999918
 30
0.0
 11
-14.27367500000002
 21
-21.0
 31
0.0
  0
ARC
  5
F3F
  8
240
 10
-13.40764999999999
 20
-20.5
 30
0.0
 40
1.0
 50
209.9999999999996
 51
270.0
  0
ARC
  5
F40
  8
240
 10
-15.0
 20
-17.741967999999918
 30
0.0
 40
1.0
 50
194.9532939999996
 51
209.9999999999996
  0
LINE
  5
F41
  8
240
 10
-2.133974000000022
 20
-18.241967999999918
 30
0.0
 11
-3.7263250000000312
 21
-21.0
 31
0.0
  0
ARC
  5
F42
  8
240
 10
-4.5923500000000077
 20
-20.5
 30
0.0
 40
1.0
 50
270.0
 51
330.00000000000028
  0
ARC
  5
F43
  8
240
 10
-3.0
 20
-17.741967999999918
 30
0.0
 40
1.0
 50
330.00000000000028
 51
345.0466624293885
  0
LINE
  5
F44
  8
241
 10
0.0
 20
0.0
 30
0.0
 11
0.0
 21
-18.0
 31
0.0
  0
LINE
  5
F4A
  8
240
 10
0.0000000000001705
 20
-17.999999999999659
 30
0.0
 11
-0.0000000000000711
 21
-31.99999938838064
 31
0.0
  0
ARC
  5
F4B
  8
240
 10
1.0
 20
-31.732050999999981
 30
0.0
 40
1.0
 50
180.0
 51
210.0000000000008
  0
LINE
  5
FAE
  8
240
 10
-35.0
 20
18.0
 30
0.0
 11
-15.966136637872181
 21
18.00000000000005
 31
0.0
  0
LINE
  5
FAF
  8
240
 10
-37.177189000000048
 20
17.69401600000003
 30
0.0
 11
-35.0
 21
18.0
 31
0.0
  0
LINE
  5
FB0
  8
240
 10
-37.177189000000048
 20
17.69401600000003
 30
0.0
 11
-38.826352000000043
 21
17.984808000000019
 31
0.0
  0
ARC
  5
FB1
  8
240
 10
-39.0
 20
17.0
 30
0.0
 40
1.0
 50
80.000000000001407
 51
149.9999999999998
  0
LINE
  5
FB2
  8
240
 10
-40.0
 20
17.267950000000042
 30
0.0
 11
-39.866025000000022
 21
17.5
 31
0.0
  0
LINE
  5
FB3
  8
240
 10
0.0340740000000324
 20
32.127165999999981
 30
0.0
 11
3.820639000000027
 21
46.258819000000017
 31
0.0
  0
LINE
  5
FB4
  8
240
 10
-2.033863362127815
 20
18.00000000000005
 30
0.0
 11
-0.0000000000000711
 21
17.999999999999879
 31
0.0
  0
LINE
  5
FB5
  8
241
 10
-15.9661364877549
 20
18.000000562078402
 30
0.0
 11
-2.033863362127815
 21
18.00000000000005
 31
0.0
  0
LINE
  5
FB6
  8
240
 10
-13.40764999999999
 20
21.499999999999989
 30
0.0
 11
-4.5923500000000077
 21
21.499999999999989
 31
0.0
  0
LINE
  5
FB7
  8
240
 10
-15.866025000000031
 20
18.24196899999998
 30
0.0
 11
-14.27367500000002
 21
21.0
 31
0.0
  0
ARC
  5
FB8
  8
240
 10
-15.0
 20
17.74196899999998
 30
0.0
 40
1.0
 50
149.9999999999998
 51
165.0467060000002
  0
ARC
  5
FB9
  8
240
 10
-13.40764999999999
 20
20.5
 30
0.0
 40
1.0
 50
90.0
 51
149.9999999999998
  0
LINE
  5
FBA
  8
240
 10
-2.133974000000022
 20
18.24196899999998
 30
0.0
 11
-3.7263250000000312
 21
21.0
 31
0.0
  0
ARC
  5
FBB
  8
240
 10
-3.0
 20
17.74196899999998
 30
0.0
 40
1.0
 50
14.95326066649514
 51
29.999999999999719
  0
ARC
  5
FBC
  8
240
 10
-4.5923500000000077
 20
20.5
 30
0.0
 40
1.0
 50
29.999999999999719
 51
90.0
  0
LINE
  5
FBD
  8
240
 10
-0.0000000000000711
 20
17.999999999999879
 30
0.0
 11
0.0
 21
31.732050000000012
 31
0.0
  0
ARC
  5
FBE
  8
240
 10
1.0
 20
31.868347000000028
 30
0.0
 40
1.0
 50
164.9999999999996
 51
180.0
  0
LINE
  5
FBF
  8
240
 10
12.59346500000003
 20
47.0
 30
0.0
 11
4.7865649999999951
 21
47.0
 31
0.0
  0
ARC
  5
FC0
  8
240
 10
4.7865649999999951
 20
46.0
 30
0.0
 40
1.0
 50
90.0
 51
164.9999999999996
  0
ARC
  5
FC1
  8
240
 10
12.464101000000021
 20
49.0
 30
0.0
 40
2.0
 50
270.0
 51
300.0
  0
ARC
  5
FC2
  8
241
 10
21.012172000000021
 20
46.508222000000032
 30
0.0
 40
0.8
 50
100.00000000000171
 51
225.0
  0
LINE
  5
FC3
  8
240
 10
64.800000000000068
 20
-23.075525999999972
 30
0.0
 11
64.800000000000068
 21
22.979139000000011
 31
0.0
  0
LINE
  5
FC5
  8
240
 10
64.507107000000005
 20
-23.742893999999989
 30
0.0
 11
45.452718000000068
 21
-42.79728199999996
 31
0.0
  0
LINE
  5
FC6
  8
241
 10
64.428397000000018
 20
-10.537223999999981
 30
0.0
 11
35.300000000000061
 21
-34.06774399999999
 31
0.0
  0
LINE
  5
FC7
  8
241
 10
23.298642000000019
 20
-34.19026299999998
 30
0.0
 11
23.298642000000019
 21
36.701357361751562
 31
0.0
  0
LINE
  5
FC8
  8
241
 10
35.278164000000061
 20
-34.054465999999991
 30
0.0
 11
35.278164000000068
 21
24.721835780191419
 31
0.0
  0
LINE
  5
FC9
  8
241
 10
23.298642000000019
 20
-34.194523999999987
 30
0.0
 11
34.767772000000051
 21
-34.194523999999987
 31
0.0
  0
ARC
  5
FCA
  8
240
 10
23.390859000000042
 20
-33.19452399999998
 30
0.0
 40
1.0
 50
259.46254899999923
 51
270.0
  0
ARC
  5
FCB
  8
241
 10
34.767772000000051
 20
-33.19452399999998
 30
0.0
 40
1.0
 50
270.0
 51
308.93199199999981
  0
ARC
  5
FCE
  8
240
 10
63.800000000000061
 20
-23.035786999999981
 30
0.0
 40
1.0
 50
315.0
 51
0.0
  0
ARC
  5
FCF
  8
240
 10
63.800000000000061
 20
-9.7593319999999864
 30
0.0
 40
1.0
 50
308.93199199999981
 51
0.0
  0
LINE
  5
FD0
  8
241
 10
46.472509000000002
 20
19.916514000000021
 30
0.0
 11
26.838786000000031
 21
39.550237000000031
 31
0.0
  0
LINE
  5
FD1
  8
241
 10
64.765685000000062
 20
24.073974000000021
 30
0.0
 11
38.739681000000068
 21
50.100000000000009
 31
0.0
  0
ARC
  5
FD3
  8
241
 10
48.642135000000053
 20
25.5
 30
0.0
 40
10.0
 50
225.0
 51
270.0
  0
LINE
  5
FD6
  8
241
 10
64.778164000000061
 20
15.49999999999998
 30
0.0
 11
47.642135000000032
 21
15.49999999999998
 31
0.0
  0
LINE
  5
FD7
  8
241
 10
47.17711300000002
 20
19.694353000000021
 30
0.0
 11
64.800000000000068
 21
22.801744000000031
 31
0.0
  0
ARC
  5
FD8
  8
241
 10
47.038194000000033
 20
20.48220000000001
 30
0.0
 40
0.8
 50
225.0
 51
279.99999999999852
  0
ARC
  5
FD9
  8
241
 10
64.200000000000045
 20
23.508288999999991
 30
0.0
 40
0.8
 50
279.99999999999852
 51
44.999977000000172
  0
LINE
  5
FDA
  8
240
 10
34.421573000000024
 20
53.0
 30
0.0
 11
23.92820300000005
 21
53.0
 31
0.0
  0
ARC
  5
FDB
  8
240
 10
23.92820300000005
 20
51.0
 30
0.0
 40
2.0
 50
90.0
 51
120.0000000000001
  0
LINE
  5
FDC
  8
240
 10
37.943913000000002
 20
50.306085999999993
 30
0.0
 11
35.835786000000041
 21
52.414213000000018
 31
0.0
  0
ARC
  5
FDD
  8
240
 10
34.421573000000024
 20
51.0
 30
0.0
 40
2.0
 50
45.0
 51
90.0
  0
ARC
  5
FDE
  8
241
 10
38.173994999999991
 20
49.534313999999988
 30
0.0
 40
0.8
 50
44.999977000000172
 51
100.00000000000171
  0
VIEWPORT
  5
22
 67
     1
  8
0
 10
261.51769911504419
 20
148.5
 30
0.0
 40
523.0353982300885
 41
297.0
 68
     1
 69
     1
1001
ACAD
1000
MVIEW
1002
{
1070
    16
1010
0.0
1020
0.0
1030
0.0
1010
0.0
1020
0.0
1030
1.0
1040
0.0
1040
297.0
1040
261.51769911504419
1040
148.5
1040
50.0
1040
0.0
1040
0.0
1070
     0
1070
   100
1070
     1
1070
     1
1070
     0
1070
     0
1070
     0
1070
     0
1040
0.0
1040
0.0
1040
0.0
1040
1.0
1040
1.0
1040
10.0
1040
10.0
1070
     0
1002
{
1002
}
1002
}
1001
GENIUS_GENOBJ-N-SDF_13
1002
{
1000
OWNER
1000
GEN
1002
}
1001
GENIUS_GENODEF_13
1002
{
1000
HIER
1070
     0
1002
}
1002
{
1000
MANEDIT
1070
     0
1002
}
1002
{
1000
NOSEL
1070
     0
1002
}
1002
{
1000
BEHIND
1070
     0
1002
}
1002
{
1000
OTHER
1070
     0
1002
}
1002
{
1000
REACTOR
1002
}
1001
GENIUS_GENSCREG_15
1000
PF
1040
1.0
1000
DF
1040
1.0
1000
MIN
1011
0.0
1021
6.6749594872528440E+094
1031
0.0
1021
0.0
1031
0.0
1000
MAX
1011
523.0353982300885
1021
6.6749594872528440E+094
1031
0.0
1021
297.0
1031
0.0
1000
FLAGS
1070
     4
  0
ENDSEC
  0
EOF
