  0
SECTION
  2
HEADER
  9
$ACADVER
  1
AC1009
  9
$INSBASE
 10
0.0
 20
0.0
 30
0.0
  9
$EXTMIN
 10
-59.799999999999891
 20
-32.999999999999979
 30
0.0
  9
$EXTMAX
 10
55.022374469278986
 20
68.297605220111834
 30
0.0
  9
$LIMMIN
 10
0.0
 20
0.0
  9
$LIMMAX
 10
297.0
 20
210.0
  9
$ORTHOMODE
 70
     1
  9
$REGENMODE
 70
     1
  9
$FILLMODE
 70
     1
  9
$QTEXTMODE
 70
     0
  9
$MIRRTEXT
 70
     1
  9
$DRAGMODE
 70
     2
  9
$LTSCALE
 40
10.0
  9
$OSMODE
 70
    39
  9
$ATTMODE
 70
     1
  9
$TEXTSIZE
 40
3.0
  9
$TRACEWID
 40
1.0
  9
$TEXTSTYLE
  7
YOKO
  9
$CLAYER
  8
240
  9
$CELTYPE
  6
BYLAYER
  9
$CECOLOR
 62
   256
  9
$DIMSCALE
 40
1.0
  9
$DIMASZ
 40
2.2299999999999991
  9
$DIMEXO
 40
0.5
  9
$DIMDLI
 40
7.0
  9
$DIMRND
 40
0.0
  9
$DIMDLE
 40
0.0
  9
$DIMEXE
 40
1.0
  9
$DIMTP
 40
0.0
  9
$DIMTM
 40
0.01
  9
$DIMTXT
 40
2.799999999999998
  9
$DIMCEN
 40
0.0
  9
$DIMTSZ
 40
0.0
  9
$DIMTOL
 70
     0
  9
$DIMLIM
 70
     0
  9
$DIMTIH
 70
     0
  9
$DIMTOH
 70
     0
  9
$DIMSE1
 70
     0
  9
$DIMSE2
 70
     0
  9
$DIMTAD
 70
     3
  9
$DIMZIN
 70
     9
  9
$DIMBLK
  1
OPEN
  9
$DIMASO
 70
     1
  9
$DIMSHO
 70
     1
  9
$DIMPOST
  1

  9
$DIMAPOST
  1

  9
$DIMALT
 70
     0
  9
$DIMALTD
 70
     2
  9
$DIMALTF
 40
25.399999999999999
  9
$DIMLFAC
 40
1.0
  9
$DIMTOFL
 70
     1
  9
$DIMTVP
 40
0.0
  9
$DIMTIX
 70
     1
  9
$DIMSOXD
 70
     0
  9
$DIMSAH
 70
     0
  9
$DIMBLK1
  1

  9
$DIMBLK2
  1

  9
$DIMSTYLE
  2
BIGT
  9
$DIMCLRD
 70
   256
  9
$DIMCLRE
 70
   256
  9
$DIMCLRT
 70
    40
  9
$DIMTFAC
 40
1.0
  9
$DIMGAP
 40
1.0
  9
$LUNITS
 70
     2
  9
$LUPREC
 70
     3
  9
$SKETCHINC
 40
1.0
  9
$FILLETRAD
 40
0.0
  9
$AUNITS
 70
     0
  9
$AUPREC
 70
     3
  9
$MENU
  1
.
  9
$ELEVATION
 40
0.0
  9
$PELEVATION
 40
0.0
  9
$THICKNESS
 40
0.0
  9
$LIMCHECK
 70
     0
  9
$BLIPMODE
 70
     0
  9
$CHAMFERA
 40
0.25
  9
$CHAMFERB
 40
0.25
  9
$SKPOLY
 70
     0
  9
$TDCREATE
 40
2455933.7263501971
  9
$TDUPDATE
 40
2456330.4027841669
  9
$TDINDWG
 40
0.0191260417
  9
$TDUSRTIMER
 40
0.0191258681
  9
$USRTIMER
 70
     1
  9
$ANGBASE
 50
0.0
  9
$ANGDIR
 70
     0
  9
$PDMODE
 70
     1
  9
$PDSIZE
 40
0.0
  9
$PLINEWID
 40
0.0
  9
$COORDS
 70
     0
  9
$SPLFRAME
 70
     0
  9
$SPLINETYPE
 70
     6
  9
$SPLINESEGS
 70
     4
  9
$ATTDIA
 70
     1
  9
$ATTREQ
 70
     1
  9
$HANDLING
 70
     1
  9
$HANDSEED
  5
2171
  9
$SURFTAB1
 70
     6
  9
$SURFTAB2
 70
     6
  9
$SURFTYPE
 70
     6
  9
$SURFU
 70
     6
  9
$SURFV
 70
     6
  9
$UCSNAME
  2

  9
$UCSORG
 10
0.0
 20
0.0
 30
0.0
  9
$UCSXDIR
 10
1.0
 20
0.0
 30
0.0
  9
$UCSYDIR
 10
0.0
 20
1.0
 30
0.0
  9
$PUCSNAME
  2

  9
$PUCSORG
 10
0.0
 20
0.0
 30
0.0
  9
$PUCSXDIR
 10
1.0
 20
0.0
 30
0.0
  9
$PUCSYDIR
 10
0.0
 20
1.0
 30
0.0
  9
$USERI1
 70
     1
  9
$USERI2
 70
     0
  9
$USERI3
 70
     0
  9
$USERI4
 70
     0
  9
$USERI5
 70
     0
  9
$USERR1
 40
0.0
  9
$USERR2
 40
0.0
  9
$USERR3
 40
0.0
  9
$USERR4
 40
0.0
  9
$USERR5
 40
0.0
  9
$WORLDVIEW
 70
     1
  9
$SHADEDGE
 70
     3
  9
$SHADEDIF
 70
    70
  9
$TILEMODE
 70
     1
  9
$MAXACTVP
 70
    16
  9
$PLIMCHECK
 70
     0
  9
$PEXTMIN
 10
1.0000000000000000E+020
 20
1.0000000000000000E+020
 30
1.0000000000000000E+020
  9
$PEXTMAX
 10
-1.0000000000000000E+020
 20
-1.0000000000000000E+020
 30
-1.0000000000000000E+020
  9
$PLIMMIN
 10
0.0
 20
0.0
  9
$PLIMMAX
 10
420.0
 20
297.0
  9
$UNITMODE
 70
     0
  9
$VISRETAIN
 70
     1
  9
$PLINEGEN
 70
     0
  9
$PSLTSCALE
 70
     1
  0
ENDSEC
  0
SECTION
  2
TABLES
  0
TABLE
  2
VPORT
 70
     3
  0
VPORT
  2
*ACTIVE
 70
     0
 10
0.0
 20
0.0
 11
1.0
 21
1.0
 12
-2.3882898894235041
 22
18.65103552438601
 13
0.0
 23
0.0
 14
7.0
 24
7.0
 15
7.0
 25
7.0
 16
0.0
 26
0.0
 36
1.0
 17
0.0
 27
0.0
 37
0.0
 40
103.9766927767739
 41
1.4600431965442759
 42
50.0
 43
0.0
 44
0.0
 50
0.0
 51
0.0
 71
     0
 72
  2000
 73
     1
 74
     0
 75
     0
 76
     1
 77
     0
 78
     0
  0
ENDTAB
  0
TABLE
  2
LTYPE
 70
    21
  0
LTYPE
  2
CONTINUOUS
 70
     0
  3
Solid line
 72
    65
 73
     0
 40
0.0
  0
LTYPE
  2
CENTER2
 70
     0
  3
___ _ ___ _ ___ _ ___ _ ___ _ ___ _ ___ _ ___ _
 72
    65
 73
     4
 40
1.125
 49
0.75
 49
-0.125
 49
0.125
 49
-0.125
  0
LTYPE
  2
HIDDEN2
 70
     0
  3
_ _ _ _ _ _ _ _ _ _ _ _ _ _ _ _ _ _ _ _ _ _ _ _
 72
    65
 73
     2
 40
0.1875
 49
0.125
 49
-0.0625
  0
LTYPE
  2
PHANTOM2
 70
     0
  3
___ _ _ ___ _ _ ___ _ _ ___ _ _ ___ _ _ ___ _ _
 72
    65
 73
     6
 40
1.25
 49
0.625
 49
-0.125
 49
0.125
 49
-0.125
 49
0.125
 49
-0.125
  0
LTYPE
  2
CENTER
 70
     0
  3
____ _ ____ _ ____ _ ____ _ ____ _ ____ _ ____ 
 72
    65
 73
     4
 40
2.0
 49
1.25
 49
-0.25
 49
0.25
 49
-0.25
  0
LTYPE
  2
AMCONSTR
 70
     0
  3
_______________________
 72
    65
 73
     2
 40
9999.0
 49
9999.0
 49
0.0
  0
LTYPE
  2
HIDDEN
 70
     0
  3
Hidden __ __ __ __ __ __ __ __ __ __ __ __ __ _
 72
    65
 73
     2
 40
9.5249999999999986
 49
6.3499999999999979
 49
-3.174999999999998
  0
LTYPE
  2
AMZIGZAG2
 70
     0
  3
/\/-/\/-/\/-/\/-/\/-/\/
 72
    65
 73
     2
 40
0.4401
 49
0.0001
 49
-0.4400000000000001
  0
LTYPE
  2
ACANSTGB
 70
     0
  3
__ . . __ . .
 72
    65
 73
     6
 40
0.35433070866
 49
0.15748031496
 49
-0.03937007874
 49
0.03937007874
 49
-0.03937007874
 49
0.03937007874
 49
-0.03937007874
  0
LTYPE
  2
ACANSTGL
 70
     0
  3
_ _ _ _ _
 72
    65
 73
     2
 40
0.11811023622
 49
0.07874015748
 49
-0.03937007874
  0
ENDTAB
  0
TABLE
  2
LAYER
 70
     7
  0
LAYER
  2
0
 70
     0
 62
     7
  6
CONTINUOUS
  0
LAYER
  2
240
 70
     0
 62
     4
  6
CONTINUOUS
  0
LAYER
  2
DEFPOINTS
 70
     0
 62
     7
  6
CONTINUOUS
  0
LAYER
  2
245
 70
     0
 62
     2
  6
CENTER2
  0
LAYER
  2
241
 70
     0
 62
   211
  6
CONTINUOUS
  0
LAYER
  2
247
 70
     0
 62
    60
  6
CONTINUOUS
  0
LAYER
  2
250
 70
     0
 62
     3
  6
CONTINUOUS
  0
ENDTAB
  0
TABLE
  2
STYLE
 70
     9
  0
STYLE
  2
STANDARD
 70
     0
 40
0.0
 41
1.0
 50
0.0
 71
     0
 42
3.0
  3
romans.shx
  4
extfont.shx
  0
STYLE
  2
YOKO
 70
     0
 40
0.0
 41
1.0
 50
0.0
 71
     0
 42
3.0
  3
romans.shx
  4
extfont.shx
  0
STYLE
  2

 70
     1
 40
0.0
 41
1.0
 50
0.0
 71
     0
 42
3.0
  3
ltypeshp.shx
  4

  0
STYLE
  2
ACANSTS
 70
     0
 40
1.0
 41
1.0
 50
0.0
 71
     0
 42
3.0
  3
romans.shx
  4
extfont.shx
  0
STYLE
  2
ACANSGDT
 70
     0
 40
0.0
 41
1.0
 50
0.0
 71
     0
 42
3.0
  3
amgdtans.shx
  4

  0
ENDTAB
  0
TABLE
  2
VIEW
 70
     0
  0
ENDTAB
  0
TABLE
  2
UCS
 70
     0
  0
ENDTAB
  0
TABLE
  2
APPID
 70
    31
  0
APPID
  2
ACAD
 70
     0
  0
APPID
  2
GLOBAL
 70
     0
  0
APPID
  2
DETAIL
 70
     0
  0
APPID
  2
GRPNAME
 70
     0
  0
APPID
  2
GPARA
 70
     0
  0
APPID
  2
MCAD_NO_VIS
 70
     0
  0
APPID
  2
ACAD_TEMP_GRAPHIC
 70
     0
  0
APPID
  2
ACATTRIBSERVICES
 70
     0
  0
APPID
  2
GENIUS_GENSCREG_15
 70
     0
  0
APPID
  2
GENIUS_GENODEF_13
 70
     0
  0
APPID
  2
GENIUS_GENOBJ-N-SDF_13
 70
     0
  0
APPID
  2
GENIUS_GENREC_14
 70
     0
  0
APPID
  2
GENIUS_GENOBJ-N-REC_13
 70
     0
  0
APPID
  2
GENIUS_GENDIMSH_14
 70
     0
  0
APPID
  2
GENIUS_GENOBJ-N-DIM_13
 70
     0
  0
APPID
  2
GENIUS_GENDIM_13
 70
     0
  0
APPID
  2
GENIUS_GENDTOL_13
 70
     0
  0
APPID
  2
GENIUS_GENOLIS_13
 70
     0
  0
APPID
  2
GENIUS_GENOENT_13
 70
     0
  0
APPID
  2
GENIUS_GENOBJ-F-FEM_13
 70
     0
  0
APPID
  2
GENIUS_GENOREF_13
 70
     0
  0
APPID
  2
GENIUS_GEFFEM_13
 70
     0
  0
APPID
  2
GENIUS_GEFFEMP_13
 70
     0
  0
APPID
  2
AD_DRAW
 70
     0
  0
APPID
  2
DESIGNERASSEMBLIES
 70
     0
  0
APPID
  2
ACADM_DIM_EDIT
 70
     0
  0
APPID
  2
AMDT_DM_ADJ
 70
     0
  0
APPID
  2
ITEMNAME
 70
     0
  0
APPID
  2
HATCH_TYPE
 70
     0
  0
APPID
  2
HATCH_DISPLAY
 70
     0
  0
APPID
  2
HATCH_DISTANCE
 70
     0
  0
ENDTAB
  0
TABLE
  2
DIMSTYLE
 70
    29
  0
DIMSTYLE
  2
BIGT
 70
     0
  3

  4

  5

  6

  7

 40
1.0
 41
2.2299999999999991
 42
0.5
 43
7.0
 44
1.0
 45
0.0
 46
0.0
 47
0.0
 48
0.01
140
2.799999999999998
141
0.0
142
0.0
143
25.399999999999999
144
1.0
145
0.0
146
1.0
147
1.0
 71
     0
 72
     0
 73
     0
 74
     0
 75
     0
 76
     0
 77
     3
 78
     9
170
     0
171
     2
172
     1
173
     0
174
     1
175
     0
176
   256
177
   256
178
    40
  0
DIMSTYLE
  2
AM_ANSI
 70
     0
  3

  4
mm
  5

  6

  7

 40
1.0
 41
0.1
 42
0.05
 43
0.5
 44
0.1
 45
0.0
 46
0.0
 47
0.1
 48
0.1
140
0.12
141
0.0
142
0.0
143
25.399999999999999
144
1.0
145
0.0
146
0.71
147
0.06
 71
     0
 72
     0
 73
     1
 74
     1
 75
     0
 76
     0
 77
     0
 78
     7
170
     0
171
     2
172
     0
173
     0
174
     0
175
     0
176
   256
177
   256
178
     2
  0
DIMSTYLE
  2
AM_ANSI$3
 70
     0
  3

  4
mm
  5

  6

  7

 40
1.0
 41
0.1
 42
0.05
 43
0.5
 44
0.1
 45
0.0
 46
0.0
 47
0.1
 48
0.1
140
0.12
141
0.0
142
0.0
143
25.399999999999999
144
1.0
145
0.0
146
0.71
147
0.06
 71
     0
 72
     0
 73
     1
 74
     1
 75
     0
 76
     0
 77
     0
 78
     7
170
     0
171
     2
172
     0
173
     0
174
     0
175
     0
176
   256
177
   256
178
     2
  0
DIMSTYLE
  2
AM_ANSI$4
 70
     0
  3

  4
mm
  5

  6

  7

 40
1.0
 41
0.1
 42
0.05
 43
0.5
 44
0.1
 45
0.0
 46
0.0
 47
0.1
 48
0.1
140
0.12
141
0.0
142
0.0
143
25.399999999999999
144
1.0
145
0.0
146
0.71
147
0.06
 71
     0
 72
     0
 73
     1
 74
     1
 75
     0
 76
     0
 77
     0
 78
     7
170
     0
171
     2
172
     0
173
     0
174
     0
175
     0
176
   256
177
   256
178
     2
  0
DIMSTYLE
  2
AM_ANSI$7
 70
     0
  3

  4
mm
  5

  6

  7

 40
1.0
 41
0.1
 42
0.05
 43
0.5
 44
0.1
 45
0.0
 46
0.0
 47
0.1
 48
0.1
140
0.24
141
0.0
142
0.0
143
25.399999999999999
144
1.0
145
0.0
146
0.71
147
0.06
 71
     0
 72
     0
 73
     1
 74
     1
 75
     0
 76
     0
 77
     0
 78
     7
170
     0
171
     2
172
     0
173
     0
174
     0
175
     0
176
   256
177
   256
178
     2
  0
DIMSTYLE
  2
AM_ANSI$SF
 70
     0
  3

  4
mm
  5

  6

  7

 40
1.0
 41
0.1
 42
0.05
 43
0.5
 44
0.1
 45
0.0
 46
0.0
 47
0.1
 48
0.1
140
0.12
141
0.0
142
0.0
143
25.399999999999999
144
1.0
145
0.0
146
0.71
147
0.06
 71
     0
 72
     0
 73
     1
 74
     1
 75
     1
 76
     1
 77
     0
 78
     7
170
     0
171
     2
172
     0
173
     0
174
     0
175
     0
176
   256
177
   256
178
     2
  0
DIMSTYLE
  2
AM_ANSI$SH
 70
     0
  3

  4
mm
  5

  6
GENAXEH
  7

 40
1.0
 41
0.1
 42
0.05
 43
0.5
 44
0.1
 45
0.0
 46
0.0
 47
0.1
 48
0.1
140
0.12
141
0.0
142
0.0
143
25.399999999999999
144
1.0
145
0.0
146
0.71
147
0.06
 71
     0
 72
     0
 73
     1
 74
     1
 75
     1
 76
     1
 77
     0
 78
     7
170
     0
171
     2
172
     0
173
     1
174
     0
175
     0
176
   256
177
   256
178
     2
  0
ENDTAB
  0
ENDSEC
  0
SECTION
  2
BLOCKS
  0
BLOCK
  8
0
  2
$MODEL_SPACE
 70
     0
 10
0.0
 20
0.0
 30
0.0
  3
$MODEL_SPACE
  1

  0
ENDBLK
  5
1E48
  8
0
  0
BLOCK
 67
     1
  8
0
  2
$PAPER_SPACE
 70
     0
 10
0.0
 20
0.0
 30
0.0
  3
$PAPER_SPACE
  1

  0
ENDBLK
  5
1E44
 67
     1
  8
0
  0
BLOCK
  8
0
  2
_OPEN
 70
     0
 10
0.0
 20
0.0
 30
0.0
  3
_OPEN
  1

  0
LINE
  5
1CB7
  8
0
  6
BYBLOCK
 62
     0
 10
-1.0
 20
0.1666666666666666
 30
0.0
 11
0.0
 21
0.0
 31
0.0
  0
LINE
  5
1CB8
  8
0
  6
BYBLOCK
 62
     0
 10
-1.0
 20
-0.1666666666666666
 30
0.0
 11
0.0
 21
0.0
 31
0.0
  0
LINE
  5
1CB9
  8
0
  6
BYBLOCK
 62
     0
 10
0.0
 20
0.0
 30
0.0
 11
-1.0
 21
0.0
 31
0.0
  0
ENDBLK
  5
1CBA
  8
0
  0
BLOCK
  8
0
  2
GENAXEH
 70
     0
 10
0.0
 20
0.0
 30
0.0
  3
GENAXEH
  1

  0
LINE
  5
1CE2
  8
0
 10
-1.0
 20
0.0
 30
0.0
 11
1.0
 21
0.0
 31
0.0
  0
ENDBLK
  5
1CE3
  8
0
  0
ENDSEC
  0
SECTION
  2
ENTITIES
  0
TEXT
  5
177E
  8
241
 10
-30.69191124500674
 20
63.297605220111791
 30
0.0
 40
5.0
  1
CKB5-C5262-45B-20
  7
YOKO
 11
-30.69191124500674
 21
63.297605220111791
 31
0.0
 73
     1
  0
LINE
  5
177F
  8
250
 10
-29.67779200467001
 20
-32.999999999999979
 30
0.0
 11
-43.677792004670003
 21
-32.999999999999979
 31
0.0
1001
ITEMNAME
1000
LNSP2
  0
TEXT
  5
1783
  8
250
 10
-41.106363433241441
 20
-31.999999999999972
 30
0.0
 40
3.0
  1
CK5
  7
YOKO
1001
ITEMNAME
1000
LNSP3
1001
ACAD
1000
MTEXTBEGIN
1070
    73
1070
     1
1070
    44
1040
1.0
1070
    74
1070
     0
1000
MTEXTEND
  0
LINE
  5
178C
  8
250
 10
-19.823136890067151
 20
-15.93123665043932
 30
0.0
 11
-29.67779200467001
 21
-32.999999999999979
 31
0.0
1001
ACAD
1000
DSTYLE
1002
{
1070
     5
1000
OPEN
1070
    78
1070
     8
1070
   140
1040
3.0
1002
}
  0
LINE
  5
178D
  8
250
 10
-20.145009665140361
 20
-15.745403317105991
 30
0.0
 11
-18.708136890067149
 21
-14.00000000000003
 31
0.0
  0
LINE
  5
178E
  8
250
 10
-19.50126411499393
 20
-16.117069983772659
 30
0.0
 11
-18.708136890067149
 21
-14.00000000000003
 31
0.0
  0
LINE
  5
178F
  8
250
 10
-18.708136890067149
 20
-14.00000000000003
 30
0.0
 11
-19.823136890067151
 21
-15.93123665043932
 31
0.0
  0
LINE
  5
19C0
  8
250
 10
13.953553952890671
 20
31.64262054269502
 30
0.0
 11
7.6256789595606813
 21
37.970496708046447
 31
0.0
  0
ARC
  5
19C1
  8
250
 10
19.963961443863809
 20
25.632211938500369
 30
0.0
 40
16.448968041602761
 50
97.773596381418471
 51
127.226398312545
  0
LINE
  5
19C5
  8
250
 10
0.0
 20
25.99999952316281
 30
0.0
 11
0.0000000000000015
 21
50.0
 31
0.0
  0
LINE
  5
19C6
  8
250
 10
19.963961443863809
 20
26.132211938500379
 30
0.0
 11
19.963961443863809
 21
50.0
 31
0.0
  0
LINE
  5
19C7
  8
250
 10
2.23
 20
49.0
 30
0.0
 11
17.733961443863809
 21
49.0
 31
0.0
  0
LINE
  5
19CB
  8
250
 10
15.096174376562359
 20
30.999999999999972
 30
0.0
 11
43.0
 21
30.999999999999961
 31
0.0
  0
LINE
  5
19CC
  8
250
 10
42.0
 20
28.769999999999971
 30
0.0
 11
41.999999999999993
 21
-4.7669966775507993
 31
0.0
  0
LINE
  5
19CF
  8
250
 10
20.096173450484311
 20
25.999999999999972
 30
0.0
 11
36.0
 21
25.999999999999961
 31
0.0
  0
LINE
  5
19D0
  8
250
 10
35.0
 20
23.769999999999971
 30
0.0
 11
35.0
 21
-5.11447308663677
 31
0.0
  0
LINE
  5
19D3
  8
250
 10
14.80710731074214
 20
-31.289067119359999
 30
0.0
 11
50.0
 21
-31.289067119360009
 31
0.0
  0
LINE
  5
19D4
  8
250
 10
14.80710731074214
 20
31.289067119359949
 30
0.0
 11
50.0
 21
31.289067119359931
 31
0.0
  0
LINE
  5
19D5
  8
250
 10
48.999999999999979
 20
-29.059067119360009
 30
0.0
 11
49.0
 21
29.059067119359931
 31
0.0
  0
LINE
  5
19D9
  8
250
 10
12.103826443758161
 20
30.999999999999972
 30
0.0
 11
-56.999999999999879
 21
30.999999999999989
 31
0.0
  0
LINE
  5
19DA
  8
250
 10
-55.999999999999879
 20
28.769999999999989
 30
0.0
 11
-55.999999999999893
 21
-4.5333333333336094
 31
0.0
  0
LINE
  5
19DD
  8
250
 10
7.1038272669386568
 20
25.999999999999979
 30
0.0
 11
-49.999999999999908
 21
25.999999999999989
 31
0.0
  0
LINE
  5
19DE
  8
250
 10
-48.999999999999908
 20
23.769999999999989
 30
0.0
 11
-48.999999999999908
 21
-4.5333333333335819
 31
0.0
  0
LINE
  5
19E1
  8
250
 10
-0.5
 20
-25.49999952316287
 30
0.0
 11
-43.0
 21
-25.49999952316286
 31
0.0
  0
LINE
  5
19E2
  8
250
 10
-0.5
 20
25.49999952316281
 30
0.0
 11
-43.0
 21
25.499999523162831
 31
0.0
  0
LINE
  5
19E3
  8
250
 10
-42.000000000000007
 20
-23.269999523162859
 30
0.0
 11
-42.0
 21
23.269999523162831
 31
0.0
  0
TEXT
  5
19E7
  8
250
 10
10.279651109267521
 20
40.842497827920191
 30
0.0
 40
2.799999999999998
  1
45üï
 50
17.879927577063821
  0
LINE
  5
19E8
  8
250
 10
10.25728332238355
 20
38.449705551798097
 30
0.0
 11
8.3327856752636134
 21
37.263389861376297
 31
0.0
  0
LINE
  5
19E9
  8
250
 10
9.7685053878078385
 20
39.009741778408788
 30
0.0
 11
8.3327856752636134
 21
37.263389861376297
 31
0.0
  0
LINE
  5
19EA
  8
250
 10
8.3327856752636134
 20
37.263389861376297
 30
0.0
 11
10.012894355095691
 21
38.729723665103442
 31
0.0
  0
LINE
  5
19EB
  8
250
 10
17.713897036710001
 20
42.30083032672524
 30
0.0
 11
19.963961443863688
 21
42.081179980103137
 31
0.0
  0
LINE
  5
19EC
  8
250
 10
17.76428418954357
 20
41.559206716479608
 30
0.0
 11
19.963961443863688
 21
42.081179980103137
 31
0.0
  0
LINE
  5
19ED
  8
250
 10
19.963961443863688
 20
42.081179980103137
 30
0.0
 11
17.739090613126791
 21
41.93001852160242
 31
0.0
  0
TEXT
  5
19EE
  8
250
 10
7.3153140552652358
 20
50.0
 30
0.0
 40
2.799999999999998
  1
20
  0
LINE
  5
19EF
  8
250
 10
17.733961443863809
 20
49.37166666666667
 30
0.0
 11
19.963961443863809
 21
49.0
 31
0.0
  0
LINE
  5
19F0
  8
250
 10
17.733961443863809
 20
48.62833333333333
 30
0.0
 11
19.963961443863809
 21
49.0
 31
0.0
  0
LINE
  5
19F1
  8
250
 10
19.963961443863809
 20
49.0
 30
0.0
 11
17.733961443863809
 21
49.0
 31
0.0
  0
LINE
  5
19F2
  8
250
 10
2.23
 20
48.62833333333333
 30
0.0
 11
0.0000000000000014
 21
49.0
 31
0.0
  0
LINE
  5
19F3
  8
250
 10
2.23
 20
49.37166666666667
 30
0.0
 11
0.0000000000000014
 21
49.0
 31
0.0
  0
LINE
  5
19F4
  8
250
 10
0.0000000000000014
 20
49.0
 30
0.0
 11
2.23
 21
49.0
 31
0.0
  0
LINE
  5
19F5
  8
250
 10
41.62833333333333
 20
28.769999999999971
 30
0.0
 11
42.0
 21
30.999999999999961
 31
0.0
  0
LINE
  5
19F6
  8
250
 10
42.371666666666663
 20
28.769999999999971
 30
0.0
 11
42.0
 21
30.999999999999961
 31
0.0
  0
LINE
  5
19F7
  8
250
 10
42.0
 20
30.999999999999961
 30
0.0
 11
42.0
 21
28.769999999999971
 31
0.0
  0
TEXT
  5
19F8
  8
250
 10
40.849718515906019
 20
-4.033663344217457
 30
0.0
 40
2.799999999999998
  1
\U+220562
 50
90.0
  0
LINE
  5
19F9
  8
250
 10
34.62833333333333
 20
23.769999999999971
 30
0.0
 11
35.0
 21
25.999999999999961
 31
0.0
  0
LINE
  5
19FA
  8
250
 10
35.37166666666667
 20
23.769999999999971
 30
0.0
 11
35.0
 21
25.999999999999961
 31
0.0
  0
LINE
  5
19FB
  8
250
 10
35.0
 20
25.999999999999961
 30
0.0
 11
35.0
 21
23.769999999999971
 31
0.0
  0
TEXT
  5
19FC
  8
250
 10
33.89774164074084
 20
-4.3811397533034278
 30
0.0
 40
2.799999999999998
  1
\U+220552
 50
90.0
  0
TEXT
  5
19FD
  8
250
 10
47.999999999999993
 20
-5.895238095238124
 30
0.0
 40
3.0
  1
\U+2205
 50
90.0
  0
TEXT
  5
19FE
  8
250
 10
47.899999999999991
 20
-3.1809523809524101
 30
0.0
 40
2.799999999999998
  1
62.7
 50
90.0
  0
LINE
  5
19FF
  8
250
 10
48.62833333333333
 20
29.059067119359931
 30
0.0
 11
49.0
 21
31.289067119359931
 31
0.0
  0
LINE
  5
1A00
  8
250
 10
49.37166666666667
 20
29.059067119359931
 30
0.0
 11
49.0
 21
31.289067119359931
 31
0.0
  0
LINE
  5
1A01
  8
250
 10
49.0
 20
31.289067119359931
 30
0.0
 11
49.0
 21
29.059067119359931
 31
0.0
  0
LINE
  5
1A02
  8
250
 10
49.371666666666663
 20
-29.059067119360009
 30
0.0
 11
48.999999999999979
 21
-31.289067119360009
 31
0.0
  0
LINE
  5
1A03
  8
250
 10
48.628333333333302
 20
-29.059067119360009
 30
0.0
 11
48.999999999999979
 21
-31.289067119360009
 31
0.0
  0
LINE
  5
1A04
  8
250
 10
48.999999999999979
 20
-31.289067119360009
 30
0.0
 11
48.999999999999979
 21
-29.059067119360009
 31
0.0
  0
TEXT
  5
1A05
  8
250
 10
-56.999999999999893
 20
-3.800000000000284
 30
0.0
 40
2.799999999999998
  1
\U+220562
 50
90.0
  0
LINE
  5
1A06
  8
250
 10
-56.371666666666542
 20
28.769999999999989
 30
0.0
 11
-55.999999999999879
 21
30.999999999999989
 31
0.0
  0
LINE
  5
1A07
  8
250
 10
-55.628333333333217
 20
28.769999999999989
 30
0.0
 11
-55.999999999999879
 21
30.999999999999989
 31
0.0
  0
LINE
  5
1A08
  8
250
 10
-55.999999999999879
 20
30.999999999999989
 30
0.0
 11
-55.999999999999879
 21
28.769999999999989
 31
0.0
  0
TEXT
  5
1A09
  8
250
 10
-49.999999999999922
 20
-3.8000000000002561
 30
0.0
 40
2.799999999999998
  1
\U+220552
 50
90.0
  0
LINE
  5
1A0A
  8
250
 10
-49.371666666666577
 20
23.769999999999989
 30
0.0
 11
-48.999999999999908
 21
25.999999999999989
 31
0.0
  0
LINE
  5
1A0B
  8
250
 10
-48.628333333333217
 20
23.769999999999989
 30
0.0
 11
-48.999999999999908
 21
25.999999999999989
 31
0.0
  0
LINE
  5
1A0C
  8
250
 10
-48.999999999999908
 20
25.999999999999989
 30
0.0
 11
-48.999999999999908
 21
23.769999999999989
 31
0.0
  0
TEXT
  5
1A0D
  8
250
 10
-43.0
 20
-3.4952380952381161
 30
0.0
 40
3.0
  1
\U+2205
 50
90.0
  0
TEXT
  5
1A0E
  8
250
 10
-43.100000000000009
 20
-0.7809523809524026
 30
0.0
 40
2.799999999999998
  1
51
 50
90.0
  0
LINE
  5
1A0F
  8
250
 10
-42.371666666666663
 20
23.269999523162831
 30
0.0
 11
-42.0
 21
25.499999523162831
 31
0.0
  0
LINE
  5
1A10
  8
250
 10
-41.62833333333333
 20
23.269999523162831
 30
0.0
 11
-42.0
 21
25.499999523162831
 31
0.0
  0
LINE
  5
1A11
  8
250
 10
-42.0
 20
25.499999523162831
 30
0.0
 11
-42.0
 21
23.269999523162831
 31
0.0
  0
LINE
  5
1A12
  8
250
 10
-41.628333333333337
 20
-23.269999523162859
 30
0.0
 11
-42.000000000000007
 21
-25.49999952316286
 31
0.0
  0
LINE
  5
1A13
  8
250
 10
-42.37166666666667
 20
-23.269999523162859
 30
0.0
 11
-42.000000000000007
 21
-25.49999952316286
 31
0.0
  0
LINE
  5
1A14
  8
250
 10
-42.000000000000007
 20
-25.49999952316286
 30
0.0
 11
-42.000000000000007
 21
-23.269999523162859
 31
0.0
  0
LINE
  5
1F36
  8
240
 10
19.57350652810419
 20
13.58912978321311
 30
0.0
 11
19.86353678512387
 21
12.22499832510945
 31
0.0
  0
LINE
  5
1F37
  8
241
 10
7.2360392659902573
 20
11.51706743985411
 30
0.0
 11
7.6264943927526456
 21
14.269528910517661
 31
0.0
  0
LINE
  5
1F38
  8
241
 10
19.075420044828199
 20
14.51857201755044
 30
0.0
 11
19.86353678512387
 21
12.22499832510945
 31
0.0
  0
LINE
  5
1F39
  8
241
 10
19.963961443863809
 20
11.51706743985411
 30
0.0
 11
14.30710731074214
 21
14.345495030283899
 31
0.0
  0
LINE
  5
1F3A
  8
241
 10
12.89289351552725
 20
14.345495030283899
 30
0.0
 11
7.2360392659902573
 21
11.51706743985411
 31
0.0
  0
LINE
  5
1F3B
  8
240
 10
0.0
 20
-25.49999952316287
 30
0.0
 11
0.0
 21
-14.00000000000003
 31
0.0
  0
LINE
  5
1F3C
  8
240
 10
0.0
 20
13.99999999999997
 30
0.0
 11
0.0
 21
25.49999952316281
 31
0.0
  0
LINE
  5
1F3D
  8
240
 10
19.963961443863809
 20
-13.408036902546909
 30
0.0
 11
19.57350652810419
 21
-10.65557543188336
 31
0.0
  0
LINE
  5
1F3E
  8
241
 10
7.6000001281499854
 20
-11.26737706363204
 30
0.0
 11
7.6000001281499854
 21
2.8825634181363982
 31
0.0
  0
LINE
  5
1F3F
  8
241
 10
13.0000002682209
 20
-13.97222559899094
 30
0.0
 11
13.0000002682209
 21
-6.8059908226132659
 31
0.0
  0
LINE
  5
1F40
  8
241
 10
14.20000055804848
 20
-13.97222559899094
 30
0.0
 11
14.20000055804848
 21
-6.8059908226132659
 31
0.0
  0
LINE
  5
1F41
  8
240
 10
19.963961443863809
 20
-14.11514356732371
 30
0.0
 11
19.500000402331349
 21
-14.347124054671619
 31
0.0
  0
LINE
  5
1F42
  8
241
 10
19.500000402331349
 20
-14.347124054671619
 30
0.0
 11
14.30710731074214
 21
-16.943570226430921
 31
0.0
  0
LINE
  5
1F43
  8
241
 10
19.075420044828199
 20
-11.60872634500268
 30
0.0
 11
14.304107986390591
 21
-13.994382694363621
 31
0.0
  0
LINE
  5
1F44
  8
240
 10
19.963961443863809
 20
-25.632211938500429
 30
0.0
 11
14.30710731074214
 21
-31.289067119359999
 31
0.0
  0
LINE
  5
1F45
  8
240
 10
19.963961443863809
 20
-24.217998608946829
 30
0.0
 11
19.963961443863809
 21
-25.632211938500429
 31
0.0
  0
LINE
  5
1F46
  8
240
 10
19.500000402331349
 20
-23.754036054015192
 30
0.0
 11
19.963961443863809
 21
-24.217998608946829
 31
0.0
  0
LINE
  5
1F47
  8
240
 10
19.963961443863809
 20
-13.408036902546909
 30
0.0
 11
19.963961443863809
 21
-14.11514356732371
 31
0.0
  0
LINE
  5
1F48
  8
241
 10
19.075420044828199
 20
-11.60872634500268
 30
0.0
 11
19.86353678512387
 21
-13.406441546976589
 31
0.0
  0
LINE
  5
1F49
  8
241
 10
19.86353678512387
 20
-13.406441546976589
 30
0.0
 11
19.963961443863809
 21
-14.11514356732371
 31
0.0
  0
LINE
  5
1F4A
  8
241
 10
19.075420044828199
 20
-11.60872634500268
 30
0.0
 11
19.500000402331349
 21
-10.816449406448079
 31
0.0
  0
LINE
  5
1F4B
  8
241
 10
19.500000402331349
 20
-25.509435683488881
 30
0.0
 11
19.500000402331349
 21
-23.754036054015192
 31
0.0
  0
LINE
  5
1F4C
  8
240
 10
19.500000402331349
 20
-23.754036054015192
 30
0.0
 11
19.500000402331349
 21
-14.347123913466961
 31
0.0
  0
LINE
  5
1F4D
  8
241
 10
7.6000001281499854
 20
-25.444598868489301
 30
0.0
 11
7.6000001281499854
 21
-20.194966346025499
 31
0.0
  0
LINE
  5
1F4E
  8
240
 10
12.89289351552725
 20
-31.289067119359999
 30
0.0
 11
7.2360392659902573
 21
-25.632211938500429
 31
0.0
  0
LINE
  5
1F4F
  8
240
 10
14.30710731074214
 20
-31.289067119359999
 30
0.0
 11
12.89289351552725
 21
-31.289067119359999
 31
0.0
  0
LINE
  5
1F50
  8
241
 10
13.0000002682209
 20
-30.854295939207109
 30
0.0
 11
14.20000055804848
 21
-30.854295939207109
 31
0.0
  0
LINE
  5
1F51
  8
241
 10
14.20000055804848
 20
-30.854295939207109
 30
0.0
 11
14.20000055804848
 21
-29.50599044561389
 31
0.0
  0
LINE
  5
1F52
  8
241
 10
13.0000002682209
 20
-30.854295939207109
 30
0.0
 11
13.0000002682209
 21
-29.50599044561389
 31
0.0
  0
LINE
  5
1F53
  8
241
 10
13.0000002682209
 20
-29.50599044561389
 30
0.0
 11
14.20000055804848
 21
-29.50599044561389
 31
0.0
  0
LINE
  5
1F54
  8
241
 10
7.2360392659902573
 20
-25.632211938500429
 30
0.0
 11
7.2360392659902573
 21
-25.499999523162881
 31
0.0
  0
LINE
  5
1F55
  8
241
 10
12.89289351552725
 20
-16.943570226430921
 30
0.0
 11
7.2360392659902573
 21
-14.11514356732371
 31
0.0
  0
POLYLINE
  5
1F56
  8
241
 66
     1
 10
0.0
 20
0.0
 30
0.0
 70
     8
  0
VERTEX
  5
1F57
  8
241
 10
7.5999999999999988
 20
-11.2674
 30
0.0
 70
    32
  0
VERTEX
  5
1F58
  8
241
 10
7.6425099999999997
 20
-11.2887
 30
0.0
 70
    32
  0
VERTEX
  5
1F59
  8
241
 10
7.6850199999999989
 20
-11.31
 30
0.0
 70
    32
  0
VERTEX
  5
1F5A
  8
241
 10
7.7275399999999994
 20
-11.331300000000001
 30
0.0
 70
    32
  0
VERTEX
  5
1F5B
  8
241
 10
7.7700500000000003
 20
-11.352600000000001
 30
0.0
 70
    32
  0
VERTEX
  5
1F5C
  8
241
 10
7.8125600000000004
 20
-11.373900000000001
 30
0.0
 70
    32
  0
VERTEX
  5
1F5D
  8
241
 10
7.8550699999999987
 20
-11.395200000000001
 30
0.0
 70
    32
  0
VERTEX
  5
1F5E
  8
241
 10
7.8975899999999992
 20
-11.416499999999999
 30
0.0
 70
    32
  0
VERTEX
  5
1F5F
  8
241
 10
7.9401000000000002
 20
-11.437799999999999
 30
0.0
 70
    32
  0
VERTEX
  5
1F60
  8
241
 10
7.9826100000000002
 20
-11.459099999999999
 30
0.0
 70
    32
  0
VERTEX
  5
1F61
  8
241
 10
8.0251199999999994
 20
-11.480399999999999
 30
0.0
 70
    32
  0
VERTEX
  5
1F62
  8
241
 10
8.067639999999999
 20
-11.5017
 30
0.0
 70
    32
  0
VERTEX
  5
1F63
  8
241
 10
8.1101500000000009
 20
-11.523
 30
0.0
 70
    32
  0
VERTEX
  5
1F64
  8
241
 10
8.1526599999999991
 20
-11.5443
 30
0.0
 70
    32
  0
VERTEX
  5
1F65
  8
241
 10
8.1951800000000006
 20
-11.5656
 30
0.0
 70
    32
  0
VERTEX
  5
1F66
  8
241
 10
8.2376899999999988
 20
-11.5869
 30
0.0
 70
    32
  0
VERTEX
  5
1F67
  8
241
 10
8.2802000000000007
 20
-11.6082
 30
0.0
 70
    32
  0
VERTEX
  5
1F68
  8
241
 10
8.3227200000000003
 20
-11.6295
 30
0.0
 70
    32
  0
VERTEX
  5
1F69
  8
241
 10
8.3652300000000004
 20
-11.6508
 30
0.0
 70
    32
  0
VERTEX
  5
1F6A
  8
241
 10
8.4077500000000001
 20
-11.6721
 30
0.0
 70
    32
  0
VERTEX
  5
1F6B
  8
241
 10
8.4502600000000001
 20
-11.6934
 30
0.0
 70
    32
  0
VERTEX
  5
1F6C
  8
241
 10
8.4927799999999998
 20
-11.714700000000001
 30
0.0
 70
    32
  0
VERTEX
  5
1F6D
  8
241
 10
8.5352899999999998
 20
-11.736000000000001
 30
0.0
 70
    32
  0
VERTEX
  5
1F6E
  8
241
 10
8.5778100000000013
 20
-11.757300000000001
 30
0.0
 70
    32
  0
VERTEX
  5
1F6F
  8
241
 10
8.6203199999999995
 20
-11.778600000000001
 30
0.0
 70
    32
  0
VERTEX
  5
1F70
  8
241
 10
8.6628399999999992
 20
-11.799899999999999
 30
0.0
 70
    32
  0
VERTEX
  5
1F71
  8
241
 10
8.7053499999999993
 20
-11.821199999999999
 30
0.0
 70
    32
  0
VERTEX
  5
1F72
  8
241
 10
8.7478699999999971
 20
-11.842499999999999
 30
0.0
 70
    32
  0
VERTEX
  5
1F73
  8
241
 10
8.7903800000000007
 20
-11.863799999999999
 30
0.0
 70
    32
  0
VERTEX
  5
1F74
  8
241
 10
8.8329000000000004
 20
-11.8851
 30
0.0
 70
    32
  0
VERTEX
  5
1F75
  8
241
 10
8.8754100000000005
 20
-11.9064
 30
0.0
 70
    32
  0
VERTEX
  5
1F76
  8
241
 10
8.9179300000000001
 20
-11.9277
 30
0.0
 70
    32
  0
VERTEX
  5
1F77
  8
241
 10
8.9604400000000002
 20
-11.949
 30
0.0
 70
    32
  0
VERTEX
  5
1F78
  8
241
 10
9.0029599999999999
 20
-11.9703
 30
0.0
 70
    32
  0
VERTEX
  5
1F79
  8
241
 10
9.0454799999999995
 20
-11.9916
 30
0.0
 70
    32
  0
VERTEX
  5
1F7A
  8
241
 10
9.0879899999999996
 20
-12.0129
 30
0.0
 70
    32
  0
VERTEX
  5
1F7B
  8
241
 10
9.130510000000001
 20
-12.0342
 30
0.0
 70
    32
  0
VERTEX
  5
1F7C
  8
241
 10
9.1730300000000007
 20
-12.0555
 30
0.0
 70
    32
  0
VERTEX
  5
1F7D
  8
241
 10
9.2155399999999972
 20
-12.0768
 30
0.0
 70
    32
  0
VERTEX
  5
1F7E
  8
241
 10
9.2580600000000004
 20
-12.098100000000001
 30
0.0
 70
    32
  0
VERTEX
  5
1F7F
  8
241
 10
9.3005800000000001
 20
-12.119400000000001
 30
0.0
 70
    32
  0
VERTEX
  5
1F80
  8
241
 10
9.3430999999999997
 20
-12.140700000000001
 30
0.0
 70
    32
  0
VERTEX
  5
1F81
  8
241
 10
9.3856099999999998
 20
-12.162000000000001
 30
0.0
 70
    32
  0
VERTEX
  5
1F82
  8
241
 10
9.4281299999999995
 20
-12.183299999999999
 30
0.0
 70
    32
  0
VERTEX
  5
1F83
  8
241
 10
9.4706499999999991
 20
-12.204599999999999
 30
0.0
 70
    32
  0
VERTEX
  5
1F84
  8
241
 10
9.5131700000000006
 20
-12.225899999999999
 30
0.0
 70
    32
  0
VERTEX
  5
1F85
  8
241
 10
9.5556800000000006
 20
-12.247199999999999
 30
0.0
 70
    32
  0
VERTEX
  5
1F86
  8
241
 10
9.5982000000000003
 20
-12.2685
 30
0.0
 70
    32
  0
VERTEX
  5
1F87
  8
241
 10
9.6407199999999982
 20
-12.2898
 30
0.0
 70
    32
  0
VERTEX
  5
1F88
  8
241
 10
9.6832399999999996
 20
-12.3111
 30
0.0
 70
    32
  0
VERTEX
  5
1F89
  8
241
 10
9.7257600000000011
 20
-12.3324
 30
0.0
 70
    32
  0
VERTEX
  5
1F8A
  8
241
 10
9.7682699999999993
 20
-12.3537
 30
0.0
 70
    32
  0
VERTEX
  5
1F8B
  8
241
 10
9.810789999999999
 20
-12.375
 30
0.0
 70
    32
  0
VERTEX
  5
1F8C
  8
241
 10
9.8533100000000005
 20
-12.3963
 30
0.0
 70
    32
  0
VERTEX
  5
1F8D
  8
241
 10
9.8958300000000001
 20
-12.4176
 30
0.0
 70
    32
  0
VERTEX
  5
1F8E
  8
241
 10
9.9383499999999998
 20
-12.4389
 30
0.0
 70
    32
  0
VERTEX
  5
1F8F
  8
241
 10
9.9808699999999995
 20
-12.4602
 30
0.0
 70
    32
  0
VERTEX
  5
1F90
  8
241
 10
10.023400000000001
 20
-12.4815
 30
0.0
 70
    32
  0
VERTEX
  5
1F91
  8
241
 10
10.065899999999999
 20
-12.502800000000001
 30
0.0
 70
    32
  0
VERTEX
  5
1F92
  8
241
 10
10.1084
 20
-12.524100000000001
 30
0.0
 70
    32
  0
VERTEX
  5
1F93
  8
241
 10
10.1509
 20
-12.545400000000001
 30
0.0
 70
    32
  0
VERTEX
  5
1F94
  8
241
 10
10.1935
 20
-12.566700000000001
 30
0.0
 70
    32
  0
VERTEX
  5
1F95
  8
241
 10
10.236000000000001
 20
-12.587999999999999
 30
0.0
 70
    32
  0
VERTEX
  5
1F96
  8
241
 10
10.278499999999999
 20
-12.609299999999999
 30
0.0
 70
    32
  0
VERTEX
  5
1F97
  8
241
 10
10.321
 20
-12.630599999999999
 30
0.0
 70
    32
  0
VERTEX
  5
1F98
  8
241
 10
10.3635
 20
-12.651899999999999
 30
0.0
 70
    32
  0
VERTEX
  5
1F99
  8
241
 10
10.4061
 20
-12.6732
 30
0.0
 70
    32
  0
VERTEX
  5
1F9A
  8
241
 10
10.448600000000001
 20
-12.6945
 30
0.0
 70
    32
  0
VERTEX
  5
1F9B
  8
241
 10
10.491099999999999
 20
-12.7158
 30
0.0
 70
    32
  0
VERTEX
  5
1F9C
  8
241
 10
10.5336
 20
-12.7371
 30
0.0
 70
    32
  0
VERTEX
  5
1F9D
  8
241
 10
10.5761
 20
-12.7584
 30
0.0
 70
    32
  0
VERTEX
  5
1F9E
  8
241
 10
10.6187
 20
-12.7797
 30
0.0
 70
    32
  0
VERTEX
  5
1F9F
  8
241
 10
10.661199999999999
 20
-12.8009
 30
0.0
 70
    32
  0
VERTEX
  5
1FA0
  8
241
 10
10.7037
 20
-12.8222
 30
0.0
 70
    32
  0
VERTEX
  5
1FA1
  8
241
 10
10.7462
 20
-12.843500000000001
 30
0.0
 70
    32
  0
VERTEX
  5
1FA2
  8
241
 10
10.7888
 20
-12.864800000000001
 30
0.0
 70
    32
  0
VERTEX
  5
1FA3
  8
241
 10
10.831300000000001
 20
-12.886100000000001
 30
0.0
 70
    32
  0
VERTEX
  5
1FA4
  8
241
 10
10.873799999999999
 20
-12.907400000000001
 30
0.0
 70
    32
  0
VERTEX
  5
1FA5
  8
241
 10
10.9163
 20
-12.928699999999999
 30
0.0
 70
    32
  0
VERTEX
  5
1FA6
  8
241
 10
10.9588
 20
-12.949999999999999
 30
0.0
 70
    32
  0
VERTEX
  5
1FA7
  8
241
 10
11.0014
 20
-12.971299999999999
 30
0.0
 70
    32
  0
VERTEX
  5
1FA8
  8
241
 10
11.043900000000001
 20
-12.992599999999999
 30
0.0
 70
    32
  0
VERTEX
  5
1FA9
  8
241
 10
11.086399999999999
 20
-13.0139
 30
0.0
 70
    32
  0
VERTEX
  5
1FAA
  8
241
 10
11.1289
 20
-13.0352
 30
0.0
 70
    32
  0
VERTEX
  5
1FAB
  8
241
 10
11.1715
 20
-13.0565
 30
0.0
 70
    32
  0
VERTEX
  5
1FAC
  8
241
 10
11.214
 20
-13.0778
 30
0.0
 70
    32
  0
VERTEX
  5
1FAD
  8
241
 10
11.256500000000001
 20
-13.0991
 30
0.0
 70
    32
  0
VERTEX
  5
1FAE
  8
241
 10
11.298999999999999
 20
-13.1204
 30
0.0
 70
    32
  0
VERTEX
  5
1FAF
  8
241
 10
11.3415
 20
-13.1417
 30
0.0
 70
    32
  0
VERTEX
  5
1FB0
  8
241
 10
11.3841
 20
-13.163
 30
0.0
 70
    32
  0
VERTEX
  5
1FB1
  8
241
 10
11.426600000000001
 20
-13.1843
 30
0.0
 70
    32
  0
VERTEX
  5
1FB2
  8
241
 10
11.469099999999999
 20
-13.2056
 30
0.0
 70
    32
  0
VERTEX
  5
1FB3
  8
241
 10
11.5116
 20
-13.226900000000001
 30
0.0
 70
    32
  0
VERTEX
  5
1FB4
  8
241
 10
11.5542
 20
-13.248200000000001
 30
0.0
 70
    32
  0
VERTEX
  5
1FB5
  8
241
 10
11.5967
 20
-13.269500000000001
 30
0.0
 70
    32
  0
VERTEX
  5
1FB6
  8
241
 10
11.639200000000001
 20
-13.290800000000001
 30
0.0
 70
    32
  0
VERTEX
  5
1FB7
  8
241
 10
11.681699999999999
 20
-13.312099999999999
 30
0.0
 70
    32
  0
VERTEX
  5
1FB8
  8
241
 10
11.7242
 20
-13.333399999999999
 30
0.0
 70
    32
  0
VERTEX
  5
1FB9
  8
241
 10
11.7668
 20
-13.354699999999999
 30
0.0
 70
    32
  0
VERTEX
  5
1FBA
  8
241
 10
11.8093
 20
-13.375999999999999
 30
0.0
 70
    32
  0
VERTEX
  5
1FBB
  8
241
 10
11.851800000000001
 20
-13.3973
 30
0.0
 70
    32
  0
VERTEX
  5
1FBC
  8
241
 10
11.894299999999999
 20
-13.4185
 30
0.0
 70
    32
  0
VERTEX
  5
1FBD
  8
241
 10
11.9369
 20
-13.4398
 30
0.0
 70
    32
  0
VERTEX
  5
1FBE
  8
241
 10
11.9794
 20
-13.4611
 30
0.0
 70
    32
  0
VERTEX
  5
1FBF
  8
241
 10
12.0219
 20
-13.4824
 30
0.0
 70
    32
  0
VERTEX
  5
1FC0
  8
241
 10
12.064399999999999
 20
-13.5037
 30
0.0
 70
    32
  0
VERTEX
  5
1FC1
  8
241
 10
12.106999999999999
 20
-13.525
 30
0.0
 70
    32
  0
VERTEX
  5
1FC2
  8
241
 10
12.1495
 20
-13.5463
 30
0.0
 70
    32
  0
VERTEX
  5
1FC3
  8
241
 10
12.192
 20
-13.567600000000001
 30
0.0
 70
    32
  0
VERTEX
  5
1FC4
  8
241
 10
12.234500000000001
 20
-13.588900000000001
 30
0.0
 70
    32
  0
VERTEX
  5
1FC5
  8
241
 10
12.277100000000001
 20
-13.610200000000001
 30
0.0
 70
    32
  0
VERTEX
  5
1FC6
  8
241
 10
12.319599999999999
 20
-13.631500000000001
 30
0.0
 70
    32
  0
VERTEX
  5
1FC7
  8
241
 10
12.3621
 20
-13.652799999999999
 30
0.0
 70
    32
  0
VERTEX
  5
1FC8
  8
241
 10
12.4046
 20
-13.674099999999999
 30
0.0
 70
    32
  0
VERTEX
  5
1FC9
  8
241
 10
12.4472
 20
-13.695399999999999
 30
0.0
 70
    32
  0
VERTEX
  5
1FCA
  8
241
 10
12.489699999999999
 20
-13.716699999999999
 30
0.0
 70
    32
  0
VERTEX
  5
1FCB
  8
241
 10
12.5322
 20
-13.738
 30
0.0
 70
    32
  0
VERTEX
  5
1FCC
  8
241
 10
12.5747
 20
-13.7593
 30
0.0
 70
    32
  0
VERTEX
  5
1FCD
  8
241
 10
12.6173
 20
-13.7806
 30
0.0
 70
    32
  0
VERTEX
  5
1FCE
  8
241
 10
12.659800000000001
 20
-13.8019
 30
0.0
 70
    32
  0
VERTEX
  5
1FCF
  8
241
 10
12.702299999999999
 20
-13.8232
 30
0.0
 70
    32
  0
VERTEX
  5
1FD0
  8
241
 10
12.7448
 20
-13.8445
 30
0.0
 70
    32
  0
VERTEX
  5
1FD1
  8
241
 10
12.7874
 20
-13.8658
 30
0.0
 70
    32
  0
VERTEX
  5
1FD2
  8
241
 10
12.8299
 20
-13.887
 30
0.0
 70
    32
  0
VERTEX
  5
1FD3
  8
241
 10
12.872400000000001
 20
-13.908300000000001
 30
0.0
 70
    32
  0
VERTEX
  5
1FD4
  8
241
 10
12.914899999999999
 20
-13.929600000000001
 30
0.0
 70
    32
  0
VERTEX
  5
1FD5
  8
241
 10
12.9575
 20
-13.950900000000001
 30
0.0
 70
    32
  0
VERTEX
  5
1FD6
  8
241
 10
13.0
 20
-13.972200000000001
 30
0.0
 70
    32
  0
SEQEND
  5
1FD7
  8
241
  0
LINE
  5
1FD8
  8
241
 10
12.89366511628031
 20
-16.1850415170193
 30
0.0
 11
12.89289351552725
 21
-16.943570226430921
 31
0.0
  0
LINE
  5
1FD9
  8
241
 10
14.30710731074214
 20
-16.943570226430921
 30
0.0
 11
14.304107986390591
 21
-13.994382694363621
 31
0.0
  0
LINE
  5
1FDA
  8
241
 10
14.30710731074214
 20
-16.943570226430921
 30
0.0
 11
12.89289351552725
 21
-16.943570226430921
 31
0.0
  0
LINE
  5
1FDB
  8
241
 10
12.42769997178949
 20
-13.68564365946599
 30
0.0
 11
12.89366511628031
 21
-16.1850415170193
 31
0.0
  0
LINE
  5
1FDC
  8
241
 10
14.20000055804848
 20
-13.97222559899094
 30
0.0
 11
14.304107986390591
 21
-13.994382694363621
 31
0.0
  0
LINE
  5
1FDD
  8
241
 10
14.20000055804848
 20
-13.97222559899094
 30
0.0
 11
12.89366511628031
 21
-16.1850415170193
 31
0.0
  0
LINE
  5
1FDE
  8
241
 10
13.0000002682209
 20
-13.97222559899094
 30
0.0
 11
14.20000055804848
 21
-13.97222559899094
 31
0.0
  0
LINE
  5
1FDF
  8
241
 10
7.2360392659902573
 20
-14.11514356732371
 30
0.0
 11
7.6264943927526456
 21
-11.3596832379699
 31
0.0
  0
LINE
  5
1FE0
  8
241
 10
7.6498696580529213
 20
-11.2923560664058
 30
0.0
 11
7.6264943927526456
 21
-11.335974559187919
 31
0.0
  0
LINE
  5
1FE1
  8
241
 10
7.6264943927526456
 20
-11.335974559187919
 30
0.0
 11
7.6264943927526456
 21
-11.3596832379699
 31
0.0
  0
LINE
  5
1FE2
  8
241
 10
14.30710731074214
 20
7.9815341159701054
 30
0.0
 11
19.500000402331349
 21
10.57798028772941
 31
0.0
  0
LINE
  5
1FE3
  8
240
 10
19.500000402331349
 20
10.57798028772941
 30
0.0
 11
19.963961443863809
 21
10.8099607750773
 31
0.0
  0
LINE
  5
1FE4
  8
241
 10
19.500000402331349
 20
-10.816449406448079
 30
0.0
 11
19.500000402331349
 21
-10.618822649121309
 31
0.0
  0
LINE
  5
1FE5
  8
240
 10
19.500000402331349
 20
-10.618822649121309
 30
0.0
 11
19.500000402331349
 21
10.57798028772941
 31
0.0
  0
LINE
  5
1FE6
  8
240
 10
19.500000402331349
 20
-10.618822649121309
 30
0.0
 11
19.57350652810419
 21
-10.65557543188336
 31
0.0
  0
LINE
  5
1FE7
  8
240
 10
19.86353678512387
 20
12.22499832510945
 30
0.0
 11
19.963961443863809
 21
11.51706743985411
 31
0.0
  0
LINE
  5
1FE8
  8
240
 10
19.963961443863809
 20
10.8099607750773
 30
0.0
 11
19.963961443863809
 21
11.51706743985411
 31
0.0
  0
LINE
  5
1FE9
  8
241
 10
13.0000002682209
 20
-6.8059908226132659
 30
0.0
 11
14.20000055804848
 21
-6.8059908226132659
 31
0.0
  0
LINE
  5
1FEA
  8
241
 10
7.2360392659902573
 20
10.8099607750773
 30
0.0
 11
12.89289351552725
 21
7.9815341159701054
 31
0.0
  0
LINE
  5
1FEB
  8
241
 10
13.63288657739758
 20
4.7682067379355129
 30
0.0
 11
13.5671142488718
 21
4.7682067379355129
 31
0.0
  0
LINE
  5
1FEC
  8
241
 10
12.89289351552725
 20
7.9815341159701054
 30
0.0
 11
14.30710731074214
 21
7.9815341159701054
 31
0.0
  0
ARC
  5
1FED
  8
241
 10
16.626654995717779
 20
7.5928732495472673
 30
0.0
 40
1.386605936541728
 50
116.57103680961851
 51
117.53853512844699
  0
ARC
  5
1FEE
  8
241
 10
10.57259312344376
 20
7.5914270731431079
 30
0.0
 40
1.3882361640516201
 50
62.46152321199385
 51
63.427868238995792
  0
LINE
  5
1FEF
  8
241
 10
7.2360392659902573
 20
11.51706743985411
 30
0.0
 11
7.2360392659902573
 21
10.8099607750773
 31
0.0
  0
LINE
  5
1FF0
  8
241
 10
19.075420044828199
 20
14.51857201755044
 30
0.0
 11
14.304107986390591
 21
16.904227435588801
 31
0.0
  0
LINE
  5
1FF1
  8
240
 10
19.963961443863809
 20
25.632211938500379
 30
0.0
 11
14.30710731074214
 21
31.289067119359949
 31
0.0
  0
LINE
  5
1FF2
  8
241
 10
18.984892929438502
 20
23.23892898857591
 30
0.0
 11
19.500000402331349
 21
23.754037043328768
 31
0.0
  0
LINE
  5
1FF3
  8
240
 10
19.500000402331349
 20
23.754037043328768
 30
0.0
 11
19.963961443863809
 21
24.217998608946768
 31
0.0
  0
LINE
  5
1FF4
  8
240
 10
19.500000402331349
 20
13.7262941112359
 30
0.0
 11
19.500000402331349
 21
23.754037043328768
 31
0.0
  0
LINE
  5
1FF5
  8
241
 10
19.075420044828199
 20
14.51857201755044
 30
0.0
 11
19.500000402331349
 21
13.7262941112359
 31
0.0
  0
LINE
  5
1FF6
  8
240
 10
19.500000402331349
 20
13.7262941112359
 30
0.0
 11
19.57350652810419
 21
13.58912978321311
 31
0.0
  0
LINE
  5
1FF7
  8
240
 10
19.963961443863809
 20
24.217998608946768
 30
0.0
 11
19.963961443863809
 21
25.632211938500379
 31
0.0
  0
LINE
  5
1FF8
  8
241
 10
7.2360392659902573
 20
24.217998608946768
 30
0.0
 11
8.1420270726084691
 21
23.31200987100598
 31
0.0
  0
LINE
  5
1FF9
  8
241
 10
12.39780616015196
 20
16.655184328556029
 30
0.0
 11
7.6264943927526456
 21
14.269528910517661
 31
0.0
  0
LINE
  5
1FFA
  8
241
 10
13.0000002682209
 20
16.735862999988569
 30
0.0
 11
13.0000002682209
 21
22.700000554323172
 31
0.0
  0
LINE
  5
1FFB
  8
241
 10
14.20000055804848
 20
16.882071271538699
 30
0.0
 11
14.20000055804848
 21
22.700000554323172
 31
0.0
  0
LINE
  5
1FFC
  8
241
 10
12.39780616015196
 20
16.655184328556029
 30
0.0
 11
14.256690163165331
 21
16.904227435588801
 31
0.0
  0
LINE
  5
1FFD
  8
241
 10
12.39780616015196
 20
16.655184328556029
 30
0.0
 11
12.89366511628031
 21
15.003598295152161
 31
0.0
  0
LINE
  5
1FFE
  8
241
 10
14.256690163165331
 20
16.904227435588801
 30
0.0
 11
14.304107986390591
 21
16.904227435588801
 31
0.0
  0
LINE
  5
1FFF
  8
241
 10
14.256690163165331
 20
16.904227435588801
 30
0.0
 11
12.89366511628031
 21
15.003598295152161
 31
0.0
  0
LINE
  5
2000
  8
241
 10
12.89366511628031
 20
15.003598295152161
 30
0.0
 11
12.89289351552725
 21
14.345495030283899
 31
0.0
  0
LINE
  5
2001
  8
241
 10
14.30710731074214
 20
14.345495030283899
 30
0.0
 11
14.304107986390591
 21
16.904227435588801
 31
0.0
  0
LINE
  5
2002
  8
241
 10
14.30710731074214
 20
14.345495030283899
 30
0.0
 11
12.89289351552725
 21
14.345495030283899
 31
0.0
  0
LINE
  5
2003
  8
241
 10
7.6000001281499854
 20
14.17722180485722
 30
0.0
 11
7.6000001281499854
 21
23.854037372648481
 31
0.0
  0
POLYLINE
  5
2004
  8
241
 66
     1
 10
0.0
 20
0.0
 30
0.0
 70
     8
  0
VERTEX
  5
2005
  8
241
 10
7.5999999999999988
 20
14.177199999999999
 30
0.0
 70
    32
  0
VERTEX
  5
2006
  8
241
 10
7.6001099999999999
 20
14.177300000000001
 30
0.0
 70
    32
  0
VERTEX
  5
2007
  8
241
 10
7.6002299999999998
 20
14.177300000000001
 30
0.0
 70
    32
  0
VERTEX
  5
2008
  8
241
 10
7.6003399999999992
 20
14.1774
 30
0.0
 70
    32
  0
VERTEX
  5
2009
  8
241
 10
7.6004500000000004
 20
14.1774
 30
0.0
 70
    32
  0
VERTEX
  5
200A
  8
241
 10
7.6005699999999994
 20
14.1775
 30
0.0
 70
    32
  0
VERTEX
  5
200B
  8
241
 10
7.6006799999999997
 20
14.1776
 30
0.0
 70
    32
  0
VERTEX
  5
200C
  8
241
 10
7.6007999999999987
 20
14.1776
 30
0.0
 70
    32
  0
VERTEX
  5
200D
  8
241
 10
7.6009099999999998
 20
14.1777
 30
0.0
 70
    32
  0
VERTEX
  5
200E
  8
241
 10
7.6010200000000001
 20
14.1777
 30
0.0
 70
    32
  0
VERTEX
  5
200F
  8
241
 10
7.6011399999999991
 20
14.1778
 30
0.0
 70
    32
  0
VERTEX
  5
2010
  8
241
 10
7.6012500000000003
 20
14.1778
 30
0.0
 70
    32
  0
VERTEX
  5
2011
  8
241
 10
7.6013599999999997
 20
14.177899999999999
 30
0.0
 70
    32
  0
VERTEX
  5
2012
  8
241
 10
7.6014799999999996
 20
14.178000000000001
 30
0.0
 70
    32
  0
VERTEX
  5
2013
  8
241
 10
7.601589999999999
 20
14.178000000000001
 30
0.0
 70
    32
  0
VERTEX
  5
2014
  8
241
 10
7.6017000000000001
 20
14.178100000000001
 30
0.0
 70
    32
  0
VERTEX
  5
2015
  8
241
 10
7.60182
 20
14.178100000000001
 30
0.0
 70
    32
  0
VERTEX
  5
2016
  8
241
 10
7.6019300000000003
 20
14.1782
 30
0.0
 70
    32
  0
VERTEX
  5
2017
  8
241
 10
7.6020399999999988
 20
14.1782
 30
0.0
 70
    32
  0
VERTEX
  5
2018
  8
241
 10
7.6021599999999996
 20
14.1783
 30
0.0
 70
    32
  0
VERTEX
  5
2019
  8
241
 10
7.602269999999999
 20
14.1784
 30
0.0
 70
    32
  0
VERTEX
  5
201A
  8
241
 10
7.6023899999999989
 20
14.1784
 30
0.0
 70
    32
  0
VERTEX
  5
201B
  8
241
 10
7.6025
 20
14.1785
 30
0.0
 70
    32
  0
VERTEX
  5
201C
  8
241
 10
7.6026100000000003
 20
14.1785
 30
0.0
 70
    32
  0
VERTEX
  5
201D
  8
241
 10
7.6027300000000002
 20
14.178599999999999
 30
0.0
 70
    32
  0
VERTEX
  5
201E
  8
241
 10
7.6028399999999987
 20
14.178599999999999
 30
0.0
 70
    32
  0
VERTEX
  5
201F
  8
241
 10
7.602949999999999
 20
14.178699999999999
 30
0.0
 70
    32
  0
VERTEX
  5
2020
  8
241
 10
7.6030699999999989
 20
14.178800000000001
 30
0.0
 70
    32
  0
VERTEX
  5
2021
  8
241
 10
7.60318
 20
14.178800000000001
 30
0.0
 70
    32
  0
VERTEX
  5
2022
  8
241
 10
7.6032899999999994
 20
14.178900000000001
 30
0.0
 70
    32
  0
VERTEX
  5
2023
  8
241
 10
7.6034100000000002
 20
14.178900000000001
 30
0.0
 70
    32
  0
VERTEX
  5
2024
  8
241
 10
7.6035199999999987
 20
14.179
 30
0.0
 70
    32
  0
VERTEX
  5
2025
  8
241
 10
7.603629999999999
 20
14.179
 30
0.0
 70
    32
  0
VERTEX
  5
2026
  8
241
 10
7.6037499999999989
 20
14.1791
 30
0.0
 70
    32
  0
VERTEX
  5
2027
  8
241
 10
7.6038600000000001
 20
14.1792
 30
0.0
 70
    32
  0
VERTEX
  5
2028
  8
241
 10
7.6039699999999986
 20
14.1792
 30
0.0
 70
    32
  0
VERTEX
  5
2029
  8
241
 10
7.6040899999999993
 20
14.1793
 30
0.0
 70
    32
  0
VERTEX
  5
202A
  8
241
 10
7.6041999999999987
 20
14.1793
 30
0.0
 70
    32
  0
VERTEX
  5
202B
  8
241
 10
7.6043199999999986
 20
14.179399999999999
 30
0.0
 70
    32
  0
VERTEX
  5
202C
  8
241
 10
7.6044299999999998
 20
14.179399999999999
 30
0.0
 70
    32
  0
VERTEX
  5
202D
  8
241
 10
7.6045399999999992
 20
14.179500000000001
 30
0.0
 70
    32
  0
VERTEX
  5
202E
  8
241
 10
7.60466
 20
14.179600000000001
 30
0.0
 70
    32
  0
VERTEX
  5
202F
  8
241
 10
7.6047699999999994
 20
14.179600000000001
 30
0.0
 70
    32
  0
VERTEX
  5
2030
  8
241
 10
7.6048799999999996
 20
14.1797
 30
0.0
 70
    32
  0
VERTEX
  5
2031
  8
241
 10
7.6050000000000004
 20
14.1797
 30
0.0
 70
    32
  0
VERTEX
  5
2032
  8
241
 10
7.6051099999999998
 20
14.1798
 30
0.0
 70
    32
  0
VERTEX
  5
2033
  8
241
 10
7.6052200000000001
 20
14.1798
 30
0.0
 70
    32
  0
VERTEX
  5
2034
  8
241
 10
7.6053399999999991
 20
14.1799
 30
0.0
 70
    32
  0
VERTEX
  5
2035
  8
241
 10
7.6054500000000003
 20
14.18
 30
0.0
 70
    32
  0
VERTEX
  5
2036
  8
241
 10
7.6055599999999997
 20
14.18
 30
0.0
 70
    32
  0
VERTEX
  5
2037
  8
241
 10
7.6056800000000004
 20
14.180099999999999
 30
0.0
 70
    32
  0
VERTEX
  5
2038
  8
241
 10
7.6057899999999989
 20
14.180099999999999
 30
0.0
 70
    32
  0
VERTEX
  5
2039
  8
241
 10
7.6059099999999997
 20
14.180199999999999
 30
0.0
 70
    32
  0
VERTEX
  5
203A
  8
241
 10
7.60602
 20
14.180199999999999
 30
0.0
 70
    32
  0
VERTEX
  5
203B
  8
241
 10
7.6061300000000003
 20
14.180300000000001
 30
0.0
 70
    32
  0
VERTEX
  5
203C
  8
241
 10
7.6062500000000002
 20
14.180400000000001
 30
0.0
 70
    32
  0
VERTEX
  5
203D
  8
241
 10
7.6063599999999996
 20
14.180400000000001
 30
0.0
 70
    32
  0
VERTEX
  5
203E
  8
241
 10
7.606469999999999
 20
14.1805
 30
0.0
 70
    32
  0
VERTEX
  5
203F
  8
241
 10
7.6065899999999989
 20
14.1805
 30
0.0
 70
    32
  0
VERTEX
  5
2040
  8
241
 10
7.6067
 20
14.1806
 30
0.0
 70
    32
  0
VERTEX
  5
2041
  8
241
 10
7.6068100000000003
 20
14.1806
 30
0.0
 70
    32
  0
VERTEX
  5
2042
  8
241
 10
7.6069300000000002
 20
14.1807
 30
0.0
 70
    32
  0
VERTEX
  5
2043
  8
241
 10
7.6070399999999987
 20
14.1807
 30
0.0
 70
    32
  0
VERTEX
  5
2044
  8
241
 10
7.607149999999999
 20
14.1808
 30
0.0
 70
    32
  0
VERTEX
  5
2045
  8
241
 10
7.6072699999999989
 20
14.180899999999999
 30
0.0
 70
    32
  0
VERTEX
  5
2046
  8
241
 10
7.60738
 20
14.180899999999999
 30
0.0
 70
    32
  0
VERTEX
  5
2047
  8
241
 10
7.607499999999999
 20
14.180999999999999
 30
0.0
 70
    32
  0
VERTEX
  5
2048
  8
241
 10
7.6076100000000002
 20
14.180999999999999
 30
0.0
 70
    32
  0
VERTEX
  5
2049
  8
241
 10
7.6077199999999987
 20
14.181100000000001
 30
0.0
 70
    32
  0
VERTEX
  5
204A
  8
241
 10
7.6078399999999986
 20
14.181100000000001
 30
0.0
 70
    32
  0
VERTEX
  5
204B
  8
241
 10
7.6079499999999989
 20
14.1812
 30
0.0
 70
    32
  0
VERTEX
  5
204C
  8
241
 10
7.60806
 20
14.1813
 30
0.0
 70
    32
  0
VERTEX
  5
204D
  8
241
 10
7.6081799999999991
 20
14.1813
 30
0.0
 70
    32
  0
VERTEX
  5
204E
  8
241
 10
7.6082899999999993
 20
14.1814
 30
0.0
 70
    32
  0
VERTEX
  5
204F
  8
241
 10
7.6083999999999987
 20
14.1814
 30
0.0
 70
    32
  0
VERTEX
  5
2050
  8
241
 10
7.6085199999999986
 20
14.1815
 30
0.0
 70
    32
  0
VERTEX
  5
2051
  8
241
 10
7.6086299999999998
 20
14.1815
 30
0.0
 70
    32
  0
VERTEX
  5
2052
  8
241
 10
7.6087399999999992
 20
14.1816
 30
0.0
 70
    32
  0
VERTEX
  5
2053
  8
241
 10
7.60886
 20
14.181699999999999
 30
0.0
 70
    32
  0
VERTEX
  5
2054
  8
241
 10
7.6089699999999993
 20
14.181699999999999
 30
0.0
 70
    32
  0
VERTEX
  5
2055
  8
241
 10
7.6090799999999996
 20
14.181800000000001
 30
0.0
 70
    32
  0
VERTEX
  5
2056
  8
241
 10
7.6092000000000004
 20
14.181800000000001
 30
0.0
 70
    32
  0
VERTEX
  5
2057
  8
241
 10
7.6093099999999998
 20
14.181900000000001
 30
0.0
 70
    32
  0
VERTEX
  5
2058
  8
241
 10
7.6094299999999997
 20
14.181900000000001
 30
0.0
 70
    32
  0
VERTEX
  5
2059
  8
241
 10
7.6095399999999991
 20
14.182
 30
0.0
 70
    32
  0
VERTEX
  5
205A
  8
241
 10
7.6096500000000002
 20
14.1821
 30
0.0
 70
    32
  0
VERTEX
  5
205B
  8
241
 10
7.6097700000000001
 20
14.1821
 30
0.0
 70
    32
  0
VERTEX
  5
205C
  8
241
 10
7.6098800000000004
 20
14.1822
 30
0.0
 70
    32
  0
VERTEX
  5
205D
  8
241
 10
7.6099899999999989
 20
14.1822
 30
0.0
 70
    32
  0
VERTEX
  5
205E
  8
241
 10
7.6101099999999997
 20
14.1823
 30
0.0
 70
    32
  0
VERTEX
  5
205F
  8
241
 10
7.6102199999999991
 20
14.1823
 30
0.0
 70
    32
  0
VERTEX
  5
2060
  8
241
 10
7.6103300000000003
 20
14.182399999999999
 30
0.0
 70
    32
  0
VERTEX
  5
2061
  8
241
 10
7.6104500000000002
 20
14.182499999999999
 30
0.0
 70
    32
  0
VERTEX
  5
2062
  8
241
 10
7.6105600000000004
 20
14.182499999999999
 30
0.0
 70
    32
  0
VERTEX
  5
2063
  8
241
 10
7.6106699999999989
 20
14.182600000000001
 30
0.0
 70
    32
  0
VERTEX
  5
2064
  8
241
 10
7.6107899999999988
 20
14.182600000000001
 30
0.0
 70
    32
  0
VERTEX
  5
2065
  8
241
 10
7.6108999999999991
 20
14.182700000000001
 30
0.0
 70
    32
  0
VERTEX
  5
2066
  8
241
 10
7.611019999999999
 20
14.182700000000001
 30
0.0
 70
    32
  0
VERTEX
  5
2067
  8
241
 10
7.6111300000000002
 20
14.1828
 30
0.0
 70
    32
  0
VERTEX
  5
2068
  8
241
 10
7.6112399999999987
 20
14.1829
 30
0.0
 70
    32
  0
VERTEX
  5
2069
  8
241
 10
7.6113600000000003
 20
14.1829
 30
0.0
 70
    32
  0
VERTEX
  5
206A
  8
241
 10
7.6114699999999988
 20
14.183
 30
0.0
 70
    32
  0
VERTEX
  5
206B
  8
241
 10
7.61158
 20
14.183
 30
0.0
 70
    32
  0
VERTEX
  5
206C
  8
241
 10
7.611699999999999
 20
14.1831
 30
0.0
 70
    32
  0
VERTEX
  5
206D
  8
241
 10
7.6118100000000002
 20
14.1831
 30
0.0
 70
    32
  0
VERTEX
  5
206E
  8
241
 10
7.6119199999999987
 20
14.183199999999999
 30
0.0
 70
    32
  0
VERTEX
  5
206F
  8
241
 10
7.6120399999999986
 20
14.183299999999999
 30
0.0
 70
    32
  0
VERTEX
  5
2070
  8
241
 10
7.6121499999999989
 20
14.183299999999999
 30
0.0
 70
    32
  0
VERTEX
  5
2071
  8
241
 10
7.61226
 20
14.183400000000001
 30
0.0
 70
    32
  0
VERTEX
  5
2072
  8
241
 10
7.612379999999999
 20
14.183400000000001
 30
0.0
 70
    32
  0
VERTEX
  5
2073
  8
241
 10
7.6124899999999993
 20
14.1835
 30
0.0
 70
    32
  0
VERTEX
  5
2074
  8
241
 10
7.6126100000000001
 20
14.1835
 30
0.0
 70
    32
  0
VERTEX
  5
2075
  8
241
 10
7.6127199999999986
 20
14.1836
 30
0.0
 70
    32
  0
VERTEX
  5
2076
  8
241
 10
7.6128299999999998
 20
14.1837
 30
0.0
 70
    32
  0
VERTEX
  5
2077
  8
241
 10
7.6129499999999988
 20
14.1837
 30
0.0
 70
    32
  0
VERTEX
  5
2078
  8
241
 10
7.6130599999999999
 20
14.1838
 30
0.0
 70
    32
  0
VERTEX
  5
2079
  8
241
 10
7.6131699999999993
 20
14.1838
 30
0.0
 70
    32
  0
VERTEX
  5
207A
  8
241
 10
7.6132899999999992
 20
14.1839
 30
0.0
 70
    32
  0
VERTEX
  5
207B
  8
241
 10
7.6134000000000004
 20
14.1839
 30
0.0
 70
    32
  0
VERTEX
  5
207C
  8
241
 10
7.6135099999999998
 20
14.183999999999999
 30
0.0
 70
    32
  0
VERTEX
  5
207D
  8
241
 10
7.6136299999999997
 20
14.184100000000001
 30
0.0
 70
    32
  0
VERTEX
  5
207E
  8
241
 10
7.6137399999999991
 20
14.184100000000001
 30
0.0
 70
    32
  0
VERTEX
  5
207F
  8
241
 10
7.6138500000000002
 20
14.184200000000001
 30
0.0
 70
    32
  0
VERTEX
  5
2080
  8
241
 10
7.6139700000000001
 20
14.184200000000001
 30
0.0
 70
    32
  0
VERTEX
  5
2081
  8
241
 10
7.6140800000000004
 20
14.1843
 30
0.0
 70
    32
  0
VERTEX
  5
2082
  8
241
 10
7.6142000000000003
 20
14.1843
 30
0.0
 70
    32
  0
VERTEX
  5
2083
  8
241
 10
7.6143099999999997
 20
14.1844
 30
0.0
 70
    32
  0
VERTEX
  5
2084
  8
241
 10
7.6144199999999991
 20
14.1844
 30
0.0
 70
    32
  0
SEQEND
  5
2085
  8
241
  0
LINE
  5
2086
  8
240
 10
12.89289351552725
 20
31.289067119359949
 30
0.0
 11
7.2360392659902573
 21
25.632211938500379
 31
0.0
  0
LINE
  5
2087
  8
240
 10
14.30710731074214
 20
31.289067119359949
 30
0.0
 11
12.89289351552725
 21
31.289067119359949
 31
0.0
  0
LINE
  5
2088
  8
241
 10
7.2360392659902573
 20
25.632211938500379
 30
0.0
 11
7.2360392659902573
 21
24.217998608946768
 31
0.0
  0
LINE
  5
2089
  8
245
 10
-34.472399372771577
 20
0.0
 30
0.0
 11
23.16058888206436
 21
0.0
 31
0.0
  0
LINE
  5
208A
  8
245
 10
-34.472399372771577
 20
-0.0000000000000284
 30
0.0
 11
23.16058888206436
 21
-0.0000000000000284
 31
0.0
  0
LINE
  5
208B
  8
240
 10
0.0
 20
25.49999952316281
 30
0.0
 11
7.2360392659902564
 21
25.49999952316281
 31
0.0
  0
LINE
  5
208C
  8
240
 10
0.0
 20
-25.49999952316287
 30
0.0
 11
7.6552811732635284
 21
-25.49999952316287
 31
0.0
  0
LINE
  5
208D
  8
240
 10
-30.0
 20
13.414359999999951
 30
0.0
 11
-30.0
 21
-13.414359000000021
 31
0.0
  0
LINE
  5
208E
  8
241
 10
-25.5
 20
13.99999999999997
 30
0.0
 11
-25.5
 21
-0.0000000000000284
 31
0.0
  0
LINE
  5
208F
  8
241
 10
-27.51998599999996
 20
13.716109999999921
 30
0.0
 11
-27.519986000000099
 21
-0.0000000000000284
 31
0.0
  0
LINE
  5
2090
  8
245
 10
-13.00000000000002
 20
7.9560579999999552
 30
0.0
 11
-13.00000000000002
 21
-7.9273050000000733
 31
0.0
  0
CIRCLE
  5
2091
  8
241
 10
-13.00000000000002
 20
-0.0000000000000284
 30
0.0
 40
4.0
  0
CIRCLE
  5
2092
  8
241
 10
-13.00000000000002
 20
-0.0000000000000284
 30
0.0
 40
5.0819999999999981
  0
LINE
  5
2093
  8
240
 10
-11.01764999999997
 20
-16.500000000000021
 30
0.0
 11
-3.9823499999999932
 21
-16.500000000000021
 31
0.0
  0
LINE
  5
2094
  8
241
 10
-12.979492422961521
 20
-14.00000000000003
 30
0.0
 11
-2.0205074917536741
 21
-13.999999585390601
 31
0.0
  0
ARC
  5
2095
  8
240
 10
-11.01764999999997
 20
-15.50000000000003
 30
0.0
 40
1.0
 50
209.99999999999969
 51
270.0
  0
LINE
  5
2096
  8
240
 10
-25.5
 20
-14.00000000000003
 30
0.0
 11
-12.979492422961521
 21
-13.99999999999997
 31
0.0
  0
LINE
  5
2097
  8
241
 10
-25.5
 20
-14.00000000000003
 30
0.0
 11
-25.5
 21
-0.0000000000000284
 31
0.0
  0
LINE
  5
2098
  8
241
 10
-27.51998599999996
 20
-13.716108999999991
 30
0.0
 11
-27.519985999999889
 21
-0.0000000000000284
 31
0.0
  0
LINE
  5
2099
  8
240
 10
-27.51998599999996
 20
-13.716108999999991
 30
0.0
 11
-29.061081000000001
 21
-13.987846000000021
 31
0.0
  0
LINE
  5
209A
  8
240
 10
-30.0
 20
-13.414359000000021
 30
0.0
 11
-29.892819999999968
 21
-13.600000000000041
 31
0.0
  0
ARC
  5
209B
  8
240
 10
-29.199999999999989
 20
-13.20000000000001
 30
0.0
 40
0.8
 50
209.99999999999969
 51
280.00000000000011
  0
LINE
  5
209C
  8
240
 10
-27.51998599999996
 20
-13.716108999999991
 30
0.0
 11
-25.5
 21
-14.00000000000003
 31
0.0
  0
LINE
  5
209D
  8
240
 10
-12.866024999999979
 20
-14.298519000000081
 30
0.0
 11
-11.883674999999981
 21
-16.000000000000021
 31
0.0
  0
ARC
  5
209E
  8
240
 10
-12.0
 20
-13.798519000000081
 30
0.0
 40
1.0
 50
191.62355299999911
 51
209.99999999999969
  0
TEXT
  5
209F
  8
247
 10
4.6601043077524178
 20
-12.875516257994381
 30
0.0
 40
2.5
  1
CKB5-C5262-45B-20
 50
90.0
 41
0.65
  7
YOKO
 11
4.6601043077524178
 21
-12.875516257994381
 31
0.0
 73
     1
  0
ARC
  5
20A4
  8
240
 10
-3.9823499999999932
 20
-15.50000000000003
 30
0.0
 40
1.0
 50
270.0
 51
330.00000000000028
  0
LINE
  5
2116
  8
240
 10
-2.0205075770384711
 20
-13.99999999999997
 30
0.0
 11
0.0
 21
-14.00000000000003
 31
0.0
  0
LINE
  5
2117
  8
240
 10
-2.133973999999963
 20
-14.298519000000081
 30
0.0
 11
-3.116324999999986
 21
-16.000000000000021
 31
0.0
  0
ARC
  5
2118
  8
240
 10
-3.0
 20
-13.798519000000081
 30
0.0
 40
1.0
 50
330.00000000000028
 51
348.37644700000078
  0
LINE
  5
2140
  8
240
 10
-11.01764999999997
 20
16.499999999999972
 30
0.0
 11
-3.9823499999999932
 21
16.499999999999972
 31
0.0
  0
LINE
  5
2141
  8
241
 10
-12.979492628660379
 20
13.999999999999799
 30
0.0
 11
-2.020507371339618
 21
13.999999999999851
 31
0.0
  0
ARC
  5
2142
  8
240
 10
-11.01764999999997
 20
15.49999999999997
 30
0.0
 40
1.0
 50
90.0
 51
150.0000000000002
  0
LINE
  5
2143
  8
240
 10
-25.5
 20
13.99999999999997
 30
0.0
 11
-12.979492628660379
 21
13.999999999999851
 31
0.0
  0
LINE
  5
2144
  8
240
 10
-27.51998599999996
 20
13.716109999999921
 30
0.0
 11
-29.061081000000001
 21
13.987846999999951
 31
0.0
  0
LINE
  5
2145
  8
240
 10
-30.0
 20
13.414359999999951
 30
0.0
 11
-29.892819999999968
 21
13.599999999999991
 31
0.0
  0
ARC
  5
2146
  8
240
 10
-29.199999999999989
 20
13.19999999999995
 30
0.0
 40
0.8
 50
79.999999999999815
 51
150.0000000000002
  0
LINE
  5
2147
  8
240
 10
-27.51998599999996
 20
13.716109999999921
 30
0.0
 11
-25.5
 21
13.99999999999997
 31
0.0
  0
ARC
  5
2148
  8
240
 10
-12.0
 20
13.7985199999999
 30
0.0
 40
1.0
 50
150.0000000000002
 51
168.37644700000081
  0
LINE
  5
2149
  8
240
 10
-12.866024999999979
 20
14.298519999999909
 30
0.0
 11
-11.883674999999981
 21
15.99999999999997
 31
0.0
  0
ARC
  5
214A
  8
240
 10
-3.9823499999999932
 20
15.49999999999997
 30
0.0
 40
1.0
 50
29.999999999999719
 51
90.0
  0
LINE
  5
214B
  8
240
 10
-2.020507371339618
 20
13.999999999999851
 30
0.0
 11
0.0
 21
13.99999999999997
 31
0.0
  0
ARC
  5
214C
  8
240
 10
-3.0
 20
13.7985199999999
 30
0.0
 40
1.0
 50
11.62355299999917
 51
29.999999999999719
  0
LINE
  5
214D
  8
240
 10
-2.133973999999963
 20
14.298519999999909
 30
0.0
 11
-3.116324999999986
 21
15.99999999999997
 31
0.0
  0
LINE
  5
214E
  8
241
 10
0.0
 20
13.99999999999997
 30
0.0
 11
0.0
 21
-14.00000000000003
 31
0.0
  0
LINE
  5
214F
  8
241
 10
11.00000040233135
 20
22.69999999999996
 30
0.0
 11
16.30000040233136
 21
22.69999999999996
 31
0.0
  0
ARC
  5
2150
  8
241
 10
10.999727500529289
 20
29.698947014543538
 30
0.0
 40
6.9989470198640413
 50
240.93848486425711
 51
270.00223406770169
  0
ARC
  5
2151
  8
241
 10
16.301238731633472
 20
29.694888112210961
 30
0.0
 40
6.9948882218238611
 50
269.98985672954598
 51
297.2130116344386
  0
ARC
  5
2152
  8
241
 10
13.368096963441911
 20
9.3089945244236514
 30
0.0
 40
6.029246658639396
 50
331.65716155432881
 51
11.120612089916539
  0
ARC
  5
2153
  8
241
 10
13.42833347051185
 20
1.195962219747879
 30
0.0
 40
7.4224363805017504
 50
35.113386160200982
 51
45.024176339234899
  0
ARC
  5
2154
  8
241
 10
13.45656534750734
 20
13.736642207327501
 30
0.0
 40
8.9650357170395907
 50
219.18065161572159
 51
305.59414378328972
  0
ARC
  5
2155
  8
241
 10
8.2455185448611417
 20
9.7837151489686693
 30
0.0
 40
2.4390034022121729
 50
112.5634662035492
 51
224.54519136682819
  0
ARC
  5
2156
  8
241
 10
-4.5752801286608387
 20
9.7521695356705784
 30
0.0
 40
25.03365413429216
 50
318.5905165990672
 51
344.09483132509462
  0
ARC
  5
2157
  8
241
 10
36.719858701044231
 20
12.763625159943571
 30
0.0
 40
30.7506348625645
 50
188.3005947957391
 51
219.5236845048523
  0
ARC
  5
2158
  8
241
 10
10.546317692752011
 20
-22.597886262793111
 30
0.0
 40
10.061162072548649
 50
27.136137960649691
 51
36.110257349446982
  0
ARC
  5
2159
  8
241
 10
14.651864695693749
 20
-14.2627666888632
 30
0.0
 40
4.6871533558739271
 50
329.11969059538183
 51
357.96642168038522
  0
ARC
  5
215A
  8
241
 10
13.34388613601806
 20
-6.094963422904744
 30
0.0
 40
11.841217988919921
 50
232.8020381076131
 51
296.75527557698518
  0
ARC
  5
215B
  8
241
 10
-7.7423715715721411
 20
-10.437958041367439
 30
0.0
 40
29.069873737235479
 50
319.0091931687092
 51
339.57571619702122
  0
LINE
  5
215C
  8
241
 10
19.500000402331349
 20
-25.509435683488881
 30
0.0
 11
14.20000055804848
 21
-30.854295939207109
 31
0.0
  0
LINE
  5
215D
  8
241
 10
7.6000004023313741
 20
-25.444598640969019
 30
0.0
 11
13.0000002682209
 21
-30.854295939207109
 31
0.0
  0
ARC
  5
215E
  8
241
 10
32.94523693728577
 20
-11.71719899271239
 30
0.0
 40
26.725522766446161
 50
198.49465422469001
 51
221.7291866238258
  0
ARC
  5
215F
  8
241
 10
12.40470859446706
 20
-16.190125491915939
 30
0.0
 40
6.2549164481961981
 50
141.7839642496667
 51
219.81203027480299
  0
VIEWPORT
  5
22
 67
     1
  8
0
 10
261.51769911504419
 20
148.5
 30
0.0
 40
523.0353982300885
 41
297.0
 68
     1
 69
     1
1001
ACAD
1000
MVIEW
1002
{
1070
    16
1010
0.0
1020
0.0
1030
0.0
1010
0.0
1020
0.0
1030
1.0
1040
0.0
1040
297.0
1040
261.51769911504419
1040
148.5
1040
50.0
1040
0.0
1040
0.0
1070
     0
1070
   100
1070
     1
1070
     1
1070
     0
1070
     0
1070
     0
1070
     0
1040
0.0
1040
0.0
1040
0.0
1040
1.0
1040
1.0
1040
10.0
1040
10.0
1070
     0
1002
{
1002
}
1002
}
1001
GENIUS_GENODEF_13
1002
{
1000
HIER
1070
     0
1002
}
1002
{
1000
MANEDIT
1070
     0
1002
}
1002
{
1000
NOSEL
1070
     0
1002
}
1002
{
1000
BEHIND
1070
     0
1002
}
1002
{
1000
OTHER
1070
     0
1002
}
1002
{
1000
REACTOR
1002
}
1001
GENIUS_GENOBJ-N-SDF_13
1002
{
1000
OWNER
1000
GEN
1002
}
1001
GENIUS_GENSCREG_15
1000
PF
1040
1.0
1000
DF
1040
1.0
1000
MIN
1011
0.0
1021
0.0
1031
0.0
1021
0.0
1031
0.0
1000
MAX
1011
523.0353982300885
1021
0.0
1031
0.0
1021
297.0
1031
0.0
1000
FLAGS
1070
     2
  0
ENDSEC
  0
EOF
