  0
SECTION
  2
HEADER
  9
$ACADVER
  1
AC1024
  9
$ACADMAINTVER
 70
     6
  9
$DWGCODEPAGE
  3
ANSI_1252
  9
$INSBASE
 10
0.0
 20
0.0
 30
0.0
  9
$EXTMIN
 10
-41.22993096147879
 20
-29.49999899999997
 30
0.0
  9
$EXTMAX
 10
63.99998433384046
 20
61.0
 30
0.0
  9
$LIMMIN
 10
0.0
 20
0.0
  9
$LIMMAX
 10
297.0
 20
210.0
  9
$ORTHOMODE
 70
     0
  9
$REGENMODE
 70
     1
  9
$FILLMODE
 70
     1
  9
$QTEXTMODE
 70
     0
  9
$MIRRTEXT
 70
     1
  9
$LTSCALE
 40
10.0
  9
$ATTMODE
 70
     1
  9
$TEXTSIZE
 40
3.0
  9
$TRACEWID
 40
1.0
  9
$TEXTSTYLE
  7
YOKO
  9
$CLAYER
  8
240
  9
$CELTYPE
  6
ByLayer
  9
$CECOLOR
 62
   256
  9
$CELTSCALE
 40
1.0
  9
$DISPSILH
 70
     0
  9
$DIMSCALE
 40
1.0
  9
$DIMASZ
 40
2.229999999999999
  9
$DIMEXO
 40
0.5
  9
$DIMDLI
 40
2.5
  9
$DIMRND
 40
0.0
  9
$DIMDLE
 40
0.0
  9
$DIMEXE
 40
1.0
  9
$DIMTP
 40
0.0
  9
$DIMTM
 40
0.0
  9
$DIMTXT
 40
3.0
  9
$DIMCEN
 40
0.0
  9
$DIMTSZ
 40
0.0
  9
$DIMTOL
 70
     0
  9
$DIMLIM
 70
     0
  9
$DIMTIH
 70
     0
  9
$DIMTOH
 70
     0
  9
$DIMSE1
 70
     0
  9
$DIMSE2
 70
     0
  9
$DIMTAD
 70
     3
  9
$DIMZIN
 70
     8
  9
$DIMBLK
  1
OPEN
  9
$DIMASO
 70
     1
  9
$DIMSHO
 70
     1
  9
$DIMPOST
  1

  9
$DIMAPOST
  1

  9
$DIMALT
 70
     0
  9
$DIMALTD
 70
     2
  9
$DIMALTF
 40
25.4
  9
$DIMLFAC
 40
1.0
  9
$DIMTOFL
 70
     1
  9
$DIMTVP
 40
0.0
  9
$DIMTIX
 70
     0
  9
$DIMSOXD
 70
     0
  9
$DIMSAH
 70
     0
  9
$DIMBLK1
  1

  9
$DIMBLK2
  1

  9
$DIMSTYLE
  2
BIGT
  9
$DIMCLRD
 70
   256
  9
$DIMCLRE
 70
   256
  9
$DIMCLRT
 70
    40
  9
$DIMTFAC
 40
1.0
  9
$DIMGAP
 40
1.0
  9
$DIMJUST
 70
     0
  9
$DIMSD1
 70
     0
  9
$DIMSD2
 70
     0
  9
$DIMTOLJ
 70
     1
  9
$DIMTZIN
 70
     0
  9
$DIMALTZ
 70
     0
  9
$DIMALTTZ
 70
     0
  9
$DIMUPT
 70
     0
  9
$DIMDEC
 70
     2
  9
$DIMTDEC
 70
     2
  9
$DIMALTU
 70
     2
  9
$DIMALTTD
 70
     2
  9
$DIMTXSTY
  7
STANDARD
  9
$DIMAUNIT
 70
     0
  9
$DIMADEC
 70
     0
  9
$DIMALTRND
 40
0.0
  9
$DIMAZIN
 70
     0
  9
$DIMDSEP
 70
    46
  9
$DIMATFIT
 70
     3
  9
$DIMFRAC
 70
     0
  9
$DIMLDRBLK
  1

  9
$DIMLUNIT
 70
     2
  9
$DIMLWD
 70
    -2
  9
$DIMLWE
 70
    -2
  9
$DIMTMOVE
 70
     2
  9
$DIMFXL
 40
1.0
  9
$DIMFXLON
 70
     0
  9
$DIMJOGANG
 40
0.7853981633974483
  9
$DIMTFILL
 70
     0
  9
$DIMTFILLCLR
 70
     0
  9
$DIMARCSYM
 70
     0
  9
$DIMLTYPE
  6

  9
$DIMLTEX1
  6

  9
$DIMLTEX2
  6

  9
$DIMTXTDIRECTION
 70
     0
  9
$LUNITS
 70
     2
  9
$LUPREC
 70
     2
  9
$SKETCHINC
 40
1.0
  9
$FILLETRAD
 40
0.0
  9
$AUNITS
 70
     0
  9
$AUPREC
 70
     3
  9
$MENU
  1
.
  9
$ELEVATION
 40
0.0
  9
$PELEVATION
 40
0.0
  9
$THICKNESS
 40
0.0
  9
$LIMCHECK
 70
     0
  9
$CHAMFERA
 40
10.0
  9
$CHAMFERB
 40
10.0
  9
$CHAMFERC
 40
1.0
  9
$CHAMFERD
 40
0.0
  9
$SKPOLY
 70
     0
  9
$TDCREATE
 40
2452366.599452025
  9
$TDUCREATE
 40
2452366.807785359
  9
$TDUPDATE
 40
2455812.576241042
  9
$TDUUPDATE
 40
2455812.784574375
  9
$TDINDWG
 40
0.0166789931
  9
$TDUSRTIMER
 40
2458323.783388704
  9
$USRTIMER
 70
     1
  9
$ANGBASE
 50
0.0
  9
$ANGDIR
 70
     0
  9
$PDMODE
 70
    35
  9
$PDSIZE
 40
2.0
  9
$PLINEWID
 40
0.0
  9
$SPLFRAME
 70
     0
  9
$SPLINETYPE
 70
     6
  9
$SPLINESEGS
 70
     8
  9
$HANDSEED
  5
11C4
  9
$SURFTAB1
 70
     6
  9
$SURFTAB2
 70
     6
  9
$SURFTYPE
 70
     6
  9
$SURFU
 70
     6
  9
$SURFV
 70
     6
  9
$UCSBASE
  2

  9
$UCSNAME
  2

  9
$UCSORG
 10
0.0
 20
0.0
 30
0.0
  9
$UCSXDIR
 10
1.0
 20
0.0
 30
0.0
  9
$UCSYDIR
 10
0.0
 20
1.0
 30
0.0
  9
$UCSORTHOREF
  2

  9
$UCSORTHOVIEW
 70
     0
  9
$UCSORGTOP
 10
0.0
 20
0.0
 30
0.0
  9
$UCSORGBOTTOM
 10
0.0
 20
0.0
 30
0.0
  9
$UCSORGLEFT
 10
0.0
 20
0.0
 30
0.0
  9
$UCSORGRIGHT
 10
0.0
 20
0.0
 30
0.0
  9
$UCSORGFRONT
 10
0.0
 20
0.0
 30
0.0
  9
$UCSORGBACK
 10
0.0
 20
0.0
 30
0.0
  9
$PUCSBASE
  2

  9
$PUCSNAME
  2

  9
$PUCSORG
 10
0.0
 20
0.0
 30
0.0
  9
$PUCSXDIR
 10
1.0
 20
0.0
 30
0.0
  9
$PUCSYDIR
 10
0.0
 20
1.0
 30
0.0
  9
$PUCSORTHOREF
  2

  9
$PUCSORTHOVIEW
 70
     0
  9
$PUCSORGTOP
 10
0.0
 20
0.0
 30
0.0
  9
$PUCSORGBOTTOM
 10
0.0
 20
0.0
 30
0.0
  9
$PUCSORGLEFT
 10
0.0
 20
0.0
 30
0.0
  9
$PUCSORGRIGHT
 10
0.0
 20
0.0
 30
0.0
  9
$PUCSORGFRONT
 10
0.0
 20
0.0
 30
0.0
  9
$PUCSORGBACK
 10
0.0
 20
0.0
 30
0.0
  9
$USERI1
 70
     1
  9
$USERI2
 70
     0
  9
$USERI3
 70
     0
  9
$USERI4
 70
     0
  9
$USERI5
 70
     0
  9
$USERR1
 40
0.0
  9
$USERR2
 40
0.0
  9
$USERR3
 40
0.0
  9
$USERR4
 40
0.0
  9
$USERR5
 40
0.0
  9
$WORLDVIEW
 70
     1
  9
$SHADEDGE
 70
     3
  9
$SHADEDIF
 70
    70
  9
$TILEMODE
 70
     1
  9
$MAXACTVP
 70
    16
  9
$PINSBASE
 10
0.0
 20
0.0
 30
0.0
  9
$PLIMCHECK
 70
     0
  9
$PEXTMIN
 10
1.000000000000000E+20
 20
1.000000000000000E+20
 30
1.000000000000000E+20
  9
$PEXTMAX
 10
-1.000000000000000E+20
 20
-1.000000000000000E+20
 30
-1.000000000000000E+20
  9
$PLIMMIN
 10
0.0
 20
0.0
  9
$PLIMMAX
 10
420.0
 20
297.0
  9
$UNITMODE
 70
     0
  9
$VISRETAIN
 70
     0
  9
$PLINEGEN
 70
     0
  9
$PSLTSCALE
 70
     1
  9
$TREEDEPTH
 70
  3020
  9
$CMLSTYLE
  2
Standard
  9
$CMLJUST
 70
     0
  9
$CMLSCALE
 40
1.0
  9
$PROXYGRAPHICS
 70
     1
  9
$MEASUREMENT
 70
     0
  9
$CELWEIGHT
370
    -1
  9
$ENDCAPS
280
     0
  9
$JOINSTYLE
280
     0
  9
$LWDISPLAY
290
     0
  9
$INSUNITS
 70
     0
  9
$HYPERLINKBASE
  1

  9
$STYLESHEET
  1

  9
$XEDIT
290
     1
  9
$CEPSNTYPE
380
     0
  9
$PSTYLEMODE
290
     1
  9
$FINGERPRINTGUID
  2
{32363CE0-FF14-42B3-98F0-5FD0E1E88583}
  9
$VERSIONGUID
  2
{FAEB1C32-E019-11D5-929B-00C0DF256EC4}
  9
$EXTNAMES
290
     1
  9
$PSVPSCALE
 40
0.0
  9
$OLESTARTUP
290
     0
  9
$SORTENTS
280
   127
  9
$INDEXCTL
280
     0
  9
$HIDETEXT
280
     1
  9
$XCLIPFRAME
280
     2
  9
$HALOGAP
280
     0
  9
$OBSCOLOR
 70
   257
  9
$OBSLTYPE
280
     0
  9
$INTERSECTIONDISPLAY
280
     0
  9
$INTERSECTIONCOLOR
 70
   257
  9
$DIMASSOC
280
     2
  9
$PROJECTNAME
  1

  9
$CAMERADISPLAY
290
     0
  9
$LENSLENGTH
 40
50.0
  9
$CAMERAHEIGHT
 40
0.0
  9
$STEPSPERSEC
 40
2.0
  9
$STEPSIZE
 40
6.0
  9
$3DDWFPREC
 40
2.0
  9
$PSOLWIDTH
 40
0.25
  9
$PSOLHEIGHT
 40
4.0
  9
$LOFTANG1
 40
1.570796326794897
  9
$LOFTANG2
 40
1.570796326794897
  9
$LOFTMAG1
 40
0.0
  9
$LOFTMAG2
 40
0.0
  9
$LOFTPARAM
 70
     7
  9
$LOFTNORMALS
280
     1
  9
$LATITUDE
 40
37.795
  9
$LONGITUDE
 40
-122.394
  9
$NORTHDIRECTION
 40
0.0
  9
$TIMEZONE
 70
 -8000
  9
$LIGHTGLYPHDISPLAY
280
     1
  9
$TILEMODELIGHTSYNCH
280
     1
  9
$SOLIDHIST
280
     1
  9
$SHOWHIST
280
     1
  9
$DWFFRAME
280
     2
  9
$DGNFRAME
280
     2
  9
$REALWORLDSCALE
290
     1
  9
$INTERFERECOLOR
 62
   256
  9
$CSHADOW
280
     0
  9
$SHADOWPLANELOCATION
 40
0.0
  0
ENDSEC
  0
SECTION
  2
CLASSES
  0
CLASS
  1
ACDBDICTIONARYWDFLT
  2
AcDbDictionaryWithDefault
  3
ObjectDBX Classes
 90
        0
 91
        4
280
     0
281
     0
  0
CLASS
  1
SCALE
  2
AcDbScale
  3
ObjectDBX Classes
 90
     1153
 91
        4
280
     0
281
     0
  0
CLASS
  1
TABLESTYLE
  2
AcDbTableStyle
  3
ObjectDBX Classes
 90
     4095
 91
        4
280
     0
281
     0
  0
CLASS
  1
RASTERVARIABLES
  2
AcDbRasterVariables
  3
ISM
 90
        0
 91
        4
280
     0
281
     0
  0
CLASS
  1
DICTIONARYVAR
  2
AcDbDictionaryVar
  3
ObjectDBX Classes
 90
        0
 91
        4
280
     0
281
     0
  0
CLASS
  1
CELLSTYLEMAP
  2
AcDbCellStyleMap
  3
ObjectDBX Classes
 90
     1152
 91
        4
280
     0
281
     0
  0
ENDSEC
  0
SECTION
  2
TABLES
  0
TABLE
  2
VPORT
  5
1142
330
0
100
AcDbSymbolTable
 70
     1
  0
VPORT
  5
1159
330
1142
100
AcDbSymbolTableRecord
100
AcDbViewportTableRecord
  2
*ACTIVE
 70
     0
 10
0.0
 20
0.0
 11
1.0
 21
1.0
 12
11.38430480720654
 22
15.74844958987881
 13
0.0
 23
0.0
 14
7.0
 24
7.0
 15
7.0
 25
7.0
 16
0.0
 26
0.0
 36
1.0
 17
0.0
 27
0.0
 37
0.0
 40
91.18463595958319
 41
1.847102342786682
 42
50.0
 43
0.0
 44
0.0
 50
0.0
 51
0.0
 71
     0
 72
  2000
 73
     1
 74
     0
 75
     0
 76
     0
 77
     0
 78
     0
281
     0
 65
     0
110
0.0
120
0.0
130
0.0
111
1.0
121
0.0
131
0.0
112
0.0
122
1.0
132
0.0
 79
     0
146
0.0
 60
     3
 61
     5
292
     1
282
     1
141
0.0
142
0.0
 63
   256
  0
ENDTAB
  0
TABLE
  2
LTYPE
  5
113F
330
0
100
AcDbSymbolTable
 70
    10
  0
LTYPE
  5
114D
330
113F
100
AcDbSymbolTableRecord
100
AcDbLinetypeTableRecord
  2
ByBlock
 70
     0
  3

 72
    65
 73
     0
 40
0.0
  0
LTYPE
  5
114E
330
113F
100
AcDbSymbolTableRecord
100
AcDbLinetypeTableRecord
  2
ByLayer
 70
     0
  3

 72
    65
 73
     0
 40
0.0
  0
LTYPE
  5
114F
330
113F
100
AcDbSymbolTableRecord
100
AcDbLinetypeTableRecord
  2
CONTINUOUS
 70
     0
  3
Solid line
 72
    65
 73
     0
 40
0.0
  0
LTYPE
  5
115B
330
113F
100
AcDbSymbolTableRecord
100
AcDbLinetypeTableRecord
  2
CENTER2
 70
     0
  3
___ _ ___ _ ___ _ ___ _ ___ _ ___ _ ___ _ ___ _
 72
    65
 73
     4
 40
1.125
 49
0.75
 74
     0
 49
-0.125
 74
     0
 49
0.125
 74
     0
 49
-0.125
 74
     0
  0
LTYPE
  5
115C
330
113F
100
AcDbSymbolTableRecord
100
AcDbLinetypeTableRecord
  2
HIDDEN
 70
     0
  3
Hidden __ __ __ __ __ __ __ __ __ __ __ __ __ _
 72
    65
 73
     2
 40
9.524999999999995
 49
6.349999999999998
 74
     0
 49
-3.174999999999998
 74
     0
  0
LTYPE
  5
115D
330
113F
100
AcDbSymbolTableRecord
100
AcDbLinetypeTableRecord
  2
PHANTOM2
 70
     0
  3
Phantom (.5x) ___ _ _ ___ _ _ ___ _ _ ___ _ _
 72
    65
 73
     6
 40
31.74999999999999
 49
15.875
 74
     0
 49
-3.174999999999998
 74
     0
 49
3.174999999999998
 74
     0
 49
-3.174999999999998
 74
     0
 49
3.174999999999998
 74
     0
 49
-3.174999999999998
 74
     0
  0
LTYPE
  5
115E
330
113F
100
AcDbSymbolTableRecord
100
AcDbLinetypeTableRecord
  2
CENTER
 70
     0
  3
Center ____ _ ____ _ ____ _ ____ _ ____ _ ____
 72
    65
 73
     4
 40
50.8
 49
31.75
 74
     0
 49
-6.349999999999998
 74
     0
 49
6.349999999999998
 74
     0
 49
-6.349999999999998
 74
     0
  0
LTYPE
  5
115F
330
113F
100
AcDbSymbolTableRecord
100
AcDbLinetypeTableRecord
  2
AMCONSTR
 70
     0
  3
_______________________
 72
    65
 73
     2
 40
9999.0
 49
9999.0
 74
     0
 49
0.0
 74
     0
  0
LTYPE
  5
1160
330
113F
100
AcDbSymbolTableRecord
100
AcDbLinetypeTableRecord
  2
HIDDEN2
 70
     0
  3
Hidden (.5x) _ _ _ _ _ _ _ _ _ _ _ _ _ _ _ _ _
 72
    65
 73
     2
 40
0.1875
 49
0.125
 74
     0
 49
-0.0625
 74
     0
  0
LTYPE
  5
1161
330
113F
100
AcDbSymbolTableRecord
100
AcDbLinetypeTableRecord
  2
AMZIGZAG2
 70
     0
  3
/\/-/\/-/\/-/\/-/\/-/\/
 72
    65
 73
     2
 40
0.4401000000000001
 49
0.0001
 74
     0
 49
-0.4400000000000001
 74
     0
  0
LTYPE
  5
1162
330
113F
100
AcDbSymbolTableRecord
100
AcDbLinetypeTableRecord
  2
ACANSTGB
 70
     0
  3
__ . . __ . .
 72
    65
 73
     6
 40
0.35433070866
 49
0.15748031496
 74
     0
 49
-0.03937007874
 74
     0
 49
0.03937007874
 74
     0
 49
-0.03937007874
 74
     0
 49
0.03937007874
 74
     0
 49
-0.03937007874
 74
     0
  0
LTYPE
  5
1163
330
113F
100
AcDbSymbolTableRecord
100
AcDbLinetypeTableRecord
  2
ACANSTGL
 70
     0
  3
_ _ _ _ _
 72
    65
 73
     2
 40
0.11811023622
 49
0.07874015748
 74
     0
 49
-0.03937007874
 74
     0
  0
ENDTAB
  0
TABLE
  2
LAYER
  5
113C
330
0
100
AcDbSymbolTable
 70
     6
  0
LAYER
  5
114A
330
113C
100
AcDbSymbolTableRecord
100
AcDbLayerTableRecord
  2
0
 70
     0
 62
     7
  6
CONTINUOUS
370
    -3
390
1149
347
0
  0
LAYER
  5
1165
330
113C
100
AcDbSymbolTableRecord
100
AcDbLayerTableRecord
  2
240
 70
     0
 62
     4
  6
CONTINUOUS
370
    -3
390
1149
347
0
  0
LAYER
  5
1166
330
113C
100
AcDbSymbolTableRecord
100
AcDbLayerTableRecord
  2
241
 70
     0
 62
   211
  6
CONTINUOUS
370
    -3
390
1149
347
0
  0
LAYER
  5
1167
330
113C
100
AcDbSymbolTableRecord
100
AcDbLayerTableRecord
  2
245
 70
     0
 62
     2
  6
CENTER2
370
    -3
390
1149
347
0
  0
LAYER
  5
1168
330
113C
100
AcDbSymbolTableRecord
100
AcDbLayerTableRecord
  2
250
 70
     0
 62
     3
  6
CONTINUOUS
370
    -3
390
1149
347
0
  0
LAYER
  5
1169
330
113C
100
AcDbSymbolTableRecord
100
AcDbLayerTableRecord
  2
DEFPOINTS
 70
     0
 62
     7
  6
CONTINUOUS
290
     0
370
    -3
390
1149
347
0
  0
ENDTAB
  0
TABLE
  2
STYLE
  5
113D
330
0
100
AcDbSymbolTable
 70
     4
  0
STYLE
  5
114B
330
113D
100
AcDbSymbolTableRecord
100
AcDbTextStyleTableRecord
  2
STANDARD
 70
     0
 40
0.0
 41
1.0
 50
0.0
 71
     0
 42
3.0
  3
romans.shx
  4
BIGFONT.SHX
  0
STYLE
  5
116B
330
113D
100
AcDbSymbolTableRecord
100
AcDbTextStyleTableRecord
  2
YOKO
 70
     0
 40
0.0
 41
1.0
 50
0.0
 71
     0
 42
3.0
  3
romans.shx
  4
extfont.shx
  0
STYLE
  5
116C
330
113D
100
AcDbSymbolTableRecord
100
AcDbTextStyleTableRecord
  2

 70
     1
 40
0.0
 41
1.0
 50
0.0
 71
     0
 42
3.0
  3
genltshp.shx
  4

  0
STYLE
  5
116D
330
113D
100
AcDbSymbolTableRecord
100
AcDbTextStyleTableRecord
  2
ACANSGDT
 70
     0
 40
0.0
 41
1.0
 50
0.0
 71
     0
 42
3.0
  3
amgdt.shx
  4

  0
ENDTAB
  0
TABLE
  2
VIEW
  5
1140
330
0
100
AcDbSymbolTable
 70
     0
  0
ENDTAB
  0
TABLE
  2
UCS
  5
1141
330
0
100
AcDbSymbolTable
 70
     0
  0
ENDTAB
  0
TABLE
  2
APPID
  5
1143
330
0
100
AcDbSymbolTable
 70
    27
  0
APPID
  5
114C
330
1143
100
AcDbSymbolTableRecord
100
AcDbRegAppTableRecord
  2
ACAD
 70
     0
  0
APPID
  5
116F
330
1143
100
AcDbSymbolTableRecord
100
AcDbRegAppTableRecord
  2
ACADANNOTATIVE
 70
     0
  0
APPID
  5
1170
330
1143
100
AcDbSymbolTableRecord
100
AcDbRegAppTableRecord
  2
GLOBAL
 70
     0
  0
APPID
  5
1171
330
1143
100
AcDbSymbolTableRecord
100
AcDbRegAppTableRecord
  2
DETAIL
 70
     0
  0
APPID
  5
1172
330
1143
100
AcDbSymbolTableRecord
100
AcDbRegAppTableRecord
  2
GRPNAME
 70
     0
  0
APPID
  5
1173
330
1143
100
AcDbSymbolTableRecord
100
AcDbRegAppTableRecord
  2
GPARA
 70
     0
  0
APPID
  5
1174
330
1143
100
AcDbSymbolTableRecord
100
AcDbRegAppTableRecord
  2
HATCH_TYPE
 70
     0
  0
APPID
  5
1175
330
1143
100
AcDbSymbolTableRecord
100
AcDbRegAppTableRecord
  2
HATCH_DISPLAY
 70
     0
  0
APPID
  5
1176
330
1143
100
AcDbSymbolTableRecord
100
AcDbRegAppTableRecord
  2
HATCH_DISTANCE
 70
     0
  0
APPID
  5
1177
330
1143
100
AcDbSymbolTableRecord
100
AcDbRegAppTableRecord
  2
ITEMNAME
 70
     0
  0
APPID
  5
1178
330
1143
100
AcDbSymbolTableRecord
100
AcDbRegAppTableRecord
  2
MCAD_NO_VIS
 70
     0
  0
APPID
  5
1179
330
1143
100
AcDbSymbolTableRecord
100
AcDbRegAppTableRecord
  2
ACAD_TEMP_GRAPHIC
 70
     0
  0
APPID
  5
117A
330
1143
100
AcDbSymbolTableRecord
100
AcDbRegAppTableRecord
  2
AD_DRAW
 70
     0
  0
APPID
  5
117B
330
1143
100
AcDbSymbolTableRecord
100
AcDbRegAppTableRecord
  2
ACATTRIBSERVICES
 70
     0
  0
APPID
  5
117C
330
1143
100
AcDbSymbolTableRecord
100
AcDbRegAppTableRecord
  2
DESIGNERASSEMBLIES
 70
     0
  0
APPID
  5
117D
330
1143
100
AcDbSymbolTableRecord
100
AcDbRegAppTableRecord
  2
ACADM_DIM_EDIT
 70
     0
  0
APPID
  5
117E
330
1143
100
AcDbSymbolTableRecord
100
AcDbRegAppTableRecord
  2
AMDT_DM_ADJ
 70
     0
  0
APPID
  5
117F
330
1143
100
AcDbSymbolTableRecord
100
AcDbRegAppTableRecord
  2
GENIUS_GENSCREG_15
 70
     0
  0
APPID
  5
1180
330
1143
100
AcDbSymbolTableRecord
100
AcDbRegAppTableRecord
  2
GENIUS_GENODEF_13
 70
     0
  0
APPID
  5
1181
330
1143
100
AcDbSymbolTableRecord
100
AcDbRegAppTableRecord
  2
GENIUS_GENOBJ-N-SDF_13
 70
     0
  0
APPID
  5
1182
330
1143
100
AcDbSymbolTableRecord
100
AcDbRegAppTableRecord
  2
ACAD_DSTYLE_DIMJAG
 70
     0
  0
APPID
  5
1183
330
1143
100
AcDbSymbolTableRecord
100
AcDbRegAppTableRecord
  2
ACAD_DSTYLE_DIMBREAK
 70
     0
  0
APPID
  5
1184
330
1143
100
AcDbSymbolTableRecord
100
AcDbRegAppTableRecord
  2
ACAD_MLEADERVER
 70
     0
  0
APPID
  5
1185
330
1143
100
AcDbSymbolTableRecord
100
AcDbRegAppTableRecord
  2
ACAD_DSTYLE_DIMARC_LENGTH_
 70
     0
  0
APPID
  5
1186
330
1143
100
AcDbSymbolTableRecord
100
AcDbRegAppTableRecord
  2
ACAD_DSTYLE_DIM_LINETYPE
 70
     0
  0
APPID
  5
1187
330
1143
100
AcDbSymbolTableRecord
100
AcDbRegAppTableRecord
  2
ACAD_DSTYLE_DIM_EXT1_LINETYPE
 70
     0
  0
APPID
  5
1188
330
1143
100
AcDbSymbolTableRecord
100
AcDbRegAppTableRecord
  2
ACAD_DSTYLE_DIM_EXT2_LINETYPE
 70
     0
  0
ENDTAB
  0
TABLE
  2
DIMSTYLE
  5
1144
330
0
100
AcDbSymbolTable
 70
     8
100
AcDbDimStyleTable
  0
DIMSTYLE
105
1189
330
1144
100
AcDbSymbolTableRecord
100
AcDbDimStyleTableRecord
  2
STANDARD
 70
     0
 41
2.0
 42
2.0
 43
3.75
 44
2.0
 78
     8
140
4.0
147
1.0
173
     1
176
   256
177
   256
178
   256
340
116B
  0
DIMSTYLE
105
118A
330
1144
100
AcDbSymbolTableRecord
100
AcDbDimStyleTableRecord
  2
BIGT
 70
     0
 41
2.229999999999999
 42
0.5
 43
2.5
 44
1.0
 73
     0
 74
     0
 77
     3
 78
     9
140
3.5
141
0.0
147
1.0
172
     1
176
   256
177
   256
178
    40
340
116B
  0
DIMSTYLE
105
118B
330
1144
100
AcDbSymbolTableRecord
100
AcDbDimStyleTableRecord
  2
AM_ANSI
 70
     0
  4
mm
 41
0.12
 42
0.05
 43
0.5
 44
0.1
 47
0.1
 48
0.1
 78
     7
140
0.12
141
0.0
146
0.71
147
0.06
176
   256
177
   256
178
     2
340
116B
  0
DIMSTYLE
105
118C
330
1144
100
AcDbSymbolTableRecord
100
AcDbDimStyleTableRecord
  2
AM_ANSI$3
 70
     0
  4
mm
 41
0.12
 42
0.05
 43
0.5
 44
0.1
 47
0.1
 48
0.1
 78
     7
140
0.12
141
0.0
146
0.71
147
0.06
176
   256
177
   256
178
     2
340
116B
  0
DIMSTYLE
105
118D
330
1144
100
AcDbSymbolTableRecord
100
AcDbDimStyleTableRecord
  2
AM_ANSI$4
 70
     0
  4
mm
 41
0.12
 42
0.05
 43
0.5
 44
0.1
 47
0.1
 48
0.1
 78
     7
140
0.12
141
0.0
146
0.71
147
0.06
176
   256
177
   256
178
     2
340
116B
  0
DIMSTYLE
105
118E
330
1144
100
AcDbSymbolTableRecord
100
AcDbDimStyleTableRecord
  2
AM_ANSI$7
 70
     0
  4
mm
 41
0.12
 42
0.05
 43
0.5
 44
0.1
 47
0.1
 48
0.1
 78
     7
140
0.12
141
0.0
146
0.71
147
0.06
176
   256
177
   256
178
     2
340
116B
  0
DIMSTYLE
105
118F
330
1144
100
AcDbSymbolTableRecord
100
AcDbDimStyleTableRecord
  2
AM_ANSI$SF
 70
     0
  4
mm
 41
0.12
 42
0.05
 43
0.5
 44
0.1
 47
0.1
 48
0.1
 75
     1
 76
     1
 78
     7
140
0.12
141
0.0
146
0.71
147
0.06
176
   256
177
   256
178
     2
340
116B
  0
DIMSTYLE
105
1190
330
1144
100
AcDbSymbolTableRecord
100
AcDbDimStyleTableRecord
  2
AM_ANSI$SH
 70
     0
  4
mm
 41
0.12
 42
0.05
 43
0.5
 44
0.1
 47
0.1
 48
0.1
 75
     1
 76
     1
 78
     7
140
0.12
141
0.0
146
0.71
147
0.06
173
     1
176
   256
177
   256
178
     2
340
116B
341
1196
343
1196
  0
ENDTAB
  0
TABLE
  2
BLOCK_RECORD
  5
113B
330
0
100
AcDbSymbolTable
 70
     2
  0
BLOCK_RECORD
  5
1156
330
113B
100
AcDbSymbolTableRecord
100
AcDbBlockTableRecord
  2
*Model_Space
340
1157
 70
     0
280
     1
281
     0
  0
BLOCK_RECORD
  5
1154
330
113B
100
AcDbSymbolTableRecord
100
AcDbBlockTableRecord
  2
*Paper_Space
340
1155
 70
     0
280
     1
281
     0
  0
BLOCK_RECORD
  5
1194
330
113B
100
AcDbSymbolTableRecord
100
AcDbBlockTableRecord
  2
_OPEN
340
0
 70
     0
280
     1
281
     0
  0
BLOCK_RECORD
  5
1196
330
113B
100
AcDbSymbolTableRecord
100
AcDbBlockTableRecord
  2
GENAXEH
340
0
 70
     0
280
     1
281
     0
  0
ENDTAB
  0
ENDSEC
  0
SECTION
  2
BLOCKS
  0
BLOCK
  5
1191
330
1156
100
AcDbEntity
  8
0
100
AcDbBlockBegin
  2
*Model_Space
 70
     0
 10
0.0
 20
0.0
 30
0.0
  3
*Model_Space
  1

  0
ENDBLK
  5
DA2
330
1156
100
AcDbEntity
  8
0
100
AcDbBlockEnd
  0
BLOCK
  5
1192
330
1154
100
AcDbEntity
 67
     1
  8
0
100
AcDbBlockBegin
  2
*Paper_Space
 70
     0
 10
0.0
 20
0.0
 30
0.0
  3
*Paper_Space
  1

  0
ENDBLK
  5
D9E
330
1154
100
AcDbEntity
 67
     1
  8
0
100
AcDbBlockEnd
  0
BLOCK
  5
1193
330
1194
100
AcDbEntity
  8
0
100
AcDbBlockBegin
  2
_OPEN
 70
     0
 10
0.0
 20
0.0
 30
0.0
  3
_OPEN
  1

  0
LINE
  5
595
330
1194
100
AcDbEntity
  8
0
  6
ByBlock
 62
     0
100
AcDbLine
 10
-1.0
 20
0.1666666666666666
 30
0.0
 11
0.0
 21
0.0
 31
0.0
  0
LINE
  5
596
330
1194
100
AcDbEntity
  8
0
  6
ByBlock
 62
     0
100
AcDbLine
 10
-1.0
 20
-0.1666666666666666
 30
0.0
 11
0.0
 21
0.0
 31
0.0
  0
LINE
  5
597
330
1194
100
AcDbEntity
  8
0
  6
ByBlock
 62
     0
100
AcDbLine
 10
0.0
 20
0.0
 30
0.0
 11
-1.0
 21
0.0
 31
0.0
  0
ENDBLK
  5
599
330
1194
100
AcDbEntity
  8
0
100
AcDbBlockEnd
  0
BLOCK
  5
1195
330
1196
100
AcDbEntity
  8
0
100
AcDbBlockBegin
  2
GENAXEH
 70
     0
 10
0.0
 20
0.0
 30
0.0
  3
GENAXEH
  1

  0
LINE
  5
C1D
330
1196
100
AcDbEntity
  8
0
100
AcDbLine
 10
-1.0
 20
0.0
 30
0.0
 11
1.0
 21
0.0
 31
0.0
  0
ENDBLK
  5
C1F
330
1196
100
AcDbEntity
  8
0
100
AcDbBlockEnd
  0
ENDSEC
  0
SECTION
  2
ENTITIES
  0
TEXT
  5
923
330
1156
100
AcDbEntity
  8
241
100
AcDbText
 10
-28.0
 20
57.66666666666666
 30
0.0
 40
5.0
  1
CKB5-C3060C
  7
YOKO
 11
-28.0
 21
56.0
 31
0.0
100
AcDbText
 73
     1
  0
LINE
  5
B32
330
1156
100
AcDbEntity
  8
250
100
AcDbLine
 10
-27.22993096147877
 20
-25.95397113568253
 30
0.0
 11
-41.22993096147879
 21
-25.95397113568253
 31
0.0
1001
ITEMNAME
1000
LNSP2
  0
LINE
  5
C2E
330
1156
100
AcDbEntity
  8
250
100
AcDbLine
 10
0.0
 20
25.23205099999998
 30
0.0
 11
0.0000000000000011
 21
43.0
 31
0.0
  0
LINE
  5
C2F
330
1156
100
AcDbEntity
  8
250
100
AcDbLine
 10
40.00000000000001
 20
14.981323
 30
0.0
 11
40.00000000000001
 21
43.0
 31
0.0
  0
LINE
  5
C30
330
1156
100
AcDbEntity
  8
250
100
AcDbLine
 10
2.229999999999999
 20
42.0
 30
0.0
 11
37.77000000000003
 21
42.0
 31
0.0
  0
TEXT
  5
C34
330
1156
100
AcDbEntity
  8
250
100
AcDbText
 10
-38.65850239005021
 20
-24.95397113568253
 30
0.0
 40
3.0
  1
CK5
  7
YOKO
100
AcDbText
1001
ITEMNAME
1000
LNSP3
1001
ACAD
1000
MTEXTBEGIN
1070
    73
1070
     1
1070
    44
1040
1.0
1070
    74
1070
     0
1000
MTEXTEND
  0
LINE
  5
C37
330
1156
100
AcDbEntity
  8
250
100
AcDbLine
 10
25.14699055142945
 20
30.0
 30
0.0
 11
63.99998433384046
 21
29.99999999999999
 31
0.0
  0
LINE
  5
C38
330
1156
100
AcDbEntity
  8
250
100
AcDbLine
 10
62.99998433384047
 20
27.76999999999999
 30
0.0
 11
62.99998433384043
 21
-4.785717264465252
 31
0.0
  0
LINE
  5
C3B
330
1156
100
AcDbEntity
  8
250
100
AcDbLine
 10
40.14700772991523
 20
14.99999999999995
 30
0.0
 11
56.99999109179135
 21
14.99999999999995
 31
0.0
  0
LINE
  5
C3C
330
1156
100
AcDbEntity
  8
250
100
AcDbLine
 10
55.99999109179134
 20
12.76999999999995
 30
0.0
 11
55.99999109179134
 21
-4.785716879187121
 31
0.0
  0
TEXT
  5
C3F
330
1156
100
AcDbEntity
  8
250
100
AcDbText
 10
17.14285714285716
 20
43.0
 30
0.0
 40
3.0
  1
40
100
AcDbText
1001
ACAD
1000
MTEXTBEGIN
1070
    73
1070
     1
1070
    44
1040
1.0
1070
    74
1070
     0
1000
MTEXTEND
  0
LINE
  5
C40
330
1156
100
AcDbEntity
  8
250
100
AcDbLine
 10
-21.44330250840743
 20
-15.93123665043927
 30
0.0
 11
-27.22993096147877
 21
-25.95397113568253
 31
0.0
1001
ACAD
1000
DSTYLE
1002
{
1070
     5
1000
OPEN
1070
    78
1070
     8
1070
   140
1040
3.0
1002
}
  0
LINE
  5
C41
330
1156
100
AcDbEntity
  8
250
100
AcDbLine
 10
-21.76517528348064
 20
-15.74540331710593
 30
0.0
 11
-20.32830250840742
 21
-13.99999999999997
 31
0.0
  0
LINE
  5
C42
330
1156
100
AcDbEntity
  8
250
100
AcDbLine
 10
-21.12142973333421
 20
-16.1170699837726
 30
0.0
 11
-20.32830250840742
 21
-13.99999999999997
 31
0.0
  0
LINE
  5
C43
330
1156
100
AcDbEntity
  8
250
100
AcDbLine
 10
-20.32830250840742
 20
-13.99999999999997
 30
0.0
 11
-21.44330250840743
 21
-15.93123665043927
 31
0.0
  0
LINE
  5
C44
330
1156
100
AcDbEntity
  8
250
100
AcDbLine
 10
2.229999999999999
 20
41.62833333333333
 30
0.0
 11
0.0000000000000011
 21
42.0
 31
0.0
  0
LINE
  5
C45
330
1156
100
AcDbEntity
  8
250
100
AcDbLine
 10
2.229999999999999
 20
42.37166666666666
 30
0.0
 11
0.0000000000000011
 21
42.0
 31
0.0
  0
LINE
  5
C46
330
1156
100
AcDbEntity
  8
250
100
AcDbLine
 10
0.0000000000000011
 20
42.0
 30
0.0
 11
2.229999999999999
 21
42.0
 31
0.0
  0
LINE
  5
C47
330
1156
100
AcDbEntity
  8
250
100
AcDbLine
 10
55.62832442512466
 20
12.76999999999995
 30
0.0
 11
55.99999109179134
 21
14.99999999999995
 31
0.0
  0
LINE
  5
C48
330
1156
100
AcDbEntity
  8
250
100
AcDbLine
 10
56.37165775845801
 20
12.76999999999995
 30
0.0
 11
55.99999109179134
 21
14.99999999999995
 31
0.0
  0
LINE
  5
C49
330
1156
100
AcDbEntity
  8
250
100
AcDbLine
 10
55.99999109179134
 20
14.99999999999995
 30
0.0
 11
55.99999109179134
 21
12.76999999999995
 31
0.0
  0
TEXT
  5
C4A
330
1156
100
AcDbEntity
  8
250
100
AcDbText
 10
61.99998433384044
 20
-4.071431550179527
 30
0.0
 40
3.0
  1
∅
 50
90.0
100
AcDbText
1001
ACAD
1000
MTEXTBEGIN
1070
    73
1070
     1
1070
    44
1040
1.0
1070
    74
1070
     0
1000
MTEXTEND
  0
TEXT
  5
C4B
330
1156
100
AcDbEntity
  8
250
100
AcDbText
 10
61.99998433384044
 20
-1.357145835893813
 30
0.0
 40
3.0
  1
60
 50
90.0
100
AcDbText
1001
ACAD
1000
MTEXTBEGIN
1070
    73
1070
     1
1070
    44
1040
1.0
1070
    74
1070
     0
1000
MTEXTEND
  0
TEXT
  5
C4C
330
1156
100
AcDbEntity
  8
250
100
AcDbText
 10
54.99999109179134
 20
-4.071431164901398
 30
0.0
 40
3.0
  1
∅
 50
90.0
100
AcDbText
1001
ACAD
1000
MTEXTBEGIN
1070
    73
1070
     1
1070
    44
1040
1.0
1070
    74
1070
     0
1000
MTEXTEND
  0
TEXT
  5
C4D
330
1156
100
AcDbEntity
  8
250
100
AcDbText
 10
54.99999109179134
 20
-1.357145450615685
 30
0.0
 40
3.0
  1
30
 50
90.0
100
AcDbText
1001
ACAD
1000
MTEXTBEGIN
1070
    73
1070
     1
1070
    44
1040
1.0
1070
    74
1070
     0
1000
MTEXTEND
  0
LINE
  5
C4E
330
1156
100
AcDbEntity
  8
250
100
AcDbLine
 10
37.77000000000003
 20
42.37166666666666
 30
0.0
 11
40.00000000000001
 21
42.0
 31
0.0
  0
LINE
  5
C4F
330
1156
100
AcDbEntity
  8
250
100
AcDbLine
 10
37.77000000000003
 20
41.62833333333333
 30
0.0
 11
40.00000000000001
 21
42.0
 31
0.0
  0
LINE
  5
C50
330
1156
100
AcDbEntity
  8
250
100
AcDbLine
 10
40.00000000000001
 20
42.0
 30
0.0
 11
37.77000000000003
 21
42.0
 31
0.0
  0
LINE
  5
C51
330
1156
100
AcDbEntity
  8
250
100
AcDbLine
 10
62.62831766717377
 20
27.76999999999999
 30
0.0
 11
62.99998433384047
 21
29.99999999999999
 31
0.0
  0
LINE
  5
C52
330
1156
100
AcDbEntity
  8
250
100
AcDbLine
 10
63.37165100050714
 20
27.76999999999999
 30
0.0
 11
62.99998433384047
 21
29.99999999999999
 31
0.0
  0
LINE
  5
C53
330
1156
100
AcDbEntity
  8
250
100
AcDbLine
 10
62.99998433384047
 20
29.99999999999999
 30
0.0
 11
62.99998433384047
 21
27.76999999999999
 31
0.0
  0
LINE
  5
E76
330
1156
100
AcDbEntity
  8
245
100
AcDbLine
 10
-31.18394631444869
 20
0.0
 30
0.0
 11
41.99433863682293
 21
0.0
 31
0.0
  0
ARC
  5
E77
330
1156
100
AcDbEntity
  8
241
100
AcDbCircle
 10
26.11553700000007
 20
11.00472999999999
 30
0.0
 40
5.0
100
AcDbArc
 50
225.001142000001
 51
286.7391359999996
  0
ARC
  5
E78
330
1156
100
AcDbEntity
  8
241
100
AcDbCircle
 10
60.92788300000006
 20
39.55409800000003
 30
0.0
 40
50.0
100
AcDbArc
 50
196.5639460000004
 51
219.9186609999995
  0
LINE
  5
E79
330
1156
100
AcDbEntity
  8
240
100
AcDbLine
 10
8.802610000000072
 20
-29.49999899999997
 30
0.0
 11
26.12872100000004
 21
-27.77399599999998
 31
0.0
  0
LINE
  5
E7A
330
1156
100
AcDbEntity
  8
241
100
AcDbLine
 10
20.88900499999999
 20
-20.69417699999999
 30
0.0
 11
39.802613
 21
-6.684993999999988
 31
0.0
  0
LINE
  5
E7B
330
1156
100
AcDbEntity
  8
241
100
AcDbLine
 10
21.34233100000006
 20
-3.743218000000013
 30
0.0
 11
23.06663500000002
 21
2.514875999999985
 31
0.0
  0
LINE
  5
E7C
330
1156
100
AcDbEntity
  8
241
100
AcDbLine
 10
26.93814600000001
 20
11.36446400000002
 30
0.0
 11
8.744662000000062
 21
29.55794899999998
 31
0.0
  0
LINE
  5
E7D
330
1156
100
AcDbEntity
  8
241
100
AcDbLine
 10
28.79089700000003
 20
12.385717
 30
0.0
 11
13.20981200000004
 21
27.966801
 31
0.0
  0
LINE
  5
E7E
330
1156
100
AcDbEntity
  8
241
100
AcDbLine
 10
13.47654199999999
 20
28.812758
 30
0.0
 11
23.72553200000004
 21
30.61993200000003
 31
0.0
  0
LINE
  5
E7F
330
1156
100
AcDbEntity
  8
240
100
AcDbLine
 10
22.01561600000002
 20
32.20710700000005
 30
0.0
 11
23.62119200000006
 21
30.60153399999999
 31
0.0
  0
LINE
  5
E81
330
1156
100
AcDbEntity
  8
240
100
AcDbLine
 10
-30.0
 20
13.41435999999998
 30
0.0
 11
-30.0
 21
-13.41435899999999
 31
0.0
  0
LINE
  5
E82
330
1156
100
AcDbEntity
  8
241
100
AcDbLine
 10
0.0
 20
14.0
 30
0.0
 11
0.0
 21
-14.0
 31
0.0
  0
LINE
  5
E83
330
1156
100
AcDbEntity
  8
241
100
AcDbLine
 10
-25.5
 20
14.0
 30
0.0
 11
-25.5
 21
-0.0000000000000142
 31
0.0
  0
LINE
  5
E84
330
1156
100
AcDbEntity
  8
241
100
AcDbLine
 10
-27.51998599999996
 20
13.71610999999995
 30
0.0
 11
-27.5199860000001
 21
-0.0000000000000142
 31
0.0
  0
LINE
  5
E85
330
1156
100
AcDbEntity
  8
245
100
AcDbLine
 10
-13.0
 20
7.956057999999983
 30
0.0
 11
-13.0
 21
-7.927305000000044
 31
0.0
  0
CIRCLE
  5
E86
330
1156
100
AcDbEntity
  8
241
100
AcDbCircle
 10
-13.0
 20
0.0
 30
0.0
 40
4.0
  0
CIRCLE
  5
E87
330
1156
100
AcDbEntity
  8
241
100
AcDbCircle
 10
-13.0
 20
0.0
 30
0.0
 40
5.081999999999998
  0
LINE
  5
E88
330
1156
100
AcDbEntity
  8
241
100
AcDbLine
 10
9.693238000000065
 20
3.156031000000012
 30
0.0
 11
13.10813500000006
 21
-4.384372999999982
 31
0.0
  0
LINE
  5
E89
330
1156
100
AcDbEntity
  8
241
100
AcDbLine
 10
2.598077999999985
 20
28.852946
 30
0.0
 11
2.598077999999985
 21
0.0
 31
0.0
  0
LINE
  5
E8A
330
1156
100
AcDbEntity
  8
240
100
AcDbLine
 10
-25.5
 20
-14.0
 30
0.0
 11
-12.97949242296152
 21
-13.99999999999994
 31
0.0
  0
LINE
  5
E8B
330
1156
100
AcDbEntity
  8
241
100
AcDbLine
 10
-25.5
 20
-14.0
 30
0.0
 11
-25.5
 21
-0.0000000000000142
 31
0.0
  0
LINE
  5
E8C
330
1156
100
AcDbEntity
  8
241
100
AcDbLine
 10
-27.51998599999996
 20
-13.71610899999996
 30
0.0
 11
-27.51998599999989
 21
-0.0000000000000142
 31
0.0
  0
ARC
  5
E8D
330
1156
100
AcDbEntity
  8
240
100
AcDbCircle
 10
-29.19999999999999
 20
-13.19999999999998
 30
0.0
 40
0.8
100
AcDbArc
 50
209.9999999999996
 51
280.0000000000001
  0
LINE
  5
E8E
330
1156
100
AcDbEntity
  8
240
100
AcDbLine
 10
-30.0
 20
-13.41435899999999
 30
0.0
 11
-29.89281999999997
 21
-13.60000000000002
 31
0.0
  0
LINE
  5
E8F
330
1156
100
AcDbEntity
  8
240
100
AcDbLine
 10
-27.51998599999996
 20
-13.71610899999996
 30
0.0
 11
-25.5
 21
-14.0
 31
0.0
  0
LINE
  5
E90
330
1156
100
AcDbEntity
  8
240
100
AcDbLine
 10
-27.51998599999996
 20
-13.71610899999996
 30
0.0
 11
-29.061081
 21
-13.98784599999999
 31
0.0
  0
LINE
  5
E91
330
1156
100
AcDbEntity
  8
240
100
AcDbLine
 10
-2.020507577038471
 20
-13.99999999999994
 30
0.0
 11
0.0000000000001137
 21
-13.99999999999968
 31
0.0
  0
ARC
  5
E92
330
1156
100
AcDbEntity
  8
240
100
AcDbCircle
 10
-3.982349999999994
 20
-15.5
 30
0.0
 40
1.0
100
AcDbArc
 50
270.0
 51
330.0000000000002
  0
ARC
  5
E93
330
1156
100
AcDbEntity
  8
240
100
AcDbCircle
 10
-11.01764999999997
 20
-15.5
 30
0.0
 40
1.0
100
AcDbArc
 50
209.9999999999996
 51
270.0
  0
LINE
  5
E94
330
1156
100
AcDbEntity
  8
240
100
AcDbLine
 10
-11.01764999999997
 20
-16.5
 30
0.0
 11
-3.982349999999994
 21
-16.5
 31
0.0
  0
LINE
  5
E95
330
1156
100
AcDbEntity
  8
240
100
AcDbLine
 10
-12.86602499999998
 20
-14.29851900000005
 30
0.0
 11
-11.88367499999998
 21
-16.0
 31
0.0
  0
LINE
  5
E96
330
1156
100
AcDbEntity
  8
241
100
AcDbLine
 10
-12.97949242296152
 20
-14.0
 30
0.0
 11
-2.020507491753674
 21
-13.99999958539058
 31
0.0
  0
ARC
  5
E97
330
1156
100
AcDbEntity
  8
240
100
AcDbCircle
 10
-12.0
 20
-13.79851900000005
 30
0.0
 40
1.0
100
AcDbArc
 50
191.6235529999989
 51
209.9999999999996
  0
LINE
  5
E98
330
1156
100
AcDbEntity
  8
240
100
AcDbLine
 10
-2.133973999999964
 20
-14.29851900000005
 30
0.0
 11
-3.116324999999987
 21
-16.0
 31
0.0
  0
ARC
  5
E99
330
1156
100
AcDbEntity
  8
240
100
AcDbCircle
 10
-3.0
 20
-13.79851900000005
 30
0.0
 40
1.0
100
AcDbArc
 50
330.0000000000002
 51
348.3764470000011
  0
LINE
  5
E9A
330
1156
100
AcDbEntity
  8
240
100
AcDbLine
 10
0.0
 20
-24.73204999999998
 30
0.0
 11
0.0000000000001137
 21
-13.99999999999968
 31
0.0
  0
LINE
  5
E9B
330
1156
100
AcDbEntity
  8
241
100
AcDbLine
 10
2.598077999999985
 20
-28.85294499999997
 30
0.0
 11
2.598077999999985
 21
0.0
 31
0.0
  0
LINE
  5
E9C
330
1156
100
AcDbEntity
  8
241
100
AcDbLine
 10
13.99876300000005
 20
-20.89060099999997
 30
0.0
 11
13.99876300000005
 21
-8.509824000000007
 31
0.0
  0
LINE
  5
E9D
330
1156
100
AcDbEntity
  8
241
100
AcDbLine
 10
20.62381500000002
 20
-20.83457799999999
 30
0.0
 11
20.62381500000002
 21
-9.055881
 31
0.0
  0
LINE
  5
E9E
330
1156
100
AcDbEntity
  8
241
100
AcDbLine
 10
10.30261000000007
 20
-18.75662699999998
 30
0.0
 11
13.76671200000004
 21
-20.75662699999998
 31
0.0
  0
LINE
  5
E9F
330
1156
100
AcDbEntity
  8
241
100
AcDbLine
 10
8.802610000000072
 20
-29.49999899999997
 30
0.0
 11
8.802610000000072
 21
-19.62265199999998
 31
0.0
  0
LINE
  5
EA0
330
1156
100
AcDbEntity
  8
240
100
AcDbLine
 10
3.175429000000007
 20
-29.49999899999997
 30
0.0
 11
8.802610000000072
 21
-29.49999899999997
 31
0.0
  0
LINE
  5
EA1
330
1156
100
AcDbEntity
  8
240
100
AcDbLine
 10
0.1339770000000726
 20
-25.23204999999999
 30
0.0
 11
2.309403000000029
 21
-28.99999899999997
 31
0.0
  0
ARC
  5
EA2
330
1156
100
AcDbEntity
  8
240
100
AcDbCircle
 10
3.175429000000007
 20
-28.49999899999997
 30
0.0
 40
1.0
100
AcDbArc
 50
210.0000000000008
 51
270.0
  0
ARC
  5
EA3
330
1156
100
AcDbEntity
  8
240
100
AcDbCircle
 10
1.00000200000005
 20
-24.73204999999998
 30
0.0
 40
1.0
100
AcDbArc
 50
180.0
 51
210.0000000000008
  0
ARC
  5
EA4
330
1156
100
AcDbEntity
  8
241
100
AcDbCircle
 10
9.802610000000072
 20
-19.62265199999998
 30
0.0
 40
1.0
100
AcDbArc
 50
60.00000000000028
 51
180.0
  0
LINE
  5
EA5
330
1156
100
AcDbEntity
  8
241
100
AcDbLine
 10
14.26671200000004
 20
-20.89060099999997
 30
0.0
 11
20.29380200000002
 21
-20.89060099999997
 31
0.0
  0
ARC
  5
EA6
330
1156
100
AcDbEntity
  8
241
100
AcDbCircle
 10
14.26671200000004
 20
-19.89060099999997
 30
0.0
 40
1.0
100
AcDbArc
 50
239.9999999999998
 51
270.0
  0
ARC
  5
EA7
330
1156
100
AcDbEntity
  8
241
100
AcDbCircle
 10
20.29380200000002
 20
-19.89060099999997
 30
0.0
 40
1.0
100
AcDbArc
 50
270.0
 51
306.5271009999996
  0
ARC
  5
F0D
330
1156
100
AcDbEntity
  8
241
100
AcDbCircle
 10
40.62381500000002
 20
-9.055881
 30
0.0
 40
20.0
100
AcDbArc
 50
164.5954219999993
 51
180.0
  0
ARC
  5
F0E
330
1156
100
AcDbEntity
  8
241
100
AcDbCircle
 10
3.998763000000052
 20
-8.509824000000007
 30
0.0
 40
10.0
100
AcDbArc
 50
0.0
 51
24.36480999999977
  0
LINE
  5
F0F
330
1156
100
AcDbEntity
  8
240
100
AcDbLine
 10
-25.5
 20
14.0
 30
0.0
 11
-12.97949262866038
 21
13.99999999999988
 31
0.0
  0
ARC
  5
F10
330
1156
100
AcDbEntity
  8
240
100
AcDbCircle
 10
-29.19999999999999
 20
13.19999999999998
 30
0.0
 40
0.8
100
AcDbArc
 50
79.99999999999982
 51
149.9999999999998
  0
LINE
  5
F11
330
1156
100
AcDbEntity
  8
240
100
AcDbLine
 10
-30.0
 20
13.41435999999998
 30
0.0
 11
-29.89281999999997
 21
13.60000000000002
 31
0.0
  0
LINE
  5
F12
330
1156
100
AcDbEntity
  8
240
100
AcDbLine
 10
-27.51998599999996
 20
13.71610999999995
 30
0.0
 11
-25.5
 21
14.0
 31
0.0
  0
LINE
  5
F13
330
1156
100
AcDbEntity
  8
240
100
AcDbLine
 10
-27.51998599999996
 20
13.71610999999995
 30
0.0
 11
-29.061081
 21
13.98784699999998
 31
0.0
  0
LINE
  5
F14
330
1156
100
AcDbEntity
  8
240
100
AcDbLine
 10
-2.020507371339618
 20
13.99999999999988
 30
0.0
 11
-0.0000000000000568
 21
13.99999999999955
 31
0.0
  0
ARC
  5
F15
330
1156
100
AcDbEntity
  8
240
100
AcDbCircle
 10
-3.982349999999994
 20
15.5
 30
0.0
 40
1.0
100
AcDbArc
 50
29.99999999999972
 51
90.0
  0
ARC
  5
F16
330
1156
100
AcDbEntity
  8
240
100
AcDbCircle
 10
-11.01764999999997
 20
15.5
 30
0.0
 40
1.0
100
AcDbArc
 50
90.0
 51
149.9999999999998
  0
LINE
  5
F17
330
1156
100
AcDbEntity
  8
240
100
AcDbLine
 10
-12.86602499999998
 20
14.29851999999994
 30
0.0
 11
-11.88367499999998
 21
16.0
 31
0.0
  0
LINE
  5
F18
330
1156
100
AcDbEntity
  8
241
100
AcDbLine
 10
-12.97949262866038
 20
13.99999999999983
 30
0.0
 11
-2.020507371339618
 21
13.99999999999988
 31
0.0
  0
ARC
  5
F19
330
1156
100
AcDbEntity
  8
240
100
AcDbCircle
 10
-12.0
 20
13.79851999999994
 30
0.0
 40
1.0
100
AcDbArc
 50
149.9999999999998
 51
168.3764470000008
  0
ARC
  5
F1A
330
1156
100
AcDbEntity
  8
240
100
AcDbCircle
 10
-3.0
 20
13.79851999999994
 30
0.0
 40
1.0
100
AcDbArc
 50
11.62355299999901
 51
29.99999999999972
  0
LINE
  5
F1B
330
1156
100
AcDbEntity
  8
240
100
AcDbLine
 10
-2.133973999999964
 20
14.29851999999994
 30
0.0
 11
-3.116324999999987
 21
16.0
 31
0.0
  0
LINE
  5
F1C
330
1156
100
AcDbEntity
  8
240
100
AcDbLine
 10
-11.01764999999997
 20
16.5
 30
0.0
 11
-3.982349999999994
 21
16.5
 31
0.0
  0
LINE
  5
F1D
330
1156
100
AcDbEntity
  8
240
100
AcDbLine
 10
0.0
 20
24.73205099999998
 30
0.0
 11
-0.0000000000000568
 21
13.99999999999955
 31
0.0
  0
ARC
  5
F1E
330
1156
100
AcDbEntity
  8
241
100
AcDbCircle
 10
18.80261000000006
 20
7.281481999999982
 30
0.0
 40
10.0
100
AcDbArc
 50
180.0
 51
204.3648099999997
  0
LINE
  5
F1F
330
1156
100
AcDbEntity
  8
240
100
AcDbLine
 10
9.26671200000004
 20
29.76794900000001
 30
0.0
 11
13.53466100000003
 21
32.23205099999999
 31
0.0
  0
LINE
  5
F20
330
1156
100
AcDbEntity
  8
240
100
AcDbLine
 10
3.175429000000007
 20
29.49999999999997
 30
0.0
 11
8.26671200000004
 21
29.49999999999997
 31
0.0
  0
LINE
  5
F21
330
1156
100
AcDbEntity
  8
240
100
AcDbLine
 10
0.1339770000000726
 20
25.23205099999998
 30
0.0
 11
2.309403000000029
 21
28.99999999999997
 31
0.0
  0
ARC
  5
F22
330
1156
100
AcDbEntity
  8
240
100
AcDbCircle
 10
1.00000200000005
 20
24.73205099999998
 30
0.0
 40
1.0
100
AcDbArc
 50
149.9999999999991
 51
180.0
  0
ARC
  5
F23
330
1156
100
AcDbEntity
  8
240
100
AcDbCircle
 10
3.175429000000007
 20
28.49999999999997
 30
0.0
 40
1.0
100
AcDbArc
 50
90.0
 51
149.9999999999991
  0
ARC
  5
F24
330
1156
100
AcDbEntity
  8
240
100
AcDbCircle
 10
8.26671200000004
 20
31.49999999999997
 30
0.0
 40
2.0
100
AcDbArc
 50
270.0
 51
299.9999999999997
  0
LINE
  5
F25
330
1156
100
AcDbEntity
  8
240
100
AcDbLine
 10
14.53466100000002
 20
32.49999999999996
 30
0.0
 11
21.30851000000006
 21
32.49999999999996
 31
0.0
  0
ARC
  5
F26
330
1156
100
AcDbEntity
  8
241
100
AcDbCircle
 10
13.56336600000008
 20
28.32035400000004
 30
0.0
 40
0.5
100
AcDbArc
 50
100.0000000000017
 51
225.0000019999994
  0
ARC
  5
F27
330
1156
100
AcDbEntity
  8
240
100
AcDbCircle
 10
14.53466100000002
 20
30.49999999999997
 30
0.0
 40
2.0
100
AcDbArc
 50
90.0
 51
120.0000000000001
  0
ARC
  5
F28
330
1156
100
AcDbEntity
  8
240
100
AcDbCircle
 10
21.30851000000006
 20
31.49999999999997
 30
0.0
 40
1.0
100
AcDbArc
 50
45.00003399999895
 51
90.0
  0
LINE
  5
F29
330
1156
100
AcDbEntity
  8
240
100
AcDbLine
 10
39.80261400000006
 20
14.00591600000004
 30
0.0
 11
39.80261400000006
 21
-14.00591499999998
 31
0.0
  0
LINE
  5
F2A
330
1156
100
AcDbEntity
  8
240
100
AcDbLine
 10
26.73669900000004
 20
-27.486029
 30
0.0
 11
39.50972100000001
 21
-14.71302199999999
 31
0.0
  0
ARC
  5
F2B
330
1156
100
AcDbEntity
  8
240
100
AcDbCircle
 10
26.02959300000004
 20
-26.77892199999999
 30
0.0
 40
1.0
100
AcDbArc
 50
275.6889559999986
 51
314.999966000001
  0
ARC
  5
F2C
330
1156
100
AcDbEntity
  8
240
100
AcDbCircle
 10
38.80261400000006
 20
-14.00591499999998
 30
0.0
 40
1.0
100
AcDbArc
 50
314.999966000001
 51
0.0
  0
ARC
  5
F2D
330
1156
100
AcDbEntity
  8
240
100
AcDbCircle
 10
38.80261400000006
 20
-14.00591499999998
 30
0.0
 40
1.0
100
AcDbArc
 50
314.999966000001
 51
0.0
  0
LINE
  5
F2E
330
1156
100
AcDbEntity
  8
241
100
AcDbLine
 10
24.16549000000003
 20
30.48150000000001
 30
0.0
 11
39.88284200000004
 21
14.76416600000001
 31
0.0
  0
LINE
  5
F2F
330
1156
100
AcDbEntity
  8
241
100
AcDbLine
 10
39.80261400000006
 20
9.899998000000007
 30
0.0
 11
27.55561000000005
 21
6.216599999999997
 31
0.0
  0
LINE
  5
F30
330
1156
100
AcDbEntity
  8
241
100
AcDbLine
 10
30.47368
 20
9.899998000000007
 30
0.0
 11
39.802613
 21
9.899998000000007
 31
0.0
  0
LINE
  5
F31
330
1156
100
AcDbEntity
  8
241
100
AcDbLine
 10
29.23127500000004
 20
12.24686700000001
 30
0.0
 11
39.66945900000002
 21
14.0874
 31
0.0
  0
ARC
  5
F32
330
1156
100
AcDbEntity
  8
241
100
AcDbCircle
 10
3.785152000000037
 20
7.82753900000003
 30
0.0
 40
20.0
100
AcDbArc
 50
344.5954219999993
 51
356.484146
  0
ARC
  5
F33
330
1156
100
AcDbEntity
  8
241
100
AcDbCircle
 10
30.47368
 20
14.89999800000001
 30
0.0
 40
5.0
100
AcDbArc
 50
225.0
 51
270.0
  0
ARC
  5
F34
330
1156
100
AcDbEntity
  8
241
100
AcDbCircle
 10
29.144451
 20
12.73927000000003
 30
0.0
 40
0.5
100
AcDbArc
 50
225.0000019999994
 51
279.9999999999985
  0
ARC
  5
F35
330
1156
100
AcDbEntity
  8
241
100
AcDbCircle
 10
39.60000000000002
 20
14.481323
 30
0.0
 40
0.4
100
AcDbArc
 50
279.9999999999985
 51
45.00003399999895
  0
ARC
  5
F36
330
1156
100
AcDbEntity
  8
240
100
AcDbCircle
 10
38.80261400000006
 20
14.00591600000004
 30
0.0
 40
1.0
100
AcDbArc
 50
0.0
 51
7.236328000000049
  0
ARC
  5
F37
330
1156
100
AcDbEntity
  8
241
100
AcDbCircle
 10
23.81235600000001
 20
30.12752799999995
 30
0.0
 40
0.5
100
AcDbArc
 50
45.00003399999895
 51
100.0000000000017
  0
VIEWPORT
  5
22
330
1154
100
AcDbEntity
 67
     1
  8
0
100
AcDbViewport
 10
261.5176991150442
 20
148.5
 30
0.0
 40
523.0353982300885
 41
297.0
 68
     1
 69
    -1
 12
261.5176991150442
 22
148.5
 13
0.0
 23
0.0
 14
1.0
 24
1.0
 15
10.0
 25
10.0
 16
0.0
 26
0.0
 36
1.0
 17
0.0
 27
0.0
 37
0.0
 42
50.0
 43
0.0
 44
0.0
 45
297.0
 50
0.0
 51
0.0
 72
   100
 90
   557216
  1

281
     0
 71
     0
 74
     0
110
0.0
120
0.0
130
0.0
111
1.0
121
0.0
131
0.0
112
0.0
122
1.0
132
0.0
 79
     0
146
0.0
170
     0
 61
     5
292
     1
282
     1
141
0.0
142
0.0
 63
   256
1001
GENIUS_GENODEF_13
1002
{
1000
HIER
1070
     0
1002
}
1002
{
1000
MANEDIT
1070
     0
1002
}
1002
{
1000
NOSEL
1070
     0
1002
}
1002
{
1000
BEHIND
1070
     0
1002
}
1002
{
1000
OTHER
1070
     0
1002
}
1002
{
1000
REACTOR
1002
}
1001
GENIUS_GENOBJ-N-SDF_13
1002
{
1000
OWNER
1000
GEN
1002
}
1001
GENIUS_GENSCREG_15
1000
PF
1040
1.0
1000
DF
1040
1.0
1000
MIN
1011
0.0
1021
0.0
1031
0.0
1000
MAX
1011
523.0353982300885
1021
297.0
1031
0.0
1000
FLAGS
1070
     4
  0
ENDSEC
  0
SECTION
  2
OBJECTS
  0
DICTIONARY
  5
1146
330
0
100
AcDbDictionary
281
     1
  3
ACAD_GROUP
350
1147
  3
ACAD_IMAGE_VARS
350
11BC
  3
ACAD_LAYOUT
350
1153
  3
ACAD_MLEADERSTYLE
350
11C3
  3
ACAD_MLINESTYLE
350
1150
  3
ACAD_PLOTSETTINGS
350
1152
  3
ACAD_PLOTSTYLENAME
350
1148
  3
ACAD_SCALELIST
350
1197
  3
ACAD_TABLESTYLE
350
11B9
  3
ACDB_RECOMPOSE_DATA
350
11C1
  3
AcDbVariableDictionary
350
11BD
  3
APPDATA
350
11BB
  0
DICTIONARY
  5
1147
102
{ACAD_REACTORS
330
1146
102
}
330
1146
100
AcDbDictionary
281
     1
  0
RASTERVARIABLES
  5
11BC
102
{ACAD_REACTORS
330
1146
102
}
330
1146
100
AcDbRasterVariables
 90
        0
 70
     1
 71
     1
 72
     0
  0
DICTIONARY
  5
1153
102
{ACAD_REACTORS
330
1146
102
}
330
1146
100
AcDbDictionary
281
     1
  3
Model
350
1157
  3
Sheet1
350
1155
  0
DICTIONARY
  5
11C3
102
{ACAD_REACTORS
330
1146
102
}
330
1146
100
AcDbDictionary
281
     1
  0
DICTIONARY
  5
1150
102
{ACAD_REACTORS
330
1146
102
}
330
1146
100
AcDbDictionary
281
     1
  3
Standard
350
1151
  0
DICTIONARY
  5
1152
102
{ACAD_REACTORS
330
1146
102
}
330
1146
100
AcDbDictionary
281
     1
  0
ACDBDICTIONARYWDFLT
  5
1148
102
{ACAD_REACTORS
330
1146
102
}
330
1146
100
AcDbDictionary
281
     1
  3
Normal
350
1149
100
AcDbDictionaryWithDefault
340
1149
  0
DICTIONARY
  5
1197
102
{ACAD_REACTORS
330
1146
102
}
330
1146
100
AcDbDictionary
281
     1
  3
A0
350
1198
  3
A1
350
1199
  3
A2
350
119A
  3
A3
350
119B
  3
A4
350
119C
  3
A5
350
119D
  3
A6
350
119E
  3
A7
350
119F
  3
A8
350
11A0
  3
A9
350
11A1
  3
B0
350
11A2
  3
B1
350
11A3
  3
B2
350
11A4
  3
B3
350
11A5
  3
B4
350
11A6
  3
B5
350
11A7
  3
B6
350
11A8
  3
B7
350
11A9
  3
B8
350
11AA
  3
B9
350
11AB
  3
C0
350
11AC
  3
C1
350
11AD
  3
C2
350
11AE
  3
C3
350
11AF
  3
C4
350
11B0
  3
C5
350
11B1
  3
C6
350
11B2
  3
C7
350
11B3
  3
C8
350
11B4
  3
C9
350
11B5
  3
D0
350
11B6
  3
D1
350
11B7
  3
D2
350
11B8
  0
DICTIONARY
  5
11B9
102
{ACAD_REACTORS
330
1146
102
}
330
1146
100
AcDbDictionary
281
     1
  3
Standard
350
11BA
  0
XRECORD
  5
11C1
102
{ACAD_REACTORS
330
1146
102
}
330
1146
100
AcDbXrecord
280
     1
 90
        1
330
11BA
  0
DICTIONARY
  5
11BD
102
{ACAD_REACTORS
330
1146
102
}
330
1146
100
AcDbDictionary
281
     1
  3
CANNOSCALE
350
11BE
  3
CTABLESTYLE
350
11C2
  0
DICTIONARY
  5
11BB
102
{ACAD_REACTORS
330
1146
102
}
330
1146
100
AcDbDictionary
281
     1
  0
LAYOUT
  5
1157
102
{ACAD_REACTORS
330
1153
102
}
330
1153
100
AcDbPlotSettings
  1

  2
none_device
  4

  6

 40
0.0
 41
0.0
 42
0.0
 43
0.0
 44
0.0
 45
0.0
 46
0.0
 47
0.0
 48
0.0
 49
0.0
140
0.0
141
0.0
142
1.0
143
1.0
 70
  1712
 72
     0
 73
     0
 74
     0
  7

 75
     0
 76
     0
 77
     2
 78
   300
147
1.0
148
0.0
149
0.0
100
AcDbLayout
  1
Model
 70
     1
 71
     0
 10
0.0
 20
0.0
 11
12.0
 21
9.0
 12
0.0
 22
0.0
 32
0.0
 14
-41.22993096147879
 24
-29.49999899999997
 34
0.0
 15
63.99998433384046
 25
61.0
 35
0.0
146
0.0
 13
0.0
 23
0.0
 33
0.0
 16
1.0
 26
0.0
 36
0.0
 17
0.0
 27
1.0
 37
0.0
 76
     0
330
1156
331
1159
  0
LAYOUT
  5
1155
102
{ACAD_REACTORS
330
1153
102
}
330
1153
100
AcDbPlotSettings
  1

  2
none_device
  4

  6

 40
0.0
 41
0.0
 42
0.0
 43
0.0
 44
0.0
 45
0.0
 46
0.0
 47
0.0
 48
0.0
 49
0.0
140
0.0
141
0.0
142
1.0
143
1.0
 70
   688
 72
     0
 73
     0
 74
     5
  7

 75
    16
 76
     0
 77
     2
 78
   300
147
1.0
148
0.0
149
0.0
100
AcDbLayout
  1
Sheet1
 70
     1
 71
     1
 10
0.0
 20
0.0
 11
420.0
 21
297.0
 12
0.0
 22
0.0
 32
0.0
 14
1.000000000000000E+20
 24
1.000000000000000E+20
 34
1.000000000000000E+20
 15
-1.000000000000000E+20
 25
-1.000000000000000E+20
 35
-1.000000000000000E+20
146
0.0
 13
0.0
 23
0.0
 33
0.0
 16
1.0
 26
0.0
 36
0.0
 17
0.0
 27
1.0
 37
0.0
 76
     0
330
1154
331
22
  0
MLINESTYLE
  5
1151
102
{ACAD_REACTORS
330
1150
102
}
330
1150
100
AcDbMlineStyle
  2
Standard
 70
     0
  3

 62
   256
 51
90.0
 52
90.0
 71
     2
 49
0.5
 62
   256
  6
BYLAYER
 49
-0.5
 62
   256
  6
BYLAYER
  0
ACDBPLACEHOLDER
  5
1149
102
{ACAD_REACTORS
330
1148
102
}
330
1148
  0
SCALE
  5
1198
102
{ACAD_REACTORS
330
1197
102
}
330
1197
100
AcDbScale
 70
     0
300
1:1
140
1.0
141
1.0
290
     1
  0
SCALE
  5
1199
102
{ACAD_REACTORS
330
1197
102
}
330
1197
100
AcDbScale
 70
     0
300
1:2
140
1.0
141
2.0
290
     0
  0
SCALE
  5
119A
102
{ACAD_REACTORS
330
1197
102
}
330
1197
100
AcDbScale
 70
     0
300
1:4
140
1.0
141
4.0
290
     0
  0
SCALE
  5
119B
102
{ACAD_REACTORS
330
1197
102
}
330
1197
100
AcDbScale
 70
     0
300
1:5
140
1.0
141
5.0
290
     0
  0
SCALE
  5
119C
102
{ACAD_REACTORS
330
1197
102
}
330
1197
100
AcDbScale
 70
     0
300
1:8
140
1.0
141
8.0
290
     0
  0
SCALE
  5
119D
102
{ACAD_REACTORS
330
1197
102
}
330
1197
100
AcDbScale
 70
     0
300
1:10
140
1.0
141
10.0
290
     0
  0
SCALE
  5
119E
102
{ACAD_REACTORS
330
1197
102
}
330
1197
100
AcDbScale
 70
     0
300
1:16
140
1.0
141
16.0
290
     0
  0
SCALE
  5
119F
102
{ACAD_REACTORS
330
1197
102
}
330
1197
100
AcDbScale
 70
     0
300
1:20
140
1.0
141
20.0
290
     0
  0
SCALE
  5
11A0
102
{ACAD_REACTORS
330
1197
102
}
330
1197
100
AcDbScale
 70
     0
300
1:30
140
1.0
141
30.0
290
     0
  0
SCALE
  5
11A1
102
{ACAD_REACTORS
330
1197
102
}
330
1197
100
AcDbScale
 70
     0
300
1:40
140
1.0
141
40.0
290
     0
  0
SCALE
  5
11A2
102
{ACAD_REACTORS
330
1197
102
}
330
1197
100
AcDbScale
 70
     0
300
1:50
140
1.0
141
50.0
290
     0
  0
SCALE
  5
11A3
102
{ACAD_REACTORS
330
1197
102
}
330
1197
100
AcDbScale
 70
     0
300
1:100
140
1.0
141
100.0
290
     0
  0
SCALE
  5
11A4
102
{ACAD_REACTORS
330
1197
102
}
330
1197
100
AcDbScale
 70
     0
300
2:1
140
2.0
141
1.0
290
     0
  0
SCALE
  5
11A5
102
{ACAD_REACTORS
330
1197
102
}
330
1197
100
AcDbScale
 70
     0
300
4:1
140
4.0
141
1.0
290
     0
  0
SCALE
  5
11A6
102
{ACAD_REACTORS
330
1197
102
}
330
1197
100
AcDbScale
 70
     0
300
8:1
140
8.0
141
1.0
290
     0
  0
SCALE
  5
11A7
102
{ACAD_REACTORS
330
1197
102
}
330
1197
100
AcDbScale
 70
     0
300
10:1
140
10.0
141
1.0
290
     0
  0
SCALE
  5
11A8
102
{ACAD_REACTORS
330
1197
102
}
330
1197
100
AcDbScale
 70
     0
300
100:1
140
100.0
141
1.0
290
     0
  0
SCALE
  5
11A9
102
{ACAD_REACTORS
330
1197
102
}
330
1197
100
AcDbScale
 70
     0
300
1/128" = 1'-0"
140
0.0078125
141
12.0
290
     0
  0
SCALE
  5
11AA
102
{ACAD_REACTORS
330
1197
102
}
330
1197
100
AcDbScale
 70
     0
300
1/64" = 1'-0"
140
0.015625
141
12.0
290
     0
  0
SCALE
  5
11AB
102
{ACAD_REACTORS
330
1197
102
}
330
1197
100
AcDbScale
 70
     0
300
1/32" = 1'-0"
140
0.03125
141
12.0
290
     0
  0
SCALE
  5
11AC
102
{ACAD_REACTORS
330
1197
102
}
330
1197
100
AcDbScale
 70
     0
300
1/16" = 1'-0"
140
0.0625
141
12.0
290
     0
  0
SCALE
  5
11AD
102
{ACAD_REACTORS
330
1197
102
}
330
1197
100
AcDbScale
 70
     0
300
3/32" = 1'-0"
140
0.09375
141
12.0
290
     0
  0
SCALE
  5
11AE
102
{ACAD_REACTORS
330
1197
102
}
330
1197
100
AcDbScale
 70
     0
300
1/8" = 1'-0"
140
0.125
141
12.0
290
     0
  0
SCALE
  5
11AF
102
{ACAD_REACTORS
330
1197
102
}
330
1197
100
AcDbScale
 70
     0
300
3/16" = 1'-0"
140
0.1875
141
12.0
290
     0
  0
SCALE
  5
11B0
102
{ACAD_REACTORS
330
1197
102
}
330
1197
100
AcDbScale
 70
     0
300
1/4" = 1'-0"
140
0.25
141
12.0
290
     0
  0
SCALE
  5
11B1
102
{ACAD_REACTORS
330
1197
102
}
330
1197
100
AcDbScale
 70
     0
300
3/8" = 1'-0"
140
0.375
141
12.0
290
     0
  0
SCALE
  5
11B2
102
{ACAD_REACTORS
330
1197
102
}
330
1197
100
AcDbScale
 70
     0
300
1/2" = 1'-0"
140
0.5
141
12.0
290
     0
  0
SCALE
  5
11B3
102
{ACAD_REACTORS
330
1197
102
}
330
1197
100
AcDbScale
 70
     0
300
3/4" = 1'-0"
140
0.75
141
12.0
290
     0
  0
SCALE
  5
11B4
102
{ACAD_REACTORS
330
1197
102
}
330
1197
100
AcDbScale
 70
     0
300
1" = 1'-0"
140
1.0
141
12.0
290
     0
  0
SCALE
  5
11B5
102
{ACAD_REACTORS
330
1197
102
}
330
1197
100
AcDbScale
 70
     0
300
1-1/2" = 1'-0"
140
1.5
141
12.0
290
     0
  0
SCALE
  5
11B6
102
{ACAD_REACTORS
330
1197
102
}
330
1197
100
AcDbScale
 70
     0
300
3" = 1'-0"
140
3.0
141
12.0
290
     0
  0
SCALE
  5
11B7
102
{ACAD_REACTORS
330
1197
102
}
330
1197
100
AcDbScale
 70
     0
300
6" = 1'-0"
140
6.0
141
12.0
290
     0
  0
SCALE
  5
11B8
102
{ACAD_REACTORS
330
1197
102
}
330
1197
100
AcDbScale
 70
     0
300
1'-0" = 1'-0"
140
12.0
141
12.0
290
     0
  0
TABLESTYLE
  5
11BA
102
{ACAD_REACTORS
330
11B9
102
}
102
{ACAD_XDICTIONARY
360
11BF
102
}
330
11B9
100
AcDbTableStyle
  3
Standard
 70
     0
 71
     0
 40
0.06
 41
0.06
280
     0
281
     0
  7
STANDARD
140
0.18
170
     2
 62
     0
 63
   257
283
     0
 90
        4
 91
        0
  1

274
    -2
284
     1
 64
     0
275
    -2
285
     1
 65
     0
276
    -2
286
     1
 66
     0
277
    -2
287
     1
 67
     0
278
    -2
288
     1
 68
     0
279
    -2
289
     1
 69
     0
  7
STANDARD
140
0.25
170
     5
 62
     0
 63
   257
283
     0
 90
        4
 91
        0
  1

274
    -2
284
     1
 64
     0
275
    -2
285
     1
 65
     0
276
    -2
286
     1
 66
     0
277
    -2
287
     1
 67
     0
278
    -2
288
     1
 68
     0
279
    -2
289
     1
 69
     0
  7
STANDARD
140
0.18
170
     5
 62
     0
 63
   257
283
     0
 90
        4
 91
        0
  1

274
    -2
284
     1
 64
     0
275
    -2
285
     1
 65
     0
276
    -2
286
     1
 66
     0
277
    -2
287
     1
 67
     0
278
    -2
288
     1
 68
     0
279
    -2
289
     1
 69
     0
  0
DICTIONARYVAR
  5
11BE
102
{ACAD_REACTORS
330
11BD
102
}
330
11BD
100
DictionaryVariables
280
     0
  1
1:1
  0
DICTIONARYVAR
  5
11C2
102
{ACAD_REACTORS
330
11BD
102
}
330
11BD
100
DictionaryVariables
280
     0
  1
Standard
  0
DICTIONARY
  5
11BF
330
11BA
100
AcDbDictionary
280
     1
281
     1
  3
ACAD_ROUNDTRIP_2008_TABLESTYLE_CELLSTYLEMAP
360
11C0
  0
CELLSTYLEMAP
  5
11C0
102
{ACAD_REACTORS
330
11BF
102
}
330
11BF
100
AcDbCellStyleMap
 90
        3
300
CELLSTYLE
  1
TABLEFORMAT_BEGIN
 90
        5
170
     1
 91
        0
 92
        0
 62
   257
 93
        1
300
CONTENTFORMAT
  1
CONTENTFORMAT_BEGIN
 90
        0
 91
        0
 92
        4
 93
        0
300

 40
0.0
140
1.0
 94
        5
 62
     0
340
114B
144
0.25
309
CONTENTFORMAT_END
171
     1
301
MARGIN
  1
CELLMARGIN_BEGIN
 40
0.06
 40
0.06
 40
0.06
 40
0.06
 40
0.06
 40
0.06
309
CELLMARGIN_END
 94
        6
 95
        1
302
GRIDFORMAT
  1
GRIDFORMAT_BEGIN
 90
        0
 91
        1
 62
     0
 92
       -2
340
114D
 93
        0
 40
0.045
309
GRIDFORMAT_END
 95
        2
302
GRIDFORMAT
  1
GRIDFORMAT_BEGIN
 90
        0
 91
        1
 62
     0
 92
       -2
340
114D
 93
        0
 40
0.045
309
GRIDFORMAT_END
 95
        4
302
GRIDFORMAT
  1
GRIDFORMAT_BEGIN
 90
        0
 91
        1
 62
     0
 92
       -2
340
114D
 93
        0
 40
0.045
309
GRIDFORMAT_END
 95
        8
302
GRIDFORMAT
  1
GRIDFORMAT_BEGIN
 90
        0
 91
        1
 62
     0
 92
       -2
340
114D
 93
        0
 40
0.045
309
GRIDFORMAT_END
 95
       16
302
GRIDFORMAT
  1
GRIDFORMAT_BEGIN
 90
        0
 91
        1
 62
     0
 92
       -2
340
114D
 93
        0
 40
0.045
309
GRIDFORMAT_END
 95
       32
302
GRIDFORMAT
  1
GRIDFORMAT_BEGIN
 90
        0
 91
        1
 62
     0
 92
       -2
340
114D
 93
        0
 40
0.045
309
GRIDFORMAT_END
309
TABLEFORMAT_END
  1
CELLSTYLE_BEGIN
 90
        1
 91
        1
300
_TITLE
309
CELLSTYLE_END
300
CELLSTYLE
  1
TABLEFORMAT_BEGIN
 90
        5
170
     1
 91
        0
 92
        0
 62
   257
 93
        1
300
CONTENTFORMAT
  1
CONTENTFORMAT_BEGIN
 90
        0
 91
        0
 92
        4
 93
        0
300

 40
0.0
140
1.0
 94
        5
 62
     0
340
114B
144
0.18
309
CONTENTFORMAT_END
171
     1
301
MARGIN
  1
CELLMARGIN_BEGIN
 40
0.06
 40
0.06
 40
0.06
 40
0.06
 40
0.06
 40
0.06
309
CELLMARGIN_END
 94
        6
 95
        1
302
GRIDFORMAT
  1
GRIDFORMAT_BEGIN
 90
        0
 91
        1
 62
     0
 92
       -2
340
114D
 93
        0
 40
0.045
309
GRIDFORMAT_END
 95
        2
302
GRIDFORMAT
  1
GRIDFORMAT_BEGIN
 90
        0
 91
        1
 62
     0
 92
       -2
340
114D
 93
        0
 40
0.045
309
GRIDFORMAT_END
 95
        4
302
GRIDFORMAT
  1
GRIDFORMAT_BEGIN
 90
        0
 91
        1
 62
     0
 92
       -2
340
114D
 93
        0
 40
0.045
309
GRIDFORMAT_END
 95
        8
302
GRIDFORMAT
  1
GRIDFORMAT_BEGIN
 90
        0
 91
        1
 62
     0
 92
       -2
340
114D
 93
        0
 40
0.045
309
GRIDFORMAT_END
 95
       16
302
GRIDFORMAT
  1
GRIDFORMAT_BEGIN
 90
        0
 91
        1
 62
     0
 92
       -2
340
114D
 93
        0
 40
0.045
309
GRIDFORMAT_END
 95
       32
302
GRIDFORMAT
  1
GRIDFORMAT_BEGIN
 90
        0
 91
        1
 62
     0
 92
       -2
340
114D
 93
        0
 40
0.045
309
GRIDFORMAT_END
309
TABLEFORMAT_END
  1
CELLSTYLE_BEGIN
 90
        2
 91
        1
300
_HEADER
309
CELLSTYLE_END
300
CELLSTYLE
  1
TABLEFORMAT_BEGIN
 90
        5
170
     1
 91
        0
 92
        0
 62
   257
 93
        1
300
CONTENTFORMAT
  1
CONTENTFORMAT_BEGIN
 90
        0
 91
        0
 92
        4
 93
        0
300

 40
0.0
140
1.0
 94
        2
 62
     0
340
114B
144
0.18
309
CONTENTFORMAT_END
171
     1
301
MARGIN
  1
CELLMARGIN_BEGIN
 40
0.06
 40
0.06
 40
0.06
 40
0.06
 40
0.06
 40
0.06
309
CELLMARGIN_END
 94
        6
 95
        1
302
GRIDFORMAT
  1
GRIDFORMAT_BEGIN
 90
        0
 91
        1
 62
     0
 92
       -2
340
114D
 93
        0
 40
0.045
309
GRIDFORMAT_END
 95
        2
302
GRIDFORMAT
  1
GRIDFORMAT_BEGIN
 90
        0
 91
        1
 62
     0
 92
       -2
340
114D
 93
        0
 40
0.045
309
GRIDFORMAT_END
 95
        4
302
GRIDFORMAT
  1
GRIDFORMAT_BEGIN
 90
        0
 91
        1
 62
     0
 92
       -2
340
114D
 93
        0
 40
0.045
309
GRIDFORMAT_END
 95
        8
302
GRIDFORMAT
  1
GRIDFORMAT_BEGIN
 90
        0
 91
        1
 62
     0
 92
       -2
340
114D
 93
        0
 40
0.045
309
GRIDFORMAT_END
 95
       16
302
GRIDFORMAT
  1
GRIDFORMAT_BEGIN
 90
        0
 91
        1
 62
     0
 92
       -2
340
114D
 93
        0
 40
0.045
309
GRIDFORMAT_END
 95
       32
302
GRIDFORMAT
  1
GRIDFORMAT_BEGIN
 90
        0
 91
        1
 62
     0
 92
       -2
340
114D
 93
        0
 40
0.045
309
GRIDFORMAT_END
309
TABLEFORMAT_END
  1
CELLSTYLE_BEGIN
 90
        3
 91
        2
300
_DATA
309
CELLSTYLE_END
  0
ENDSEC
  0
EOF
